Site menu:

    

Browse: 0-9 A B C D E F G H I J K L N O P Q R S T U V W X Y Z

zero hour - stratagem:



Title: Zero Hour
Artist: 
Album: The Towers Of Avarice
Author: Jason Tipton & Troy Tipton


Track 1: Rhythm Guitar

E|-------------|-------------|------------|----------------|---------------------------------|
B|-------------|-------------|------------|----------------|---------------------------------|
G|-------------|-------------|------------|----------------|---------------------------------|
D|-12----------|-------------|------------|----------------|-----7---9---10--9---7-------7---|
A|-12----------|-------------|------------|----------------|-8-----------------------8-------|
E|-12----------|-------------|------------|----------------|---------------------------------|


E|---------------------------------|---------------------------------|---------------------------------|
B|---------------------------------|---------------------------------|---------------------------------|
G|---------------------------------|---------------------------------|---------------------------------|
D|-9---10--9---7-------7---9-------|-7---9---10--9---7-------7---9---|-10--9---7-------7---9-------7---|
A|-----------------8-----------8---|---------------------8-----------|-------------8-----------8-------|
E|---------------------------------|---------------------------------|---------------------------------|


E|---------------------------------|---------------------------------|---------------------------------|
B|---------------------------------|---------------------------------|---------------------------------|
G|---------------------------------|---------------------------------|---------------------------------|
D|-9---10--9---7-------7---9---10--|-9---7-------7---9-------7---9---|-10--9---7-------7---9---10--9---|
A|-----------------8---------------|---------8-----------8-----------|-------------8-------------------|
E|---------------------------------|---------------------------------|---------------------------------|


E|---------------------------------|---------------------------------|---------------------------------|
B|---------------------------------|---------------------------------|---------------------------------|
G|---------------------------------|---------------------------------|---------------------------------|
D|-7-------7---9-------7---9---10--|-9---7-------7---9---10--9---7---|-----7---9-------7---9---10--9---|
A|-----8-----------8---------------|---------8-----------------------|-8-----------8-------------------|
E|---------------------------------|---------------------------------|---------------------------------|


E|---------------------------------|------------------------------|---------------------------------|
B|---------------------------------|------------------------------|---------------------------------|
G|---------------------------------|------------------------------|---------------------------------|
D|-7-------7---9---10--9---7-------|-7---9------------7---9---10--|-9-------7---9---10--9-------7---|
A|-----8-----------------------8---|--------------8---------------|-----8-------------------8-------|
E|---------------------------------|------------------------------|---------------------------------|


E|---------------------------------|---------------------------------|---------------------------------|
B|---------------------------------|---------------------------------|---------------------------------|
G|---------------------------------|---------------------------------|---------------------------------|
D|-9---10--9-------7---9---10--9---|-----7---9---10--9-------7---9---|-10--9-------7---9---10--9-------|
A|-------------8-------------------|-8-------------------8-----------|---------8-------------------8---|
E|---------------------------------|---------------------------------|---------------------------------|


E|---------------------------------|---------------------------------|---------------------------------|
B|---------------------------------|---------------------------------|---------------------------------|
G|---------------------------------|---------------------------------|---------------------------------|
D|-7---9---10--9-------7---9---10--|-9-------7---9---10--9-------7---|-9---10--9-------7---9---10--9---|
A|-----------------8---7---9---10--|-9---8---7---9---10--9---8---7---|-9---10--9---8---7---9---10--9---|
E|-----------------8---------------|-----8-------------------8-------|-------------8-------------------|


E|---------------------------------|---------------------------------|---------------------------------|
B|---------------------------------|---------------------------------|---------------------------------|
G|---------------------------------|---------------------------------|---------------------------------|
D|-----7---9---10--9-------7---9---|-10--9-------7---9---10--9-------|-7---9---10--9-------7---9-------|
A|-8---7---9---10--9---8---7---9---|-10--9---8---7---9---10--9---8---|-7---9---10--9---8-----------8---|
E|-8-------------------8-----------|---------8-------------------8---|---------------------------------|


E|---------------------------------|---------------------------------|---------------------------------|
B|---------------------------------|---------------------------------|---------------------------------|
G|---------------------------------|---------------------------------|---------------------------------|
D|-7---9---10--9---7-------7---9---|-----7---9-------7---9-------7---|-9---10--9---7-------7---9-------|
A|---------------------8-----------|-8-----------8-----------8-------|-----------------8-----------8---|
E|---------------------------------|---------------------------------|---------------------------------|


E|---------------------------------|---------------------------------|---------------------------------|
B|---------------------------------|---------------------------------|---------------------------------|
G|---------------------------------|---------------------------------|---------------------------------|
D|-7---9-------7---9-------7---9---|-10--9---7-------7---9-------7---|-9-------7---9-------7---9---10--|
A|---------8-----------8-----------|-------------8-----------8-------|-----8-----------8---------------|
E|---------------------------------|---------------------------------|---------------------------------|


E|---------------------------------|---------------------------------|---------------------------------|
B|---------------------------------|---------------------------------|---------------------------------|
G|---------------------------------|---------------------------------|---------------------------------|
D|-9---7-------7---9-------7---9---|-----7---9---10--9---7-------7---|-9---10--9---7-------7---9-------|
A|---------8-----------8-----------|-8-----------------------8-------|-----------------8-----------8---|
E|---------------------------------|---------------------------------|---------------------------------|


E|---------------------------------|---------------------------------|---------------------------------|
B|---------------------------------|---------------------------------|---------------------------------|
G|---------------------------------|---------------------------------|---------------------------------|
D|-7---9---10--9---7-------7---9---|-10--9---7-------7---9-------7---|-9---10--9---7-------7---9---10--|
A|---------------------8-----------|-------------8-----------8-------|-----------------8---------------|
E|---------------------------------|---------------------------------|---------------------------------|


E|---------------------------------|---------------------------------|------------------------------|
B|---------------------------------|---------------------------------|------------------------------|
G|---------------------------------|---------------------------------|------------------------------|
D|-9---7-------7---9-------7---9---|-10--9---7-------7---9---10--9---|-7-------7---9----------------|
A|---------8-----------8-----------|-------------8-------------------|-----8----------------4---4---|
E|---------------------------------|---------------------------------|----------------------4---4---|


E|---------------------------------|---------------------------------|---------------------------------|
B|---------------------------------|---------------------------------|---------------------------------|
G|---------------------------------|---------------------------------|---------------------------------|
D|-6-------7-------6---------------|-6-------7-----------6-------7---|-----6---------------6-------7---|
A|-----4-------4-------4---4---4---|-----4-------4---4-------4-------|-4-------4---4---4-------4-------|
E|-------------------------4---4---|-------------4---4---------------|-------------4---4---------------|


E|---------------------------------|---------------------------------|---------------------------------|
B|---------------------------------|---------------------------------|---------------------------------|
G|---------------------------------|---------------------------------|---------------------------------|
D|---------6-------7-------6-------|---------6-------7-----------6---|-----7-------6---------------6---|
A|-4---4-------4-------4-------4---|-4---4-------4-------4---4-------|-4-------4-------4---4---4-------|
E|-4---4---------------------------|-4---4---------------4---4-------|---------------------4---4-------|


E|---------------------------------|---------------------------------|---------------------------------|
B|---------------------------------|---------------------------------|---------------------------------|
G|---------------------------------|---------------------------------|---------------------------------|
D|-----7-----------6-------7-------|-6---------------6-------7-------|-----6-------7-------6-----------|
A|-4-------4---4-------4-------4---|-----4---4---4-------4-------4---|-4-------4-------4-------4---4---|
E|---------4---4-------------------|---------4---4---------------4---|-4---------------------------4---|


E|---------------------------------|---------------------------------|---------------------------------|
B|---------------------------------|---------------------------------|---------------------------------|
G|---------------------------------|---------------------------------|---------------------------------|
D|-----6-------7-----------6-------|-7-------6---------------6-------|-7-----------6-------7-------6---|
A|-4-------4-------4---4-------4---|-----4-------4---4---4-------4---|-----4---4-------4-------4-------|
E|-4---------------4---4-----------|-----------------4---4-----------|-----4---4-----------------------|


E|-------------------------------------|------------------------|-------------------------------|
B|-------------------------------------|------------------------|-------------------------------|
G|-------------------------------------|------------------------|-------------------------------|
D|-------------6-------7---------------|-8-----------------7----|-------------8-----------------|
A|-4---4---4-------4-------------------|------------------------|-------------------------------|
E|-----4---4---------------6--6--6--6--|-------6--6--6--6-------|-6--6--6--6--------6--6--6--6--|


E|------------------------|-----------------------------------|-----------------------------------|
B|------------------------|-----------------------------------|-----------------------------------|
G|-7----------------------|-----------------------------------|------------------7----------------|
D|------------------8-----|-------------7----------------8----|-----------------------------------|
A|------------------------|-----------------------------------|-----------------------------------|
E|------6--6--6--6--------|-6--6--6--6-------6--6--6--6-------|------6--6--6--6-------6--6--6--6--|


E|------------------------|-------------------------------|------------------------|
B|------------------------|-------------------------------|------------------------|
G|------------------------|-------------------------------|-7----------------------|
D|-8-----------------7----|-------------8-----------------|------------------8-----|
A|------------------------|-------------------------------|------------------------|
E|-------6--6--6--6-------|-6--6--6--6--------6--6--6--6--|------6--6--6--6--------|


E|-----------------------------------|-----------------------------------|---------------------------|
B|-----------------------------------|-----------------------------------|---------------------------|
G|-----------------------------------|------------------7----------------|---------------------------|
D|-------------7----------------8----|-----------------------------------|----8-----8----------------|
A|-----------------------------------|-----------------------------------|---------------------------|
E|-6--6--6--6-------6--6--6--6-------|------6--6--6--6-------6--6--6--6--|-6-------------6--6--6--6--|


E|--------------------------------|-------------------------------------------|---------------------------|
B|--------------------------------|-------------------------------------------|---------------------------|
G|--------------------------------|-------------------------------------------|---------------------------|
D|-------9------------------8-----|----8----------------------9---------------|----8-----8----------------|
A|--------------------------------|-------------------------------------------|---------------------------|
E|-6--6------6--6--6--6--6--------|---------6--6--6--6--6--6------6--6--6--6--|-6-------------6--6--6--6--|


E|--------------------------------|-------------------------------------------|---------------------------|
B|--------------------------------|-------------------------------------------|---------------------------|
G|--------------------------------|-------------------------------------------|---------------------------|
D|-------9------------------8-----|----8----------------------9---------------|----8-----8----------------|
A|--------------------------------|-------------------------------------------|---------------------------|
E|-6--6------6--6--6--6--6--------|---------6--6--6--6--6--6------6--6--6--6--|-6-------------6--6--6--6--|


E|--------------------------------|-------------------------------------------|---------------------------|
B|--------------------------------|-------------------------------------------|---------------------------|
G|--------------------------------|-------------------------------------------|---------------------------|
D|-------9------------------8-----|----8----------------------9---------------|----8-----8----------------|
A|--------------------------------|-------------------------------------------|---------------------------|
E|-6--6------6--6--6--6--6--------|---------6--6--6--6--6--6------6--6--6--6--|-6-------------6--6--6--6--|


E|--------------------------------|-------------------------------------------|---------------------------|
B|--------------------------------|-------------------------------------------|---------------------------|
G|--------------------------------|-------------------------------------------|---------------------------|
D|-------9------------------8-----|----8----------------------9---------------|----8-----8----------------|
A|--------------------------------|-------------------------------------------|---------------------------|
E|-6--6------6--6--6--6--6--------|---------6--6--6--6--6--6------6--6--6--6--|-6-------------6--6--6--6--|


E|--------------------------------|-------------------------------------------|---------------------------|
B|--------------------------------|-------------------------------------------|---------------------------|
G|--------------------------------|-------------------------------------------|---------------------------|
D|-------9------------------8-----|----8----------------------9---------------|----8-----8----------------|
A|--------------------------------|-------------------------------------------|---------------------------|
E|-6--6------6--6--6--6--6--------|---------6--6--6--6--6--6------6--6--6--6--|-6-------------6--6--6--6--|


E|--------------------------------|------------------------------------|--------|--------|
B|--------------------------------|------------------------------------|--------|--------|
G|--------------------------------|------------------------------------|--------|--------|
D|-------9------------------8-----|----8----------------------9--------|--------|--------|
A|--------------------------------|------------------------------------|--------|--------|
E|-6--6------6--6--6--6--6--------|---------6--6--6--6--6--6-----------|--------|--------|


E|--------|--------|--------|----------------|---------------------------------|---------------------------------|
B|--------|--------|--------|----------------|---------------------------------|---------------------------------|
G|--------|--------|--------|----------------|-9-----------------------9-------|-----------------9-----------9---|
D|--------|--------|--------|------------8---|-----9---8-----------8-------9---|-8-----------8-----------8-------|
A|--------|--------|--------|--------7-------|-------------6---7---------------|-----6---7-----------7-----------|
E|--------|--------|--------|----------------|---------------------------------|---------------------------------|


E|---------------------------------|---------------------------------|---------------------------------|
B|---------------------------------|---------------------------------|---------------------------------|
G|---------------------9-----------|-------------9-----------9-------|-----------------9---------------|
D|-9---8-----------8-------9---8---|---------8-----------8-------9---|-8-----------8-------9---8-------|
A|---------6---7-------------------|-6---7-----------7---------------|-----6---7-------------------6---|
E|---------------------------------|---------------------------------|---------------------------------|


E|---------------------------------|---------------------------------|--------------------|
B|---------------------------------|---------------------------------|--------------------|
G|---------9-----------9-----------|-------------9-------------------|-----9---------3----|
D|-----8-----------8-------9---8---|---------8-------9---8-----------|-8-------1----------|
A|-7-----------7-------------------|-6---7-------------------6---7---|--------------------|
E|---------------------------------|---------------------------------|--------------------|


E|------1----2---------|------------1----|-----------------|------1----2---------|
B|---------------------|-----------------|-2---------------|---------------------|
G|---------------------|------3----------|------------3----|---------------------|
D|----------------1----|-----------------|------1----------|----------------1----|
A|---------------------|-----------------|-----------------|---------------------|
E|---------------------|-----------------|-----------------|---------------------|


E|-----------------|-6---------------|------1----2---------|------------1----|-----------------|
B|------------6----|-----------------|---------------------|-----------------|-2---------------|
G|------3----------|------------3----|---------------------|------3----------|------------3----|
D|-----------------|------1----------|----------------1----|-----------------|------1----------|
A|-----------------|-----------------|---------------------|-----------------|-----------------|
E|-----------------|-----------------|---------------------|-----------------|-----------------|


E|------1----2---------|-----------------|-6---------------|---------------------|
B|---------------------|------------6----|-----------------|------4----5---------|
G|---------------------|------3----------|-----------------|---------------------|
D|----------------1----|-----------------|------------6----|----------------1----|
A|---------------------|-----------------|------4----------|---------------------|
E|---------------------|-----------------|-----------------|---------------------|


E|------------1----|-2---------------|------1--------------|------------1----|-2---------------|
B|-----------------|-----------------|-----------2---------|-----------------|-----------------|
G|------3----------|------------3----|---------------------|------3----------|------------3----|
D|-----------------|------1----------|----------------1----|-----------------|------1----------|
A|-----------------|-----------------|---------------------|-----------------|-----------------|
E|-----------------|-----------------|---------------------|-----------------|-----------------|


E|-----------6---------|------------1----|-2---------------|------1--------------|
B|------6--------------|-----------------|-----------------|-----------2---------|
G|---------------------|------3----------|------------3----|---------------------|
D|----------------1----|-----------------|------1----------|---------------------|
A|---------------------|-----------------|-----------------|----------------4----|
E|---------------------|-----------------|-----------------|---------------------|


E|-----------------|-----------------|------1----2---------|------------1----|------------------------------|
B|------------4----|-5---------------|---------------------|-----------------|-2----------------------------|
G|-----------------|------------3----|---------------------|------3----------|--------------9---------------|
D|------6----------|------1----------|----------------1----|-----------------|----------8-------9---8-------|
A|-----------------|-----------------|---------------------|-----------------|------7-------------------6---|
E|-----------------|-----------------|---------------------|-----------------|------------------------------|


E|---------------------------------|---------------------------------|---------------------------------|
B|---------------------------------|---------------------------------|---------------------------------|
G|---------9-----------------------|-9-----------9-------------------|-----9-----------------------9---|
D|-----8-------9---8-----------8---|---------8-------9---8-----------|-8-------9---8-----------8-------|
A|-7-------------------6---7-------|-----7-------------------6---7---|-----------------6---7-----------|
E|---------------------------------|---------------------------------|---------------------------------|


E|---------------------------------|---------------------------------|---------------------------------|
B|---------------------------------|---------------------------------|---------------------------------|
G|---------9-----------------------|-9-----------------------9-------|-----9-----------------------9---|
D|-----8-------9---8-----------8---|-----9---8-----------8-----------|-8-------9---8-----------8-------|
A|-7-------------------6---7-------|-------------6---7-----------7---|-----------------6---7-----------|
E|---------------------------------|---------------------------------|---------------------------------|


E|------------------------------|------------1----|-2---------------|------1--------------|
B|------------------------------|-----------------|-----------------|-----------2---------|
G|---------------------9--------|------3----------|------------3----|---------------------|
D|-9---8-----------8-------1----|-----------------|------1----------|----------------1----|
A|---------6---7----------------|-----------------|-----------------|---------------------|
E|------------------------------|-----------------|-----------------|---------------------|


E|------------1----|-2---------------|-----------6---------|------------1----|-2---------------|
B|-----------------|-----------------|------6--------------|-----------------|-----------------|
G|------3----------|------------3----|---------------------|------3----------|------------3----|
D|-----------------|------1----------|----------------1----|-----------------|------1----------|
A|-----------------|-----------------|---------------------|-----------------|-----------------|
E|-----------------|-----------------|---------------------|-----------------|-----------------|


E|------1--------------|------------1----|-2---------------|-----------6---------|
B|-----------2---------|-----------------|-----------------|------6--------------|
G|---------------------|------3----------|------------3----|---------------------|
D|----------------1----|-----------------|------1----------|---------------------|
A|---------------------|-----------------|-----------------|----------------4----|
E|---------------------|-----------------|-----------------|---------------------|


E|-----------------|-----------------|------1----2---------|------------1----|-----------------|
B|------------4----|-5---------------|---------------------|-----------------|-2---------------|
G|-----------------|------------3----|---------------------|------3----------|------------3----|
D|------6----------|------1----------|----------------1----|-----------------|------1----------|
A|-----------------|-----------------|---------------------|-----------------|-----------------|
E|-----------------|-----------------|---------------------|-----------------|-----------------|


E|------1----2---------|-----------------|-6---------------|------1----2---------|
B|---------------------|------------6----|-----------------|---------------------|
G|---------------------|------3----------|------------3----|---------------------|
D|----------------1----|-----------------|------1----------|----------------1----|
A|---------------------|-----------------|-----------------|---------------------|
E|---------------------|-----------------|-----------------|---------------------|


E|------------1----|-----------------|---------------------|------------1----|-2---------------|
B|-----------------|-2---------------|------4----5---------|-----------------|-----------------|
G|------3----------|-----------------|---------------------|------3----------|------------3----|
D|-----------------|------------6----|----------------1----|-----------------|------1----------|
A|-----------------|------4----------|---------------------|-----------------|-----------------|
E|-----------------|-----------------|---------------------|-----------------|-----------------|


E|------1---------------------|-------------------------------------------------|-------------------------------------------------|
B|-----------2----------------|-------------------------------------------------|-------------------------------------------------|
G|----------------------------|-3--4--------------3--4--------------------------|-3--4--------------3--4--------------------------|
D|----------------------2--3--|-------------2--3--------------------------2--3--|-------------2--3--------------------------2--3--|
A|----------------------------|-------------------------------------------------|-------------------------------------------------|
E|----------------4--4--------|-------4--4--------------4--4--4--4--4--4--------|-------4--4--------------4--4--4--4--4--4--------|


E|-------------------------------------------------|-------------------------------------------------|
B|-------------------------------------------------|-------------------------------------------------|
G|-3--4--------------3--4--------------------------|-3--4--------------3--4--------------5-----------|
D|-------------2--3--------------------------2--3--|-------------2--3-----------------------3--3--3--|
A|-------------------------------------------------|-------------------------------------------------|
E|-------4--4--------------4--4--4--4--4--4--------|-------4--4--------------4--4--4--4--------------|


E|-------------------------------------------------|-------------------------------------------------|
B|-------------------------------------------------|-------------------------------------------------|
G|-6-----------5-----------5-----------6-----5-----|-------6-----------5-----------5-----------6-----|
D|----3--3--3-----3--3--3-----3--3--3-----3-----3--|-3--3-----3--3--3-----3--3--3-----3--3--3-----3--|
A|-------------------------------------------------|-------------------------------------------------|
E|-------------------------------------------------|-------------------------------------------------|


E|-------------------------------------------------|-------------------------------------------------|
B|-------------------------------------------------|-------------------------------------------------|
G|-5-----------6-----------5-----------5-----------|-6-----5-----------6-----------5-----------5-----|
D|----3--3--3-----3--3--3-----3--3--3-----3--3--3--|----3-----3--3--3-----3--3--3-----3--3--3-----3--|
A|-------------------------------------------------|-------------------------------------------------|
E|-------------------------------------------------|-------------------------------------------------|


E|-------------------------------------------------|-------------------------------------------------|
B|-------------------------------------------------|-------------------------------------------------|
G|-------6-----------------------5-----------6-----|-------5-----------5-----------6-----5-----------|
D|-3--3-----3-----------------------3--3--3-----3--|-3--3-----3--3--3-----3--3--3-----3-----3--3--3--|
A|-------------------8--10-------------------------|-------------------------------------------------|
E|-------------8--10-------8--10-------------------|-------------------------------------------------|


E|-------------------------------------------------|-------------------------------------------------|
B|-------------------------------------------------|-------------------------------------------------|
G|-6-----------5-----------5-----------6-----5-----|-------6-----------5-----------5-----------6-----|
D|----3--3--3-----3--3--3-----3--3--3-----3-----3--|-3--3-----3--3--3-----3--3--3-----3--3--3-----3--|
A|-------------------------------------------------|-------------------------------------------------|
E|-------------------------------------------------|-------------------------------------------------|


E|-------------------------------------------------|-------------------------------------------------|
B|-------------------------------------------------|-------------------------------------------------|
G|-5-----------6-----------5-----------5-----------|-6-----7-----------8-----------7-----------7-----|
D|----3--3--3-----3--3--3-----3--3--3-----3--3--3--|----3-----5--5--5-----5--5--5-----5--5--5-----5--|
A|-------------------------------------------------|-------------------------------------------------|
E|-------------------------------------------------|-------------------------------------------------|


E|-------------------------------------------------|-------------------------------------------------|
B|-------------------------------------------------|-------------------------------------------------|
G|-------8-----7-----------8-----------7-----------|-7-----------8-----7-----------8-----------7-----|
D|-5--5-----5-----5--5--5-----5--5--5-----5--5--5--|----5--5--5-----5-----5--5--5-----5--5--5-----5--|
A|-------------------------------------------------|-------------------------------------------------|
E|-------------------------------------------------|-------------------------------------------------|


E|-------------------------------------------------|-------------------------------------|
B|-------------------------------------------------|-------------------------------------|
G|-------7-----------8-----7-----------8-----------|-7-----------7-----------8-----------|
D|-5--5-----5--5--5-----5-----5--5--5-----5--5--5--|----5--5--5-----5--5--5-----5--------|
A|-------------------------------------------------|-------------------------------------|
E|-------------------------------------------------|-------------------------------------|


E|--------|--------|--------|--------|--------|--------|--------|--------|--------|
B|--------|--------|--------|--------|--------|--------|--------|--------|--------|
G|--------|--------|--------|--------|--------|--------|--------|--------|--------|
D|--------|--------|--------|--------|--------|--------|--------|--------|--------|
A|--------|--------|--------|--------|--------|--------|--------|--------|--------|
E|--------|--------|--------|--------|--------|--------|--------|--------|--------|


E|--------|--------|--------|--------|--------|--------|--------|--------|--------|
B|--------|--------|--------|--------|--------|--------|--------|--------|--------|
G|--------|--------|--------|--------|--------|--------|--------|--------|--------|
D|--------|--------|--------|--------|--------|--------|--------|--------|--------|
A|--------|--------|--------|--------|--------|--------|--------|--------|--------|
E|--------|--------|--------|--------|--------|--------|--------|--------|--------|


E|--------|--------|--------|--------|--------|--------|--------|--------|--------|
B|--------|--------|--------|--------|--------|--------|--------|--------|--------|
G|--------|--------|--------|--------|--------|--------|--------|--------|--------|
D|--------|--------|--------|--------|--------|--------|--------|--------|--------|
A|--------|--------|--------|--------|--------|--------|--------|--------|--------|
E|--------|--------|--------|--------|--------|--------|--------|--------|--------|


E|--------|--------|--------|--------|--------|--------|--------|--------|--------|
B|--------|--------|--------|--------|--------|--------|--------|--------|--------|
G|--------|--------|--------|--------|--------|--------|--------|--------|--------|
D|--------|--------|--------|--------|--------|--------|--------|--------|--------|
A|--------|--------|--------|--------|--------|--------|--------|--------|--------|
E|--------|--------|--------|--------|--------|--------|--------|--------|--------|


E|-------------------------0--0--------|-------------------------------------|-----0-----------0---------------------|
B|-------------4--4--------------------|-4--4--------------------4-----------|-4-----------4-------------4--4--------|
G|-------------------4--4--------4--4--|-------4--4----------4-----------4---|---------4-----------------------4--4--|
D|-------2--2--------------------------|-------------2---2-----------2-------|---------------------2--2--------------|
A|-------------------------------------|-------------------------------------|---------------------------------------|
E|-------------------------------------|-------------------------------------|---------------------------------------|


E|-0--0--------------------------------------|-------------------------------------------------|
B|-------------4--4----------------4---------|-------------------------------------4--4--------|
G|-------4--4--------4--4------4-------------|-------------------------------------------4--4--|
D|-------------------------2-----------5--4--|-2--2--5--4--2--2--5--4--2--2--2--2--------------|
A|-------------------------------------------|-------------------------------------------------|
E|-------------------------------------------|-------------------------------------------------|


E|-0--0------------------------------------|-------------0-----------------------|
B|-------------4--4--------------------4---|---------4-----------4---------------|
G|-------4--4--------4--4----------4-------|-----4-----------4-------------------|
D|-------------------------2---2-----------|-2-----------------------5--4--2--2--|
A|-----------------------------------------|-------------------------------------|
E|-----------------------------------------|-------------------------------------|


E|-------------------------------0--0--------------|-----------------------------------|
B|-------------------4--4--------------------4--4--|-------------------4-----------4---|
G|-------------------------4--4--------4--4--------|-4--4----------4-----------4-------|
D|-5--4--2--2--2--2--------------------------------|-------2---2-----------2-----------|
A|-------------------------------------------------|-----------------------------------|
E|-------------------------------------------------|-----------------------------------|


E|-0-----------0---------------------0--0--|-------------------------------------------|
B|---------4-------------4--4--------------|-------4--4----------------4---------------|
G|-----4-----------------------4--4--------|-4--4--------4--4------4-------------------|
D|-----------------2--2--------------------|-------------------2-----------5--4--2--2--|
A|-----------------------------------------|-------------------------------------------|
E|-----------------------------------------|-------------------------------------------|


E|-------------------------------------------0--0--|---------------------------------------|
B|-------------------------------4--4--------------|-------4--4--------------------4-------|
G|-------------------------------------4--4--------|-4--4--------4--4----------4-----------|
D|-5--4--2--2--5--4--2--2--2--2--------------------|-------------------2---2-----------2---|
A|-------------------------------------------------|---------------------------------------|
E|-------------------------------------------------|---------------------------------------|


E|---------0-----------------------------|-----------------------------------|---------------------------------|
B|-----4-----------4---------------------|-----------------------------------|---------------------------------|
G|-4-----------4-------------------------|---------------6-----------6-------|-----6-------------------6-------|
D|---------------------5--4--2--2--5--4--|-2--2------4-----------4-----------|-4-----------4-------4-----------|
A|---------------------------------------|-------2-----------2-----------2---|---------2-------2-----------2---|
E|---------------------------------------|-----------------------------------|---------------------------------|


E|---------------------------------|---------------------------------|---------------------------------|
B|---------------------------------|---------------------------------|---------------------------------|
G|-----6-----------6---------------|-----7-----------7-----------7---|-----------------7-----------7---|
D|-4-----------4-----------4-------|-5-----------5-----------5-------|-----5-------5-----------5-------|
A|---------2-----------2-------3---|---------3-----------3-----------|-3-------3-----------3-----------|
E|---------------------------------|---------------------------------|---------------------------------|


E|---------------------------------|---------------------------------|---------------------------------|
B|---------------------------------|---------------------------------|---------------------------------|
G|---------7-------------------6---|---------6-----------6-----------|---------6-----------6-----------|
D|-----5-----------5-------4-------|-----4-----------4-----------4---|-----4-----------4-----------4---|
A|-3-----------3-------2-----------|-2-----------2-----------2-------|-2-----------2-----------2-------|
E|---------------------------------|---------------------------------|---------------------------------|


E|---------------------------------|---------------------------------|---------------------------------|
B|---------------------------------|---------------------------------|---------------------------------|
G|-6-------------------7-----------|-7-----------7-------------------|-7-----------7-----------7-------|
D|---------4-------5-----------5---|---------5-----------5-------5---|---------5-----------5-----------|
A|-----2-------3-----------3-------|-----3-----------3-------3-------|-----3-----------3-----------3---|
E|---------------------------------|---------------------------------|---------------------------------|


E|---------------------------------|---------------------------------|---------------------------------|
B|---------------------------------|---------------------------------|---------------------------------|
G|---------------------------------|---------------------------------|---------------------------------|
D|-5-------------------5---4---2---|---------------------5---4-------|-------------5---4---2-----------|
A|-----2---2-------2---------------|-5---2---2-------2-----------2---|-2-------2---------------5---2---|
E|-----2---2-------2---------------|-----2---2-------2-----------2---|-2-------2-------------------2---|


E|---------------------------------|---------------------------------|---------------------------------|
B|---------------------------------|---------------------------------|---------------------------------|
G|---------------------------------|---------------------------------|---------------------------------|
D|-------------5---4---------------|-----5---4---2-------------------|-----5---4-------------------5---|
A|-2-------2-----------2---2-------|-2---------------5---2---2-------|-2-----------2---2-------2-------|
E|-2-------2-----------2---2-------|-2-------------------2---2-------|-2-----------2---2-------2-------|


E|---------------------------------|---------------------------------|---------------------------------|
B|---------------------------------|---------------------------------|---------------------------------|
G|---------------------------------|---------------------------------|---------------------------------|
D|-4---2-----------------------5---|-4-------------------5---4---2---|---------------------5---4-------|
A|---------5---2---2-------2-------|-----2---2-------2---------------|-5---2---2-------2-----------2---|
E|-------------2---2-------2-------|-----2---2-------2---------------|-----2---2-------2-----------2---|


E|---------------------------------|---------------------------------|---------------------------------|
B|---------------------------------|---------------------6---6-------|-7---7-------6---6-------7---6---|
G|---------------------------------|---------------------5---5-------|-6---6-------5---5-------6---5---|
D|-------------5---4---2-----------|-------------5---4---4---4-------|-5---5-------4---4-------5---4---|
A|-2-------2---------------5---2---|-2-------2-----------3---3-------|-4---4-------3---3-------4---3---|
E|-2-------2-------------------2---|-2-------2-----------------------|---------------------------------|


E|---------------------------------|---------------------------------|---------------------------------|
B|-6-------7---7-------6---6-------|-7---6---6-------7---7-------6---|-6-------7---6---6-------7---7---|
G|-5-------6---6-------5---5-------|-6---5---5-------6---6-------5---|-5-------6---5---5-------6---6---|
D|-4-------5---5-------4---4-------|-5---4---4-------5---5-------4---|-4-------5---4---4-------5---5---|
A|-3-------4---4-------3---3-------|-4---3---3-------4---4-------3---|-3-------4---3---3-------4---4---|
E|---------------------------------|---------------------------------|---------------------------------|


E|---------------------------------|---------------------------|---------------------------|
B|-----6---6-------7---------------|---------------------------|---------------------------|
G|-----5---5-------6---------------|-5-----------------5-------|---------5-----------------|
D|-----4---4-------5-----------4---|---------------4-----------|-----4-----------------4---|
A|-----3---3-------4-------3-------|-----------3---------------|-3-----------------3-------|
E|---------------------2-----------|-------2---------------2---|---------------2-----------|


E|---------------------------|------------------------------|---------------------------------|
B|---------------------------|------------------------------|---------------------------------|
G|-5---------------5---------|---------5---------------5----|-----------------5---------------|
D|-------------4-------------|-----4---------------4--------|-------------4---------------4---|
A|---------3-----------------|-3---------------3------------|---------3---------------3-------|
E|-----2-----------------2---|-------------2----------------|-----2---------------2-----------|


E|---------------------------|---------------------------|---------------------------|
B|---------------------------|---------------------------|---------------------------|
G|-5-----------------5-------|---------5-----------------|-5---------------5---------|
D|---------------4-----------|-----4-----------------4---|-------------4-------------|
A|-----------3---------------|-3-----------------3-------|---------3-----------------|
E|-------2---------------2---|---------------2-----------|-----2-----------------2---|


E|------------------------------|---------------------------------|---------------------------------|
B|------------------------------|---------------------------------|---------------------------------|
G|---------5---------------5----|-----------------5-----------4---|-5---4-----------4---5---4-------|
D|-----4---------------4--------|-------------4-----------4-------|-------------4-------------------|
A|-3---------------3------------|---------3-----------3-----------|---------3-------------------3---|
E|-------------2----------------|-----2---------------------------|---------------------------------|


E|---------------------------------|---------------------------------|---------------------------------|
B|---------------------------------|---------------------------------|---------------------------------|
G|-----4---5---4-----------4---5---|-4-----------4---5---4-----------|-4---5---4-----------4---5---4---|
D|-4-------------------4-----------|---------4-------------------4---|-----------------4---------------|
A|-----------------3---------------|-----3-------------------3-------|-------------3-------------------|
E|---------------------------------|---------------------------------|---------------------------------|


E|---------------------------------|---------------------------------|---------------------------------|
B|---------------------------------|---------------------------------|---------------------------------|
G|---------4---5---4-----------4---|-5---4-----------4---5---4-------|-----4---5---4-----------4---5---|
D|-----4-------------------4-------|-------------4-------------------|-4-------------------4-----------|
A|-3-------------------3-----------|---------3-------------------3---|-----------------3---------------|
E|---------------------------------|---------------------------------|---------------------------------|


E|---------------------------------|---------------------------------|---------------------------------|
B|---------------------------------|---------------------------------|---------------------------------|
G|-4-----------4---5---4-----------|-4---5---4-----------4---5---4---|---------4---5---4---------------|
D|---------4-------------------4---|-----------------4---------------|-----4-----------------------6---|
A|-----3-------------------3-------|-------------3-------------------|-3-------------------4---4-------|
E|---------------------------------|---------------------------------|---------------------4---4-------|


E|---------------------------------|---------------------------------|---------------------------------|
B|---------------------------------|---------------------------------|---------------------------------|
G|---------------------------------|---------------------------------|---------------------------------|
D|-----7-------6---------------6---|-----7-----------6-------7-------|-6---------------6-------7-------|
A|-4-------4-------4---4---4-------|-4-------4---4-------4-------4---|-----4---4---4-------4-------4---|
E|---------------------4---4-------|---------4---4-------------------|---------4---4---------------4---|


E|---------------------------------|---------------------------------|---------------------------------|
B|---------------------------------|---------------------------------|---------------------------------|
G|---------------------------------|---------------------------------|---------------------------------|
D|-----6-------7-------6-----------|-----6-------7-----------6-------|-7-------6---------------6-------|
A|-4-------4-------4-------4---4---|-4-------4-------4---4-------4---|-----4-------4---4---4-------4---|
E|-4---------------------------4---|-4---------------4---4-----------|-----------------4---4-----------|


E|---------------------------------|---------------------------------|---------------------------------|
B|---------------------------------|---------------------------------|---------------------------------|
G|---------------------------------|---------------------------------|---------------------------------|
D|-7-----------6-------7-------6---|-------------6-------7-----------|-6-------7-------6---------------|
A|-----4---4-------4-------4-------|-4---4---4-------4-------4---4---|-----4-------4-------4---4---4---|
E|-----4---4-----------------------|-----4---4---------------4---4---|-------------------------4---4---|


E|---------------------------------|---------------------------------|---------------------------------|
B|---------------------------------|---------------------------------|---------------------------------|
G|---------------------------------|---------------------------------|---------------------------------|
D|-6-------7-----------6-------7---|-----6---------------6-------7---|---------6-------7-------6-------|
A|-----4-------4---4-------4-------|-4-------4---4---4-------4-------|-4---4-------4-------4-------4---|
E|-------------4---4---------------|-------------4---4---------------|-4---4---------------------------|


E|---------------------------------|
B|---------------------------------|
G|---------------------------------|
D|---------6-------7---------------|
A|-4---4-------4-------4-----------|
E|-4---4---------------4-----------|





Track 2: Bass Guitar

G|------------------------------|---------------------------------|---------------------------------|
D|------------------------------|---------------------------------|---------------------------------|
A|----------19--18----------19--|-18----------19--18----------19--|-18------19--18----------19--18--|
E|------17----------19--17------|-----19--17----------19--17------|-----17----------19--17----------|
B|------------------------------|---------------------------------|---------------------------------|


G|---------------------------------|---------------------------------|---------------------------------|
D|---------------------------------|---------------------------------|---------------------------------|
A|---------19--18----------19--18--|-----19--18----------19--18------|-----19--18----------19--18------|
E|-19--17----------19--17----------|-17----------19--17----------19--|-17----------19--17----------17--|
B|---------------------------------|---------------------------------|---------------------------------|


G|---------------------------------|---------------------------------|---------------------------------|
D|---------------------------------|---------------------------------|---------------------------------|
A|-19--18----------19--18----------|-19--18----------19--18------19--|-18----------19--18----------19--|
E|---------19--17----------19--17--|---------19--17----------17------|-----19--17----------19--17------|
B|---------------------------------|---------------------------------|---------------------------------|


G|---------------------------------|---------------------------------|---------------------------------|
D|---------------------------------|---------------------------------|---------------------------------|
A|-18----------19--18------19--18--|---------19--18----------19--18--|---------19--18------19--18------|
E|-----19--17----------17----------|-19--17----------19--17----------|-19--17----------17----------19--|
B|---------------------------------|---------------------------------|---------------------------------|


G|---------------------------------|---------------------------------|---------------------------------|
D|---------------------------------|---------------------------------|---------------------------------|
A|-----19--18----------19--18------|-----19--18------19--18----------|-19--18----------19--18----------|
E|-17----------19--17----------19--|-17----------17----------19--17--|---------19--17----------19--17--|
B|---------------------------------|---------------------------------|---------------------------------|


G|------------------------------|---------------------------------|---------------------------------|
D|------------------7---9---10--|-9-------7---9---10--9-------7---|-9---10--9-------7---9---10--9---|
A|-19--18-------8---------------|-----8-------------------8-------|-------------8-------------------|
E|------------------------------|---------------------------------|---------------------------------|
B|------------------------------|---------------------------------|---------------------------------|


G|---------------------------------|---------------------------------|---------------------------------|
D|-----7---9---10--9-------7---9---|-10--9-------7---9---10--9-------|-7---9---10--9-------7---9---10--|
A|-8-------------------8-----------|---------8-------------------8---|-----------------8---------------|
E|---------------------------------|---------------------------------|---------------------------------|
B|---------------------------------|---------------------------------|---------------------------------|


G|---------------------------------|---------------------------------|---------------------------------|
D|-9-------7---9---10--9-------7---|-9---10--9-------7---9---10--9---|-----7---9---10--9-------7---9---|
A|-----8-------------------8-------|-------------8-------------------|-8-------------------8-----------|
E|---------------------------------|---------------------------------|---------------------------------|
B|---------------------------------|---------------------------------|---------------------------------|


G|---------------------------------|---------------------------------|---------------------------------|
D|-10--9-------7---9---10--9-------|-7---9---10--9-------7---9-------|-7---9---10--9---7-------7---9---|
A|---------8-------------------8---|-----------------8-----------8---|---------------------8-----------|
E|---------------------------------|---------------------------------|---------------------------------|
B|---------------------------------|---------------------------------|---------------------------------|


G|---------------------------------|---------------------------------|---------------------------------|
D|-----7---9-------7---9-------7---|-9---10--9---7-------7---9-------|-7---9-------7---9-------7---9---|
A|-8-----------8-----------8-------|-----------------8-----------8---|---------8-----------8-----------|
E|---------------------------------|---------------------------------|---------------------------------|
B|---------------------------------|---------------------------------|---------------------------------|


G|---------------------------------|---------------------------------|---------------------------------|
D|-10--9---7-------7---9-------7---|-9-------7---9-------7---9---10--|-9---7-------7---9-------7---9---|
A|-------------8-----------8-------|-----8-----------8---------------|---------8-----------8-----------|
E|---------------------------------|---------------------------------|---------------------------------|
B|---------------------------------|---------------------------------|---------------------------------|


G|---------------------------------|---------------------------------|---------------------------------|
D|---------------------------------|---------------------------------|---------------------------------|
A|-----19--18----------19--18------|-----19--18----------19--18------|-19--18----------19--18----------|
E|-17----------19--17----------19--|-17----------19--17----------17--|---------19--17----------19--17--|
B|---------------------------------|---------------------------------|---------------------------------|


G|---------------------------------|---------------------------------|---------------------------------|
D|---------------------------------|---------------------------------|---------------------------------|
A|-19--18----------19--18------19--|-18----------19--18----------19--|-18----------19--18------19--18--|
E|---------19--17----------17------|-----19--17----------19--17------|-----19--17----------17----------|
B|---------------------------------|---------------------------------|---------------------------------|


G|---------------------------------|------------------------------|----------------|
D|---------------------------------|------------------------------|----------------|
A|---------19--18----------19--18--|---------19--18---------------|----------------|
E|-19--17----------19--17----------|-19--17-----------------------|----------------|
B|---------------------------------|----------------------2---2---|--------2---2---|


G|---------------------|---------------------|----------------|---------------------------|
D|---------------------|---------------------|----------------|---------------------------|
A|---------------------|---------------------|----------------|---------------------------|
E|---------------------|---------------------|----------------|---------------------------|
B|-------2---2---------|-------2---2---------|-2---2----------|-2---2---------2---2-------|


G|-----------------------|--------------------|------------------------|----------------|
D|-----------------------|--------------------|------------------------|----------------|
A|-----------------------|--------------------|------------------------|----------------|
E|-----------------------|--------------------|------------------------|----------------|
B|-----------2---2-------|------2---2---------|------2---2---------2---|-2----------2---|


G|------------------------|--------------------|--------------------|-------------------------------|
D|------------------------|--------------------|--------------------|-------------------------------|
A|------------------------|--------------------|--------------------|-------------------------------|
E|------------------------|--------------------|--------------------|-------------------6--6--6--6--|
B|-2---------2---2--------|-------2---2--------|-----2---2----------|-----2---2---------------------|


G|-------------------------------------------------|-------------------------------------------------|
D|-8--9--8--7--------------9--9--------------8--9--|-------------8--9--8--7--------------9--9--------|
A|-------------------------------------------------|-------------------------------------------------|
E|-------------6--6--6--6--------6--6--6--6--------|-6--6--6--6--------------6--6--6--6--------6--6--|
B|-------------------------------------------------|-------------------------------------------------|


G|-------------------------------------------------|-------------------------------------------------|
D|-------8--9--------------8--9--8--7--------------|-9--9--------------8--9--------------8--9--8--7--|
A|-------------------------------------------------|-------------------------------------------------|
E|-6--6--------6--6--6--6--------------6--6--6--6--|-------6--6--6--6--------6--6--6--6--------------|
B|-------------------------------------------------|-------------------------------------------------|


G|-------------------------------------------------|-------------------------------------------------|
D|-------------9--9--------------8--9--------------|-8--9--8--7--------------9--9--------------8--9--|
A|-------------------------------------------------|-------------------------------------------------|
E|-6--6--6--6--------6--6--6--6--------6--6--6--6--|-------------6--6--6--6--------6--6--6--6--------|
B|-------------------------------------------------|-------------------------------------------------|


G|-------------------------------------------------|-------------------------------------------------|
D|-------------8--9--8--7--------------9--9--------|-------8--9--------------8--9--8--7--------------|
A|-------------------------------------------------|-------------------------------------------------|
E|-6--6--6--6--------------6--6--6--6--------6--6--|-6--6--------6--6--6--6--------------6--6--6--6--|
B|-------------------------------------------------|-------------------------------------------------|


G|-------------------------------------------------|-------------------------------------------------|
D|-9--9--------------8--9--------------8--9--8--7--|-------------9--9--------------8--9--------------|
A|-------------------------------------------------|-------------------------------------------------|
E|-------6--6--6--6--------6--6--6--6--------------|-6--6--6--6--------6--6--6--6--------6--6--6--6--|
B|-------------------------------------------------|-------------------------------------------------|


G|---------------------------|--------------------------------|-------------------------------------------|
D|---------------------------|--------------------------------|-------------------------------------------|
A|---------------------------|--------------------------------|-------------------------------------------|
E|-6-------------6--6--6--6--|-6--6------6--6--6--6--6--------|---------6--6--6--6--6--6------6--6--6--6--|
B|---------------------------|--------------------------------|-------------------------------------------|


G|---------------------------|--------------------------------|-------------------------------------------|
D|---------------------------|--------------------------------|-------------------------------------------|
A|---------------------------|--------------------------------|-------------------------------------------|
E|-6-------------6--6--6--6--|-6--6------6--6--6--6--6--------|---------6--6--6--6--6--6------6--6--6--6--|
B|---------------------------|--------------------------------|-------------------------------------------|


G|---------------------------|--------------------------------|-------------------------------------------|
D|---------------------------|--------------------------------|-------------------------------------------|
A|---------------------------|--------------------------------|-------------------------------------------|
E|-6-------------6--6--6--6--|-6--6------6--6--6--6--6--------|---------6--6--6--6--6--6------6--6--6--6--|
B|---------------------------|--------------------------------|-------------------------------------------|


G|---------------------------|--------------------------------|-------------------------------------------|
D|---------------------------|--------------------------------|-------------------------------------------|
A|---------------------------|--------------------------------|-------------------------------------------|
E|-6-------------6--6--6--6--|-6--6------6--6--6--6--6--------|---------6--6--6--6--6--6------6--6--6--6--|
B|---------------------------|--------------------------------|-------------------------------------------|


G|---------------------------|--------------------------------|-------------------------------------------|
D|---------------------------|--------------------------------|-------------------------------------------|
A|---------------------------|--------------------------------|-------------------------------------------|
E|-6-------------6--6--6--6--|-6--6------6--6--6--6--6--------|---------6--6--6--6--6--6------6--6--6--6--|
B|---------------------------|--------------------------------|-------------------------------------------|


G|---------------------------|--------------------------------|------------------------------------|
D|---------------------------|--------------------------------|------------------------------------|
A|---------------------------|--------------------------------|------------------------------------|
E|-6-------------6--6--6--6--|-6--6------6--6--6--6--6--------|---------6--6--6--6--6--6-----------|
B|---------------------------|--------------------------------|------------------------------------|


G|--------|--------|--------|--------|--------|--------|--------|--------|--------|
D|--------|--------|--------|--------|--------|--------|--------|--------|--------|
A|--------|--------|--------|--------|--------|--------|--------|--------|--------|
E|--------|--------|--------|--------|--------|--------|--------|--------|--------|
B|--------|--------|--------|--------|--------|--------|--------|--------|--------|


G|--------|--------|--------|--------|--------|--------|--------|--------|--------|
D|--------|--------|--------|--------|--------|--------|--------|--------|--------|
A|--------|--------|--------|--------|--------|--------|--------|--------|--------|
E|--------|--------|--------|--------|--------|--------|--------|--------|--------|
B|--------|--------|--------|--------|--------|--------|--------|--------|--------|


G|--------|--------|--------|--------|--------|--------|--------|--------|--------|
D|--------|--------|--------|--------|--------|--------|--------|--------|--------|
A|--------|--------|--------|--------|--------|--------|--------|--------|--------|
E|--------|--------|--------|--------|--------|--------|--------|--------|--------|
B|--------|--------|--------|--------|--------|--------|--------|--------|--------|


G|--------|--------|--------|--------|--------|--------|--------|--------|--------|
D|--------|--------|--------|--------|--------|--------|--------|--------|--------|
A|--------|--------|--------|--------|--------|--------|--------|--------|--------|
E|--------|--------|--------|--------|--------|--------|--------|--------|--------|
B|--------|--------|--------|--------|--------|--------|--------|--------|--------|


G|--------|--------|--------|--------|--------|--------|--------|--------|--------|
D|--------|--------|--------|--------|--------|--------|--------|--------|--------|
A|--------|--------|--------|--------|--------|--------|--------|--------|--------|
E|--------|--------|--------|--------|--------|--------|--------|--------|--------|
B|--------|--------|--------|--------|--------|--------|--------|--------|--------|


G|--------|--------|--------|--------|--------|--------|--------|--------|--------|
D|--------|--------|--------|--------|--------|--------|--------|--------|--------|
A|--------|--------|--------|--------|--------|--------|--------|--------|--------|
E|--------|--------|--------|--------|--------|--------|--------|--------|--------|
B|--------|--------|--------|--------|--------|--------|--------|--------|--------|


G|--------|--------|--------|--------|--------|--------|--------|--------|--------|
D|--------|--------|--------|--------|--------|--------|--------|--------|--------|
A|--------|--------|--------|--------|--------|--------|--------|--------|--------|
E|--------|--------|--------|--------|--------|--------|--------|--------|--------|
B|--------|--------|--------|--------|--------|--------|--------|--------|--------|


G|--------|--------|--------|--------|--------|--------|--------|--------|--------|
D|--------|--------|--------|--------|--------|--------|--------|--------|--------|
A|--------|--------|--------|--------|--------|--------|--------|--------|--------|
E|--------|--------|--------|--------|--------|--------|--------|--------|--------|
B|--------|--------|--------|--------|--------|--------|--------|--------|--------|


G|--------|--------|--------|--------|--------|--------|--------|--------|--------|
D|--------|--------|--------|--------|--------|--------|--------|--------|--------|
A|--------|--------|--------|--------|--------|--------|--------|--------|--------|
E|--------|--------|--------|--------|--------|--------|--------|--------|--------|
B|--------|--------|--------|--------|--------|--------|--------|--------|--------|


G|--------|--------|--------|--------|--------|--------|--------|--------|--------|
D|--------|--------|--------|--------|--------|--------|--------|--------|--------|
A|--------|--------|--------|--------|--------|--------|--------|--------|--------|
E|--------|--------|--------|--------|--------|--------|--------|--------|--------|
B|--------|--------|--------|--------|--------|--------|--------|--------|--------|


G|--------|--------|--------|--------|--------|--------|--------|--------|--------|
D|--------|--------|--------|--------|--------|--------|--------|--------|--------|
A|--------|--------|--------|--------|--------|--------|--------|--------|--------|
E|--------|--------|--------|--------|--------|--------|--------|--------|--------|
B|--------|--------|--------|--------|--------|--------|--------|--------|--------|


G|--------|--------|--------|--------|--------|--------|--------|--------|--------|
D|--------|--------|--------|--------|--------|--------|--------|--------|--------|
A|--------|--------|--------|--------|--------|--------|--------|--------|--------|
E|--------|--------|--------|--------|--------|--------|--------|--------|--------|
B|--------|--------|--------|--------|--------|--------|--------|--------|--------|


G|--------|--------|--------|--------|--------|--------|--------|--------|--------|
D|--------|--------|--------|--------|--------|--------|--------|--------|--------|
A|--------|--------|--------|--------|--------|--------|--------|--------|--------|
E|--------|--------|--------|--------|--------|--------|--------|--------|--------|
B|--------|--------|--------|--------|--------|--------|--------|--------|--------|


G|--------|--------|--------|--------|--------|--------|--------|--------|--------|
D|--------|--------|--------|--------|--------|--------|--------|--------|--------|
A|--------|--------|--------|--------|--------|--------|--------|--------|--------|
E|--------|--------|--------|--------|--------|--------|--------|--------|--------|
B|--------|--------|--------|--------|--------|--------|--------|--------|--------|


G|--------|--------|--------|--------|--------|--------|--------|--------|--------|
D|--------|--------|--------|--------|--------|--------|--------|--------|--------|
A|--------|--------|--------|--------|--------|--------|--------|--------|--------|
E|--------|--------|--------|--------|--------|--------|--------|--------|--------|
B|--------|--------|--------|--------|--------|--------|--------|--------|--------|


G|--------|--------|--------|--------|--------|--------|--------|--------|--------|
D|--------|--------|--------|--------|--------|--------|--------|--------|--------|
A|--------|--------|--------|--------|--------|--------|--------|--------|--------|
E|--------|--------|--------|--------|--------|--------|--------|--------|--------|
B|--------|--------|--------|--------|--------|--------|--------|--------|--------|


G|--------|--------|--------|--------|--------|--------|--------|--------|--------|
D|--------|--------|--------|--------|--------|--------|--------|--------|--------|
A|--------|--------|--------|--------|--------|--------|--------|--------|--------|
E|--------|--------|--------|--------|--------|--------|--------|--------|--------|
B|--------|--------|--------|--------|--------|--------|--------|--------|--------|


G|--------|--------|--------|--------|--------|--------|--------|--------|--------|
D|--------|--------|--------|--------|--------|--------|--------|--------|--------|
A|--------|--------|--------|--------|--------|--------|--------|--------|--------|
E|--------|--------|--------|--------|--------|--------|--------|--------|--------|
B|--------|--------|--------|--------|--------|--------|--------|--------|--------|


G|--------|--------|--------|--------|--------|--------|--------|--------|--------|
D|--------|--------|--------|--------|--------|--------|--------|--------|--------|
A|--------|--------|--------|--------|--------|--------|--------|--------|--------|
E|--------|--------|--------|--------|--------|--------|--------|--------|--------|
B|--------|--------|--------|--------|--------|--------|--------|--------|--------|


G|--------|--------|--------|--------|--------|--------|--------|--------|--------|
D|--------|--------|--------|--------|--------|--------|--------|--------|--------|
A|--------|--------|--------|--------|--------|--------|--------|--------|--------|
E|--------|--------|--------|--------|--------|--------|--------|--------|--------|
B|--------|--------|--------|--------|--------|--------|--------|--------|--------|


G|--------|--------|--------|--------|--------|--------|--------|--------|--------|
D|--------|--------|--------|--------|--------|--------|--------|--------|--------|
A|--------|--------|--------|--------|--------|--------|--------|--------|--------|
E|--------|--------|--------|--------|--------|--------|--------|--------|--------|
B|--------|--------|--------|--------|--------|--------|--------|--------|--------|


G|--------|--------|--------|--------|--------|--------|--------|--------|--------|
D|--------|--------|--------|--------|--------|--------|--------|--------|--------|
A|--------|--------|--------|--------|--------|--------|--------|--------|--------|
E|--------|--------|--------|--------|--------|--------|--------|--------|--------|
B|--------|--------|--------|--------|--------|--------|--------|--------|--------|


G|--------|--------|--------|--------|--------|
D|--------|--------|--------|--------|--------|
A|--------|--------|--------|--------|--------|
E|--------|--------|--------|--------|--------|
B|--------|--------|--------|--------|--------|





Track 3: Lead Guitar

E|--------|--------|--------|--------|--------|--------|--------|--------|--------|
B|--------|--------|--------|--------|--------|--------|--------|--------|--------|
G|--------|--------|--------|--------|--------|--------|--------|--------|--------|
D|--------|--------|--------|--------|--------|--------|--------|--------|--------|
A|--------|--------|--------|--------|--------|--------|--------|--------|--------|
E|--------|--------|--------|--------|--------|--------|--------|--------|--------|


E|--------|--------|--------|--------|--------|--------|--------|--------|--------|
B|--------|--------|--------|--------|--------|--------|--------|--------|--------|
G|--------|--------|--------|--------|--------|--------|--------|--------|--------|
D|--------|--------|--------|--------|--------|--------|--------|--------|--------|
A|--------|--------|--------|--------|--------|--------|--------|--------|--------|
E|--------|--------|--------|--------|--------|--------|--------|--------|--------|


E|--------|--------|--------|--------|--------|--------|--------|--------|--------|
B|--------|--------|--------|--------|--------|--------|--------|--------|--------|
G|--------|--------|--------|--------|--------|--------|--------|--------|--------|
D|--------|--------|--------|--------|--------|--------|--------|--------|--------|
A|--------|--------|--------|--------|--------|--------|--------|--------|--------|
E|--------|--------|--------|--------|--------|--------|--------|--------|--------|


E|--------|--------|--------|--------|--------|--------|--------|--------|--------|
B|--------|--------|--------|--------|--------|--------|--------|--------|--------|
G|--------|--------|--------|--------|--------|--------|--------|--------|--------|
D|--------|--------|--------|--------|--------|--------|--------|--------|--------|
A|--------|--------|--------|--------|--------|--------|--------|--------|--------|
E|--------|--------|--------|--------|--------|--------|--------|--------|--------|


E|--------|--------|--------|--------|--------|--------|--------|--------|--------|
B|--------|--------|--------|--------|--------|--------|--------|--------|--------|
G|--------|--------|--------|--------|--------|--------|--------|--------|--------|
D|--------|--------|--------|--------|--------|--------|--------|--------|--------|
A|--------|--------|--------|--------|--------|--------|--------|--------|--------|
E|--------|--------|--------|--------|--------|--------|--------|--------|--------|


E|--------|--------|--------|--------|--------|--------|--------|--------|--------|
B|--------|--------|--------|--------|--------|--------|--------|--------|--------|
G|--------|--------|--------|--------|--------|--------|--------|--------|--------|
D|--------|--------|--------|--------|--------|--------|--------|--------|--------|
A|--------|--------|--------|--------|--------|--------|--------|--------|--------|
E|--------|--------|--------|--------|--------|--------|--------|--------|--------|


E|--------|--------|--------|--------|--------|--------|--------|--------|--------|
B|--------|--------|--------|--------|--------|--------|--------|--------|--------|
G|--------|--------|--------|--------|--------|--------|--------|--------|--------|
D|--------|--------|--------|--------|--------|--------|--------|--------|--------|
A|--------|--------|--------|--------|--------|--------|--------|--------|--------|
E|--------|--------|--------|--------|--------|--------|--------|--------|--------|


E|--------|--------|--------|--------|--------|--------|--------------------|----------------------------------------6--7--6--|
B|--------|--------|--------|--------|--------|--------|--------------------|-------------------------------6--7--9-----------|
G|--------|--------|--------|--------|--------|--------|--------------------|-------------------------6--8--------------------|
D|--------|--------|--------|--------|--------|--------|--------------------|----6--8--9--8--6--8--9--------------------------|
A|--------|--------|--------|--------|--------|--------|--------------6--8--|-9-----------------------------------------------|
E|--------|--------|--------|--------|--------|--------|--------7--9--------|-------------------------------------------------|


E|-------------------------------------------------|----------------------------------------------6--|
B|-9--7--6-----------------------------------------|-------------------------------------6--7--9-----|
G|----------8--6-----------------------------------|-------------------------------6--8--------------|
D|----------------9--8--6--------------------------|----------------------6--8--9--------------------|
A|-------------------------9--8--6-----------------|-6--8--9--8--6--8--9-----------------------------|
E|----------------------------------9--7--6--7--9--|-------------------------------------------------|


E|-7--6-----------6--7--6--------------------------|-------6--7--9---13--13--13--13--13--|
B|-------9--7--9-----------9--7-----------------6--|-7--9--------------------------------|
G|-------------------------------8--6-----6--8-----|-------------------------------------|
D|-------------------------------------9-----------|-------------------------------------|
A|-------------------------------------------------|-------------------------------------|
E|-------------------------------------------------|-------------------------------------|


E|-13--13--13--13--13-----------|--------|--------|--------|--------|--------|--------|
B|------------------------------|--------|--------|--------|--------|--------|--------|
G|------------------------------|--------|--------|--------|--------|--------|--------|
D|------------------------------|--------|--------|--------|--------|--------|--------|
A|------------------------------|--------|--------|--------|--------|--------|--------|
E|------------------------------|--------|--------|--------|--------|--------|--------|


E|--------|--------|--------|--------|--------|--------|--------|--------|--------|
B|--------|--------|--------|--------|--------|--------|--------|--------|--------|
G|--------|--------|--------|--------|--------|--------|--------|--------|--------|
D|--------|--------|--------|--------|--------|--------|--------|--------|--------|
A|--------|--------|--------|--------|--------|--------|--------|--------|--------|
E|--------|--------|--------|--------|--------|--------|--------|--------|--------|


E|--------|--------|--------|--------|--------|--------|--------|--------|--------|
B|--------|--------|--------|--------|--------|--------|--------|--------|--------|
G|--------|--------|--------|--------|--------|--------|--------|--------|--------|
D|--------|--------|--------|--------|--------|--------|--------|--------|--------|
A|--------|--------|--------|--------|--------|--------|--------|--------|--------|
E|--------|--------|--------|--------|--------|--------|--------|--------|--------|


E|--------|--------|--------|--------|--------|--------|--------|--------|--------|
B|--------|--------|--------|--------|--------|--------|--------|--------|--------|
G|--------|--------|--------|--------|--------|--------|--------|--------|--------|
D|--------|--------|--------|--------|--------|--------|--------|--------|--------|
A|--------|--------|--------|--------|--------|--------|--------|--------|--------|
E|--------|--------|--------|--------|--------|--------|--------|--------|--------|


E|--------|--------|--------|--------|--------|--------|--------|--------|--------|
B|--------|--------|--------|--------|--------|--------|--------|--------|--------|
G|--------|--------|--------|--------|--------|--------|--------|--------|--------|
D|--------|--------|--------|--------|--------|--------|--------|--------|--------|
A|--------|--------|--------|--------|--------|--------|--------|--------|--------|
E|--------|--------|--------|--------|--------|--------|--------|--------|--------|


E|--------|--------|--------|--------|--------|--------|--------|--------|--------|
B|--------|--------|--------|--------|--------|--------|--------|--------|--------|
G|--------|--------|--------|--------|--------|--------|--------|--------|--------|
D|--------|--------|--------|--------|--------|--------|--------|--------|--------|
A|--------|--------|--------|--------|--------|--------|--------|--------|--------|
E|--------|--------|--------|--------|--------|--------|--------|--------|--------|


E|--------|--------|--------|--------|--------|--------|--------|--------|--------|
B|--------|--------|--------|--------|--------|--------|--------|--------|--------|
G|--------|--------|--------|--------|--------|--------|--------|--------|--------|
D|--------|--------|--------|--------|--------|--------|--------|--------|--------|
A|--------|--------|--------|--------|--------|--------|--------|--------|--------|
E|--------|--------|--------|--------|--------|--------|--------|--------|--------|


E|--------|--------|--------|--------|--------|--------|--------|--------|--------|
B|--------|--------|--------|--------|--------|--------|--------|--------|--------|
G|--------|--------|--------|--------|--------|--------|--------|--------|--------|
D|--------|--------|--------|--------|--------|--------|--------|--------|--------|
A|--------|--------|--------|--------|--------|--------|--------|--------|--------|
E|--------|--------|--------|--------|--------|--------|--------|--------|--------|


E|--------|--------|--------|--------|--------|--------|--------|--------|--------|
B|--------|--------|--------|--------|--------|--------|--------|--------|--------|
G|--------|--------|--------|--------|--------|--------|--------|--------|--------|
D|--------|--------|--------|--------|--------|--------|--------|--------|--------|
A|--------|--------|--------|--------|--------|--------|--------|--------|--------|
E|--------|--------|--------|--------|--------|--------|--------|--------|--------|


E|--------|--------|--------|--------|--------|--------|--------|--------|--------|
B|--------|--------|--------|--------|--------|--------|--------|--------|--------|
G|--------|--------|--------|--------|--------|--------|--------|--------|--------|
D|--------|--------|--------|--------|--------|--------|--------|--------|--------|
A|--------|--------|--------|--------|--------|--------|--------|--------|--------|
E|--------|--------|--------|--------|--------|--------|--------|--------|--------|


E|--------|--------|--------|--------|--------|--------|--------|--------|--------|
B|--------|--------|--------|--------|--------|--------|--------|--------|--------|
G|--------|--------|--------|--------|--------|--------|--------|--------|--------|
D|--------|--------|--------|--------|--------|--------|--------|--------|--------|
A|--------|--------|--------|--------|--------|--------|--------|--------|--------|
E|--------|--------|--------|--------|--------|--------|--------|--------|--------|


E|--------|--------|--------|--------|--------|--------|--------|--------|--------|
B|--------|--------|--------|--------|--------|--------|--------|--------|--------|
G|--------|--------|--------|--------|--------|--------|--------|--------|--------|
D|--------|--------|--------|--------|--------|--------|--------|--------|--------|
A|--------|--------|--------|--------|--------|--------|--------|--------|--------|
E|--------|--------|--------|--------|--------|--------|--------|--------|--------|


E|--------|--------|--------|--------|--------|--------|--------|--------|--------|
B|--------|--------|--------|--------|--------|--------|--------|--------|--------|
G|--------|--------|--------|--------|--------|--------|--------|--------|--------|
D|--------|--------|--------|--------|--------|--------|--------|--------|--------|
A|--------|--------|--------|--------|--------|--------|--------|--------|--------|
E|--------|--------|--------|--------|--------|--------|--------|--------|--------|


E|--------|--------|--------|--------|--------|--------|--------|--------|--------|
B|--------|--------|--------|--------|--------|--------|--------|--------|--------|
G|--------|--------|--------|--------|--------|--------|--------|--------|--------|
D|--------|--------|--------|--------|--------|--------|--------|--------|--------|
A|--------|--------|--------|--------|--------|--------|--------|--------|--------|
E|--------|--------|--------|--------|--------|--------|--------|--------|--------|


E|--------|--------|--------|--------|--------|--------|--------|--------|--------|
B|--------|--------|--------|--------|--------|--------|--------|--------|--------|
G|--------|--------|--------|--------|--------|--------|--------|--------|--------|
D|--------|--------|--------|--------|--------|--------|--------|--------|--------|
A|--------|--------|--------|--------|--------|--------|--------|--------|--------|
E|--------|--------|--------|--------|--------|--------|--------|--------|--------|


E|--------|--------|--------|--------|--------|--------|--------|--------|--------|
B|--------|--------|--------|--------|--------|--------|--------|--------|--------|
G|--------|--------|--------|--------|--------|--------|--------|--------|--------|
D|--------|--------|--------|--------|--------|--------|--------|--------|--------|
A|--------|--------|--------|--------|--------|--------|--------|--------|--------|
E|--------|--------|--------|--------|--------|--------|--------|--------|--------|


E|--------|--------|--------|--------|--------|--------|--------|--------|--------|
B|--------|--------|--------|--------|--------|--------|--------|--------|--------|
G|--------|--------|--------|--------|--------|--------|--------|--------|--------|
D|--------|--------|--------|--------|--------|--------|--------|--------|--------|
A|--------|--------|--------|--------|--------|--------|--------|--------|--------|
E|--------|--------|--------|--------|--------|--------|--------|--------|--------|


E|--------|--------|--------|--------|--------|--------|--------|--------|--------|
B|--------|--------|--------|--------|--------|--------|--------|--------|--------|
G|--------|--------|--------|--------|--------|--------|--------|--------|--------|
D|--------|--------|--------|--------|--------|--------|--------|--------|--------|
A|--------|--------|--------|--------|--------|--------|--------|--------|--------|
E|--------|--------|--------|--------|--------|--------|--------|--------|--------|


E|--------|--------|--------|--------|--------|--------|--------|--------|--------|
B|--------|--------|--------|--------|--------|--------|--------|--------|--------|
G|--------|--------|--------|--------|--------|--------|--------|--------|--------|
D|--------|--------|--------|--------|--------|--------|--------|--------|--------|
A|--------|--------|--------|--------|--------|--------|--------|--------|--------|
E|--------|--------|--------|--------|--------|--------|--------|--------|--------|


E|--------|--------|--------|--------|--------|--------|--------|--------|--------|
B|--------|--------|--------|--------|--------|--------|--------|--------|--------|
G|--------|--------|--------|--------|--------|--------|--------|--------|--------|
D|--------|--------|--------|--------|--------|--------|--------|--------|--------|
A|--------|--------|--------|--------|--------|--------|--------|--------|--------|
E|--------|--------|--------|--------|--------|--------|--------|--------|--------|


E|--------|--------|--------|--------|--------|--------|--------|--------|--------|
B|--------|--------|--------|--------|--------|--------|--------|--------|--------|
G|--------|--------|--------|--------|--------|--------|--------|--------|--------|
D|--------|--------|--------|--------|--------|--------|--------|--------|--------|
A|--------|--------|--------|--------|--------|--------|--------|--------|--------|
E|--------|--------|--------|--------|--------|--------|--------|--------|--------|


E|--------|--------|--------|--------|--------|--------|--------|--------|--------|
B|--------|--------|--------|--------|--------|--------|--------|--------|--------|
G|--------|--------|--------|--------|--------|--------|--------|--------|--------|
D|--------|--------|--------|--------|--------|--------|--------|--------|--------|
A|--------|--------|--------|--------|--------|--------|--------|--------|--------|
E|--------|--------|--------|--------|--------|--------|--------|--------|--------|


E|--------|--------|--------|--------|--------|--------|--------|--------|--------|
B|--------|--------|--------|--------|--------|--------|--------|--------|--------|
G|--------|--------|--------|--------|--------|--------|--------|--------|--------|
D|--------|--------|--------|--------|--------|--------|--------|--------|--------|
A|--------|--------|--------|--------|--------|--------|--------|--------|--------|
E|--------|--------|--------|--------|--------|--------|--------|--------|--------|


E|--------|--------|--------|--------|--------|
B|--------|--------|--------|--------|--------|
G|--------|--------|--------|--------|--------|
D|--------|--------|--------|--------|--------|
A|--------|--------|--------|--------|--------|
E|--------|--------|--------|--------|--------|





Track 4: Clean Guitar

E|--------|--------|--------|--------|--------|--------|--------|--------|--------|
B|--------|--------|--------|--------|--------|--------|--------|--------|--------|
G|--------|--------|--------|--------|--------|--------|--------|--------|--------|
D|--------|--------|--------|--------|--------|--------|--------|--------|--------|
A|--------|--------|--------|--------|--------|--------|--------|--------|--------|
E|--------|--------|--------|--------|--------|--------|--------|--------|--------|


E|--------|--------|--------|--------|--------|--------|--------|--------|--------|
B|--------|--------|--------|--------|--------|--------|--------|--------|--------|
G|--------|--------|--------|--------|--------|--------|--------|--------|--------|
D|--------|--------|--------|--------|--------|--------|--------|--------|--------|
A|--------|--------|--------|--------|--------|--------|--------|--------|--------|
E|--------|--------|--------|--------|--------|--------|--------|--------|--------|


E|--------|--------|--------|--------|--------|--------|--------|--------|--------|
B|--------|--------|--------|--------|--------|--------|--------|--------|--------|
G|--------|--------|--------|--------|--------|--------|--------|--------|--------|
D|--------|--------|--------|--------|--------|--------|--------|--------|--------|
A|--------|--------|--------|--------|--------|--------|--------|--------|--------|
E|--------|--------|--------|--------|--------|--------|--------|--------|--------|


E|--------|--------|--------|--------|--------|--------|--------|--------|--------|
B|--------|--------|--------|--------|--------|--------|--------|--------|--------|
G|--------|--------|--------|--------|--------|--------|--------|--------|--------|
D|--------|--------|--------|--------|--------|--------|--------|--------|--------|
A|--------|--------|--------|--------|--------|--------|--------|--------|--------|
E|--------|--------|--------|--------|--------|--------|--------|--------|--------|


E|--------|--------|--------|--------|--------|--------|--------|--------|--------|
B|--------|--------|--------|--------|--------|--------|--------|--------|--------|
G|--------|--------|--------|--------|--------|--------|--------|--------|--------|
D|--------|--------|--------|--------|--------|--------|--------|--------|--------|
A|--------|--------|--------|--------|--------|--------|--------|--------|--------|
E|--------|--------|--------|--------|--------|--------|--------|--------|--------|


E|--------|--------|--------|--------|--------|--------|--------|--------|--------|
B|--------|--------|--------|--------|--------|--------|--------|--------|--------|
G|--------|--------|--------|--------|--------|--------|--------|--------|--------|
D|--------|--------|--------|--------|--------|--------|--------|--------|--------|
A|--------|--------|--------|--------|--------|--------|--------|--------|--------|
E|--------|--------|--------|--------|--------|--------|--------|--------|--------|


E|--------|--------|--------|--------|--------|--------|--------|--------|--------|
B|--------|--------|--------|--------|--------|--------|--------|--------|--------|
G|--------|--------|--------|--------|--------|--------|--------|--------|--------|
D|--------|--------|--------|--------|--------|--------|--------|--------|--------|
A|--------|--------|--------|--------|--------|--------|--------|--------|--------|
E|--------|--------|--------|--------|--------|--------|--------|--------|--------|


E|--------|--------|--------|--------|--------|--------|--------|--------|--------|
B|--------|--------|--------|--------|--------|--------|--------|--------|--------|
G|--------|--------|--------|--------|--------|--------|--------|--------|--------|
D|--------|--------|--------|--------|--------|--------|--------|--------|--------|
A|--------|--------|--------|--------|--------|--------|--------|--------|--------|
E|--------|--------|--------|--------|--------|--------|--------|--------|--------|


E|--------|--------|--------|--------|--------|--------|--------|--------|--------|
B|--------|--------|--------|--------|--------|--------|--------|--------|--------|
G|--------|--------|--------|--------|--------|--------|--------|--------|--------|
D|--------|--------|--------|--------|--------|--------|--------|--------|--------|
A|--------|--------|--------|--------|--------|--------|--------|--------|--------|
E|--------|--------|--------|--------|--------|--------|--------|--------|--------|


E|----------------|-0-------------------------------|-0---------------0---------------|
B|------------5---|-----5-------5-------5-------5---|-----5-------5-------5-------5---|
G|--------3-------|---------4-------4-------3-------|---------3---------------4-------|
D|----------------|---------------------------------|---------------------------------|
A|----------------|---------------------------------|---------------------------------|
E|----------------|---------------------------------|---------------------------------|


E|-----------------0---------------|-0-------------------------------|-0---------------0---------------|
B|-----5-------5-------5-------5---|-----5-------5-------5-------5---|-----5-------5-------5-------5---|
G|-4-------3---------------3-------|---------4-------4-------3-------|---------3---------------4-------|
D|---------------------------------|---------------------------------|---------------------------------|
A|---------------------------------|---------------------------------|---------------------------------|
E|---------------------------------|---------------------------------|---------------------------------|


E|-----------------0------------|--------|--------|--------|--------|--------|--------|
B|-----5-------5-------5--------|--------|--------|--------|--------|--------|--------|
G|-4-------3--------------------|--------|--------|--------|--------|--------|--------|
D|------------------------------|--------|--------|--------|--------|--------|--------|
A|------------------------------|--------|--------|--------|--------|--------|--------|
E|------------------------------|--------|--------|--------|--------|--------|--------|


E|--------|--------|--------|--------|--------|--------|--------|--------|--------|
B|--------|--------|--------|--------|--------|--------|--------|--------|--------|
G|--------|--------|--------|--------|--------|--------|--------|--------|--------|
D|--------|--------|--------|--------|--------|--------|--------|--------|--------|
A|--------|--------|--------|--------|--------|--------|--------|--------|--------|
E|--------|--------|--------|--------|--------|--------|--------|--------|--------|


E|--------|--------|--------|--------|--------|--------|--------|--------|--------|
B|--------|--------|--------|--------|--------|--------|--------|--------|--------|
G|--------|--------|--------|--------|--------|--------|--------|--------|--------|
D|--------|--------|--------|--------|--------|--------|--------|--------|--------|
A|--------|--------|--------|--------|--------|--------|--------|--------|--------|
E|--------|--------|--------|--------|--------|--------|--------|--------|--------|


E|--------|--------|--------|--------|--------|--------|--------|--------|--------|
B|--------|--------|--------|--------|--------|--------|--------|--------|--------|
G|--------|--------|--------|--------|--------|--------|--------|--------|--------|
D|--------|--------|--------|--------|--------|--------|--------|--------|--------|
A|--------|--------|--------|--------|--------|--------|--------|--------|--------|
E|--------|--------|--------|--------|--------|--------|--------|--------|--------|


E|--------|--------|--------|--------|--------|--------|--------|--------|--------|
B|--------|--------|--------|--------|--------|--------|--------|--------|--------|
G|--------|--------|--------|--------|--------|--------|--------|--------|--------|
D|--------|--------|--------|--------|--------|--------|--------|--------|--------|
A|--------|--------|--------|--------|--------|--------|--------|--------|--------|
E|--------|--------|--------|--------|--------|--------|--------|--------|--------|


E|--------|--------|--------|--------|--------|--------|--------|--------|--------|
B|--------|--------|--------|--------|--------|--------|--------|--------|--------|
G|--------|--------|--------|--------|--------|--------|--------|--------|--------|
D|--------|--------|--------|--------|--------|--------|--------|--------|--------|
A|--------|--------|--------|--------|--------|--------|--------|--------|--------|
E|--------|--------|--------|--------|--------|--------|--------|--------|--------|


E|--------|--------|--------|--------|--------|--------|--------|--------|--------|
B|--------|--------|--------|--------|--------|--------|--------|--------|--------|
G|--------|--------|--------|--------|--------|--------|--------|--------|--------|
D|--------|--------|--------|--------|--------|--------|--------|--------|--------|
A|--------|--------|--------|--------|--------|--------|--------|--------|--------|
E|--------|--------|--------|--------|--------|--------|--------|--------|--------|


E|--------|--------|--------|--------|--------|--------|--------|--------|--------|
B|--------|--------|--------|--------|--------|--------|--------|--------|--------|
G|--------|--------|--------|--------|--------|--------|--------|--------|--------|
D|--------|--------|--------|--------|--------|--------|--------|--------|--------|
A|--------|--------|--------|--------|--------|--------|--------|--------|--------|
E|--------|--------|--------|--------|--------|--------|--------|--------|--------|


E|--------|--------|--------|--------|--------|--------|--------|--------|--------|
B|--------|--------|--------|--------|--------|--------|--------|--------|--------|
G|--------|--------|--------|--------|--------|--------|--------|--------|--------|
D|--------|--------|--------|--------|--------|--------|--------|--------|--------|
A|--------|--------|--------|--------|--------|--------|--------|--------|--------|
E|--------|--------|--------|--------|--------|--------|--------|--------|--------|


E|--------|--------|--------|--------|--------|--------|--------|--------|-----------------------|
B|--------|--------|--------|--------|--------|--------|--------|--------|---------------4-------|
G|--------|--------|--------|--------|--------|--------|--------|--------|-------------------4---|
D|--------|--------|--------|--------|--------|--------|--------|--------|-----------2-----------|
A|--------|--------|--------|--------|--------|--------|--------|--------|-----------------------|
E|--------|--------|--------|--------|--------|--------|--------|--------|-----------------------|


E|-0-------------------------------|-------------0-------------------|---------------------0-----------|
B|---------4-------------------4---|-----4---------------4-----------|-------------4---------------4---|
G|-----4-------4-----------4-------|---------4-------4-------4-------|-----4-----------4-------4-------|
D|-----------------2---2-----------|-2---------------------------2---|-2-------2-----------------------|
A|---------------------------------|---------------------------------|---------------------------------|
E|---------------------------------|---------------------------------|---------------------------------|


E|---------------------------------|-0-------------------------------|---------0-----------------------|
B|-----------------4-------4-------|---------4-----------------------|-4---------------4---------------|
G|-4-----------4---------------4---|-----4-------4-----------4-------|-----4-------4-------4-----------|
D|-----2---2-----------2-----------|-----------------2---2-------2---|-------------------------2---2---|
A|---------------------------------|---------------------------------|---------------------------------|
E|---------------------------------|---------------------------------|---------------------------------|


E|---------------------0-----------|-----------------------------0---|---------------------------------|
B|-----4-------4---------------4---|---------------------4-----------|-----4-------------------4-------|
G|-4---------------4-------4-------|-4-----------4-----------4-------|-4-------4-----------4-----------|
D|---------2-----------------------|-----2---2-------2---------------|-------------2---2-----------2---|
A|---------------------------------|---------------------------------|---------------------------------|
E|---------------------------------|---------------------------------|---------------------------------|


E|---------0-----------------------|-----------------0---------------|-----------------------------0---|
B|-4---------------4---------------|---------4---------------4-------|-------------4-------4-----------|
G|-----4-------4-------4-----------|-4-----------4-------4-------4---|---------4---------------4-------|
D|-------------------------2---2---|-----2---------------------------|-2---2-----------2---------------|
A|---------------------------------|---------------------------------|---------------------------------|
E|---------------------------------|---------------------------------|---------------------------------|


E|---------------------------------|-----0---------------------------|-----------------0---------------|
B|-----4-----------------------4---|-------------4-------------------|-4-------4---------------4-------|
G|-4-------4-----------4-----------|-4-------4-------4-----------4---|-------------4-------4-------4---|
D|-------------2---2-------2-------|---------------------2---2-------|-----2---------------------------|
A|---------------------------------|---------------------------------|---------------------------------|
E|---------------------------------|---------------------------------|---------------------------------|


E|-------------------------0-------|---------------------------------|-----0---------------------------|
B|-----------------4---------------|-4-------------------4-------4---|-------------4-------------------|
G|---------4-----------4-------4---|-----4-----------4---------------|-4-------4-------4-----------4---|
D|-2---2-------2-------------------|---------2---2-----------2-------|---------------------2---2-------|
A|---------------------------------|---------------------------------|---------------------------------|
E|---------------------------------|---------------------------------|---------------------------------|


E|-------------0-------------------|-------------------------0-------|---------------------------------|
B|-----4---------------4-----------|---------4-------4---------------|-4-----------------------4-------|
G|---------4-------4-------4-------|-----4---------------4-------4---|-----4-----------4-----------4---|
D|-2---------------------------2---|-2-----------2-------------------|---------2---2-------2-----------|
A|---------------------------------|---------------------------------|---------------------------------|
E|---------------------------------|---------------------------------|---------------------------------|


E|-0-------------------------------|-------------0-------------------|---------------------0-----------|
B|---------4-------------------4---|-----4---------------4-----------|-------------4---------------4---|
G|-----4-------4-----------4-------|---------4-------4-------4-------|-----4-----------4-------4-------|
D|-----------------2---2-----------|-2---------------------------2---|-2-------2-----------------------|
A|---------------------------------|---------------------------------|---------------------------------|
E|---------------------------------|---------------------------------|---------------------------------|


E|---------------------------------|-0-------------------------------|---------0-----------------------|
B|-----------------4-------4-------|---------4-----------------------|-4---------------4---------------|
G|-4-----------4---------------4---|-----4-------4-----------4-------|-----4-------4-------4-----------|
D|-----2---2-----------2-----------|-----------------2---2-------2---|-------------------------2---2---|
A|---------------------------------|---------------------------------|---------------------------------|
E|---------------------------------|---------------------------------|---------------------------------|


E|---------------------0-----------|-----------------------------0---|---------------------------------|
B|-----4-------4---------------4---|---------------------4-----------|-----4-------------------4-------|
G|-4---------------4-------4-------|-4-----------4-----------4-------|-4-------4-----------4-----------|
D|---------2-----------------------|-----2---2-------2---------------|-------------2---2-----------2---|
A|---------------------------------|---------------------------------|---------------------------------|
E|---------------------------------|---------------------------------|---------------------------------|


E|---------0-----------------------|-----------------0---------------|-----------------------------0---|
B|-4---------------4---------------|---------4---------------4-------|-------------4-------4-----------|
G|-----4-------4-------4-----------|-4-----------4-------4-------4---|---------4---------------4-------|
D|-------------------------2---2---|-----2---------------------------|-2---2-----------2---------------|
A|---------------------------------|---------------------------------|---------------------------------|
E|---------------------------------|---------------------------------|---------------------------------|


E|---------------------------------|-----0---------------------------|-----------------0---------------|
B|-----4-----------------------4---|-------------4-------------------|-4-------4---------------4-------|
G|-4-------4-----------4-----------|-4-------4-------4-----------4---|-------------4-------4-------4---|
D|-------------2---2-------2-------|---------------------2---2-------|-----2---------------------------|
A|---------------------------------|---------------------------------|---------------------------------|
E|---------------------------------|---------------------------------|---------------------------------|


E|-----------------------|--------|--------|--------|--------|--------|--------|--------|
B|-----------------------|--------|--------|--------|--------|--------|--------|--------|
G|---------4-------------|--------|--------|--------|--------|--------|--------|--------|
D|-2---2-----------------|--------|--------|--------|--------|--------|--------|--------|
A|-----------------------|--------|--------|--------|--------|--------|--------|--------|
E|-----------------------|--------|--------|--------|--------|--------|--------|--------|


E|--------|--------|--------|--------|--------|--------|--------|--------|--------|
B|--------|--------|--------|--------|--------|--------|--------|--------|--------|
G|--------|--------|--------|--------|--------|--------|--------|--------|--------|
D|--------|--------|--------|--------|--------|--------|--------|--------|--------|
A|--------|--------|--------|--------|--------|--------|--------|--------|--------|
E|--------|--------|--------|--------|--------|--------|--------|--------|--------|


E|--------|--------|--------|--------|--------|--------|--------|--------|--------|
B|--------|--------|--------|--------|--------|--------|--------|--------|--------|
G|--------|--------|--------|--------|--------|--------|--------|--------|--------|
D|--------|--------|--------|--------|--------|--------|--------|--------|--------|
A|--------|--------|--------|--------|--------|--------|--------|--------|--------|
E|--------|--------|--------|--------|--------|--------|--------|--------|--------|


E|--------|--------|--------|--------|--------|--------|--------|--------|--------|
B|--------|--------|--------|--------|--------|--------|--------|--------|--------|
G|--------|--------|--------|--------|--------|--------|--------|--------|--------|
D|--------|--------|--------|--------|--------|--------|--------|--------|--------|
A|--------|--------|--------|--------|--------|--------|--------|--------|--------|
E|--------|--------|--------|--------|--------|--------|--------|--------|--------|


E|--------|--------|--------|--------|--------|--------|--------|--------|--------|
B|--------|--------|--------|--------|--------|--------|--------|--------|--------|
G|--------|--------|--------|--------|--------|--------|--------|--------|--------|
D|--------|--------|--------|--------|--------|--------|--------|--------|--------|
A|--------|--------|--------|--------|--------|--------|--------|--------|--------|
E|--------|--------|--------|--------|--------|--------|--------|--------|--------|


E|--------|--------|--------|--------|--------|--------|--------|--------|--------|
B|--------|--------|--------|--------|--------|--------|--------|--------|--------|
G|--------|--------|--------|--------|--------|--------|--------|--------|--------|
D|--------|--------|--------|--------|--------|--------|--------|--------|--------|
A|--------|--------|--------|--------|--------|--------|--------|--------|--------|
E|--------|--------|--------|--------|--------|--------|--------|--------|--------|


E|--------|--------|--------|--------|--------|--------|--------|--------|--------|
B|--------|--------|--------|--------|--------|--------|--------|--------|--------|
G|--------|--------|--------|--------|--------|--------|--------|--------|--------|
D|--------|--------|--------|--------|--------|--------|--------|--------|--------|
A|--------|--------|--------|--------|--------|--------|--------|--------|--------|
E|--------|--------|--------|--------|--------|--------|--------|--------|--------|


E|--------|--------|--------|--------|--------|--------|--------|--------|--------|
B|--------|--------|--------|--------|--------|--------|--------|--------|--------|
G|--------|--------|--------|--------|--------|--------|--------|--------|--------|
D|--------|--------|--------|--------|--------|--------|--------|--------|--------|
A|--------|--------|--------|--------|--------|--------|--------|--------|--------|
E|--------|--------|--------|--------|--------|--------|--------|--------|--------|


E|--------|--------|--------|
B|--------|--------|--------|
G|--------|--------|--------|
D|--------|--------|--------|
A|--------|--------|--------|
E|--------|--------|--------|





Track 5: Rhythm Guitar

E|--------|--------|--------|--------|--------|--------|--------|--------|--------|
B|--------|--------|--------|--------|--------|--------|--------|--------|--------|
G|--------|--------|--------|--------|--------|--------|--------|--------|--------|
D|--------|--------|--------|--------|--------|--------|--------|--------|--------|
A|--------|--------|--------|--------|--------|--------|--------|--------|--------|
E|--------|--------|--------|--------|--------|--------|--------|--------|--------|


E|--------|--------|--------|--------|--------|--------|--------|--------|--------|
B|--------|--------|--------|--------|--------|--------|--------|--------|--------|
G|--------|--------|--------|--------|--------|--------|--------|--------|--------|
D|--------|--------|--------|--------|--------|--------|--------|--------|--------|
A|--------|--------|--------|--------|--------|--------|--------|--------|--------|
E|--------|--------|--------|--------|--------|--------|--------|--------|--------|


E|--------|--------|--------|--------|--------|--------|--------|--------|--------|
B|--------|--------|--------|--------|--------|--------|--------|--------|--------|
G|--------|--------|--------|--------|--------|--------|--------|--------|--------|
D|--------|--------|--------|--------|--------|--------|--------|--------|--------|
A|--------|--------|--------|--------|--------|--------|--------|--------|--------|
E|--------|--------|--------|--------|--------|--------|--------|--------|--------|


E|--------|--------|--------|--------|--------|--------|--------|--------|--------|
B|--------|--------|--------|--------|--------|--------|--------|--------|--------|
G|--------|--------|--------|--------|--------|--------|--------|--------|--------|
D|--------|--------|--------|--------|--------|--------|--------|--------|--------|
A|--------|--------|--------|--------|--------|--------|--------|--------|--------|
E|--------|--------|--------|--------|--------|--------|--------|--------|--------|


E|--------|--------|--------|--------|--------|--------|--------|--------|--------|
B|--------|--------|--------|--------|--------|--------|--------|--------|--------|
G|--------|--------|--------|--------|--------|--------|--------|--------|--------|
D|--------|--------|--------|--------|--------|--------|--------|--------|--------|
A|--------|--------|--------|--------|--------|--------|--------|--------|--------|
E|--------|--------|--------|--------|--------|--------|--------|--------|--------|


E|--------|--------|--------|--------|--------|--------|--------|--------|--------|
B|--------|--------|--------|--------|--------|--------|--------|--------|--------|
G|--------|--------|--------|--------|--------|--------|--------|--------|--------|
D|--------|--------|--------|--------|--------|--------|--------|--------|--------|
A|--------|--------|--------|--------|--------|--------|--------|--------|--------|
E|--------|--------|--------|--------|--------|--------|--------|--------|--------|


E|--------|--------|--------|--------|--------|--------|--------|--------|--------|
B|--------|--------|--------|--------|--------|--------|--------|--------|--------|
G|--------|--------|--------|--------|--------|--------|--------|--------|--------|
D|--------|--------|--------|--------|--------|--------|--------|--------|--------|
A|--------|--------|--------|--------|--------|--------|--------|--------|--------|
E|--------|--------|--------|--------|--------|--------|--------|--------|--------|


E|--------|--------|--------|--------|--------|--------|--------|--------|--------|
B|--------|--------|--------|--------|--------|--------|--------|--------|--------|
G|--------|--------|--------|--------|--------|--------|--------|--------|--------|
D|--------|--------|--------|--------|--------|--------|--------|--------|--------|
A|--------|--------|--------|--------|--------|--------|--------|--------|--------|
E|--------|--------|--------|--------|--------|--------|--------|--------|--------|


E|--------|--------|--------|--------|--------|--------|--------|--------|--------|
B|--------|--------|--------|--------|--------|--------|--------|--------|--------|
G|--------|--------|--------|--------|--------|--------|--------|--------|--------|
D|--------|--------|--------|--------|--------|--------|--------|--------|--------|
A|--------|--------|--------|--------|--------|--------|--------|--------|--------|
E|--------|--------|--------|--------|--------|--------|--------|--------|--------|


E|-------------|--------|-------------|-------------|--------|-------------|--------|
B|-------------|--------|-------------|-------------|--------|-------------|--------|
G|-------------|--------|-------------|-------------|--------|-------------|--------|
D|--------6----|--------|------6------|--------6----|--------|------6------|--------|
A|-------------|--------|-------------|-------------|--------|-------------|--------|
E|-------------|--------|-------------|-------------|--------|-------------|--------|


E|--------|--------|--------|--------|--------|--------|--------|--------|--------|
B|--------|--------|--------|--------|--------|--------|--------|--------|--------|
G|--------|--------|--------|--------|--------|--------|--------|--------|--------|
D|--------|--------|--------|--------|--------|--------|--------|--------|--------|
A|--------|--------|--------|--------|--------|--------|--------|--------|--------|
E|--------|--------|--------|--------|--------|--------|--------|--------|--------|


E|--------|--------|--------|--------|--------|--------|--------|--------|--------|
B|--------|--------|--------|--------|--------|--------|--------|--------|--------|
G|--------|--------|--------|--------|--------|--------|--------|--------|--------|
D|--------|--------|--------|--------|--------|--------|--------|--------|--------|
A|--------|--------|--------|--------|--------|--------|--------|--------|--------|
E|--------|--------|--------|--------|--------|--------|--------|--------|--------|


E|--------|--------|--------|--------|--------|--------|--------|--------|--------|
B|--------|--------|--------|--------|--------|--------|--------|--------|--------|
G|--------|--------|--------|--------|--------|--------|--------|--------|--------|
D|--------|--------|--------|--------|--------|--------|--------|--------|--------|
A|--------|--------|--------|--------|--------|--------|--------|--------|--------|
E|--------|--------|--------|--------|--------|--------|--------|--------|--------|


E|--------|--------|--------|--------|--------|--------|--------|--------|--------|
B|--------|--------|--------|--------|--------|--------|--------|--------|--------|
G|--------|--------|--------|--------|--------|--------|--------|--------|--------|
D|--------|--------|--------|--------|--------|--------|--------|--------|--------|
A|--------|--------|--------|--------|--------|--------|--------|--------|--------|
E|--------|--------|--------|--------|--------|--------|--------|--------|--------|


E|--------|--------|--------|--------|--------|--------|--------|--------|--------|
B|--------|--------|--------|--------|--------|--------|--------|--------|--------|
G|--------|--------|--------|--------|--------|--------|--------|--------|--------|
D|--------|--------|--------|--------|--------|--------|--------|--------|--------|
A|--------|--------|--------|--------|--------|--------|--------|--------|--------|
E|--------|--------|--------|--------|--------|--------|--------|--------|--------|


E|--------|--------|--------|--------|--------|--------|--------|--------|--------|
B|--------|--------|--------|--------|--------|--------|--------|--------|--------|
G|--------|--------|--------|--------|--------|--------|--------|--------|--------|
D|--------|--------|--------|--------|--------|--------|--------|--------|--------|
A|--------|--------|--------|--------|--------|--------|--------|--------|--------|
E|--------|--------|--------|--------|--------|--------|--------|--------|--------|


E|--------|--------|--------|--------|--------|--------|--------|--------|--------|
B|--------|--------|--------|--------|--------|--------|--------|--------|--------|
G|--------|--------|--------|--------|--------|--------|--------|--------|--------|
D|--------|--------|--------|--------|--------|--------|--------|--------|--------|
A|--------|--------|--------|--------|--------|--------|--------|--------|--------|
E|--------|--------|--------|--------|--------|--------|--------|--------|--------|


E|--------|--------|--------|--------|--------|--------|--------|--------|--------|
B|--------|--------|--------|--------|--------|--------|--------|--------|--------|
G|--------|--------|--------|--------|--------|--------|--------|--------|--------|
D|--------|--------|--------|--------|--------|--------|--------|--------|--------|
A|--------|--------|--------|--------|--------|--------|--------|--------|--------|
E|--------|--------|--------|--------|--------|--------|--------|--------|--------|


E|--------|--------|--------|--------|--------|--------|--------|--------|--------|
B|--------|--------|--------|--------|--------|--------|--------|--------|--------|
G|--------|--------|--------|--------|--------|--------|--------|--------|--------|
D|--------|--------|--------|--------|--------|--------|--------|--------|--------|
A|--------|--------|--------|--------|--------|--------|--------|--------|--------|
E|--------|--------|--------|--------|--------|--------|--------|--------|--------|


E|--------|--------|--------|--------|--------|--------|--------|--------|--------|
B|--------|--------|--------|--------|--------|--------|--------|--------|--------|
G|--------|--------|--------|--------|--------|--------|--------|--------|--------|
D|--------|--------|--------|--------|--------|--------|--------|--------|--------|
A|--------|--------|--------|--------|--------|--------|--------|--------|--------|
E|--------|--------|--------|--------|--------|--------|--------|--------|--------|


E|--------|--------|--------|--------|--------|--------|--------|--------|--------|
B|--------|--------|--------|--------|--------|--------|--------|--------|--------|
G|--------|--------|--------|--------|--------|--------|--------|--------|--------|
D|--------|--------|--------|--------|--------|--------|--------|--------|--------|
A|--------|--------|--------|--------|--------|--------|--------|--------|--------|
E|--------|--------|--------|--------|--------|--------|--------|--------|--------|


E|--------|--------|--------|--------|--------|--------|--------|--------|--------|
B|--------|--------|--------|--------|--------|--------|--------|--------|--------|
G|--------|--------|--------|--------|--------|--------|--------|--------|--------|
D|--------|--------|--------|--------|--------|--------|--------|--------|--------|
A|--------|--------|--------|--------|--------|--------|--------|--------|--------|
E|--------|--------|--------|--------|--------|--------|--------|--------|--------|


E|--------|--------|--------|--------|--------|--------|--------|--------|--------|
B|--------|--------|--------|--------|--------|--------|--------|--------|--------|
G|--------|--------|--------|--------|--------|--------|--------|--------|--------|
D|--------|--------|--------|--------|--------|--------|--------|--------|--------|
A|--------|--------|--------|--------|--------|--------|--------|--------|--------|
E|--------|--------|--------|--------|--------|--------|--------|--------|--------|


E|--------|--------|--------|--------|--------|--------|--------|--------|--------|
B|--------|--------|--------|--------|--------|--------|--------|--------|--------|
G|--------|--------|--------|--------|--------|--------|--------|--------|--------|
D|--------|--------|--------|--------|--------|--------|--------|--------|--------|
A|--------|--------|--------|--------|--------|--------|--------|--------|--------|
E|--------|--------|--------|--------|--------|--------|--------|--------|--------|


E|--------|--------|--------|--------|--------|--------|--------|--------|--------|
B|--------|--------|--------|--------|--------|--------|--------|--------|--------|
G|--------|--------|--------|--------|--------|--------|--------|--------|--------|
D|--------|--------|--------|--------|--------|--------|--------|--------|--------|
A|--------|--------|--------|--------|--------|--------|--------|--------|--------|
E|--------|--------|--------|--------|--------|--------|--------|--------|--------|


E|--------|--------|--------|--------|--------|--------|--------|--------|--------|
B|--------|--------|--------|--------|--------|--------|--------|--------|--------|
G|--------|--------|--------|--------|--------|--------|--------|--------|--------|
D|--------|--------|--------|--------|--------|--------|--------|--------|--------|
A|--------|--------|--------|--------|--------|--------|--------|--------|--------|
E|--------|--------|--------|--------|--------|--------|--------|--------|--------|


E|--------|--------|--------|--------|--------|--------|--------|--------|--------|
B|--------|--------|--------|--------|--------|--------|--------|--------|--------|
G|--------|--------|--------|--------|--------|--------|--------|--------|--------|
D|--------|--------|--------|--------|--------|--------|--------|--------|--------|
A|--------|--------|--------|--------|--------|--------|--------|--------|--------|
E|--------|--------|--------|--------|--------|--------|--------|--------|--------|


E|--------|--------|--------|--------|--------|--------|--------|--------|--------|
B|--------|--------|--------|--------|--------|--------|--------|--------|--------|
G|--------|--------|--------|--------|--------|--------|--------|--------|--------|
D|--------|--------|--------|--------|--------|--------|--------|--------|--------|
A|--------|--------|--------|--------|--------|--------|--------|--------|--------|
E|--------|--------|--------|--------|--------|--------|--------|--------|--------|


E|--------|--------|--------|--------|--------|--------|--------|--------|--------|
B|--------|--------|--------|--------|--------|--------|--------|--------|--------|
G|--------|--------|--------|--------|--------|--------|--------|--------|--------|
D|--------|--------|--------|--------|--------|--------|--------|--------|--------|
A|--------|--------|--------|--------|--------|--------|--------|--------|--------|
E|--------|--------|--------|--------|--------|--------|--------|--------|--------|


E|--------|--------|--------|--------|--------|--------|--------|--------|--------|
B|--------|--------|--------|--------|--------|--------|--------|--------|--------|
G|--------|--------|--------|--------|--------|--------|--------|--------|--------|
D|--------|--------|--------|--------|--------|--------|--------|--------|--------|
A|--------|--------|--------|--------|--------|--------|--------|--------|--------|
E|--------|--------|--------|--------|--------|--------|--------|--------|--------|


E|--------|--------|--------|--------|--------|--------|--------|--------|--------|
B|--------|--------|--------|--------|--------|--------|--------|--------|--------|
G|--------|--------|--------|--------|--------|--------|--------|--------|--------|
D|--------|--------|--------|--------|--------|--------|--------|--------|--------|
A|--------|--------|--------|--------|--------|--------|--------|--------|--------|
E|--------|--------|--------|--------|--------|--------|--------|--------|--------|


E|--------|--------|--------|--------|--------|--------|--------|--------|
B|--------|--------|--------|--------|--------|--------|--------|--------|
G|--------|--------|--------|--------|--------|--------|--------|--------|
D|--------|--------|--------|--------|--------|--------|--------|--------|
A|--------|--------|--------|--------|--------|--------|--------|--------|
E|--------|--------|--------|--------|--------|--------|--------|--------|





Track 6: Rhythm Guitar

E|--------|--------|--------|--------|--------|--------|--------|--------|--------|
B|--------|--------|--------|--------|--------|--------|--------|--------|--------|
G|--------|--------|--------|--------|--------|--------|--------|--------|--------|
D|--------|--------|--------|--------|--------|--------|--------|--------|--------|
A|--------|--------|--------|--------|--------|--------|--------|--------|--------|
E|--------|--------|--------|--------|--------|--------|--------|--------|--------|


E|--------|--------|--------|--------|--------|--------|--------|--------|--------|
B|--------|--------|--------|--------|--------|--------|--------|--------|--------|
G|--------|--------|--------|--------|--------|--------|--------|--------|--------|
D|--------|--------|--------|--------|--------|--------|--------|--------|--------|
A|--------|--------|--------|--------|--------|--------|--------|--------|--------|
E|--------|--------|--------|--------|--------|--------|--------|--------|--------|


E|--------|--------|--------|--------|--------|--------|--------|--------|--------|
B|--------|--------|--------|--------|--------|--------|--------|--------|--------|
G|--------|--------|--------|--------|--------|--------|--------|--------|--------|
D|--------|--------|--------|--------|--------|--------|--------|--------|--------|
A|--------|--------|--------|--------|--------|--------|--------|--------|--------|
E|--------|--------|--------|--------|--------|--------|--------|--------|--------|


E|--------|--------|--------|--------|--------|--------|--------|--------|--------|
B|--------|--------|--------|--------|--------|--------|--------|--------|--------|
G|--------|--------|--------|--------|--------|--------|--------|--------|--------|
D|--------|--------|--------|--------|--------|--------|--------|--------|--------|
A|--------|--------|--------|--------|--------|--------|--------|--------|--------|
E|--------|--------|--------|--------|--------|--------|--------|--------|--------|


E|--------|--------|--------|--------|--------|--------|--------|--------|--------|
B|--------|--------|--------|--------|--------|--------|--------|--------|--------|
G|--------|--------|--------|--------|--------|--------|--------|--------|--------|
D|--------|--------|--------|--------|--------|--------|--------|--------|--------|
A|--------|--------|--------|--------|--------|--------|--------|--------|--------|
E|--------|--------|--------|--------|--------|--------|--------|--------|--------|


E|--------|--------|--------|--------|--------|--------|--------|--------|--------|
B|--------|--------|--------|--------|--------|--------|--------|--------|--------|
G|--------|--------|--------|--------|--------|--------|--------|--------|--------|
D|--------|--------|--------|--------|--------|--------|--------|--------|--------|
A|--------|--------|--------|--------|--------|--------|--------|--------|--------|
E|--------|--------|--------|--------|--------|--------|--------|--------|--------|


E|--------|--------|--------|--------|--------|--------|--------|--------|--------|
B|--------|--------|--------|--------|--------|--------|--------|--------|--------|
G|--------|--------|--------|--------|--------|--------|--------|--------|--------|
D|--------|--------|--------|--------|--------|--------|--------|--------|--------|
A|--------|--------|--------|--------|--------|--------|--------|--------|--------|
E|--------|--------|--------|--------|--------|--------|--------|--------|--------|


E|--------|--------|--------|--------|--------|--------|--------|--------|--------|
B|--------|--------|--------|--------|--------|--------|--------|--------|--------|
G|--------|--------|--------|--------|--------|--------|--------|--------|--------|
D|--------|--------|--------|--------|--------|--------|--------|--------|--------|
A|--------|--------|--------|--------|--------|--------|--------|--------|--------|
E|--------|--------|--------|--------|--------|--------|--------|--------|--------|


E|--------|--------|--------|--------|--------|--------|--------|--------|--------|
B|--------|--------|--------|--------|--------|--------|--------|--------|--------|
G|--------|--------|--------|--------|--------|--------|--------|--------|--------|
D|--------|--------|--------|--------|--------|--------|--------|--------|--------|
A|--------|--------|--------|--------|--------|--------|--------|--------|--------|
E|--------|--------|--------|--------|--------|--------|--------|--------|--------|


E|--------|--------|--------|--------|--------|--------|----------------|-9-----------------------9-------|
B|--------|--------|--------|--------|--------|--------|------------8---|-----9---8-----------8-------9---|
G|--------|--------|--------|--------|--------|--------|--------7-------|-------------6---7---------------|
D|--------|--------|--------|--------|--------|--------|----------------|---------------------------------|
A|--------|--------|--------|--------|--------|--------|----------------|---------------------------------|
E|--------|--------|--------|--------|--------|--------|----------------|---------------------------------|


E|-----------------9-----------9---|---------------------9-----------|-------------9-----------9-------|
B|-8-----------8-----------8-------|-9---8-----------8-------9---8---|---------8-----------8-------9---|
G|-----6---7-----------7-----------|---------6---7-------------------|-6---7-----------7---------------|
D|---------------------------------|---------------------------------|---------------------------------|
A|---------------------------------|---------------------------------|---------------------------------|
E|---------------------------------|---------------------------------|---------------------------------|


E|-----------------9---------------|---------9-----------9-----------|-------------9-------------------|
B|-8-----------8-------9---8-------|-----8-----------8-------9---8---|---------8-------9---8-----------|
G|-----6---7-------------------6---|-7-----------7-------------------|-6---7-------------------6---7---|
D|---------------------------------|---------------------------------|---------------------------------|
A|---------------------------------|---------------------------------|---------------------------------|
E|---------------------------------|---------------------------------|---------------------------------|


E|-----9---------------------------|----------------------------------------|-------------------------------|
B|-8-------------------------------|----------------------------------------|-------------------------------|
G|---------------------------------|----------------------------------------|-------------------------------|
D|---------------------------------|----------------------------------------|-------------------------------|
A|---------4--4--4--4--4--4--------|-----4--4--4--4--4----------4--4--4--4--|-4--4--------4--4--4--4--4-----|
E|---------------------------------|----------------------------------------|-------------------------------|


E|---------------------------------|----------------------------------------|-------------------------------|
B|---------------------------------|----------------------------------------|-------------------------------|
G|---------------------------------|----------------------------------------|-------------------------------|
D|---------------------------------|----------------------------------------|-------------------------------|
A|---------4--4--4--4--4--4--------|-----4--4--4--4--4----------4--4--4--4--|-4--4--------4--4--4--4--4-----|
E|---------------------------------|----------------------------------------|-------------------------------|


E|---------------------------------|----------------------------------------|-------------------------------|
B|---------------------------------|----------------------------------------|-------------------------------|
G|---------------------------------|----------------------------------------|-------------------------------|
D|---------------------------------|----------------------------------------|-------------------------------|
A|---------4--4--4--4--4--4--------|-----4--4--4--4--4----------4--4--4--4--|-4--4--------4--4--4--4--4-----|
E|---------------------------------|----------------------------------------|-------------------------------|


E|---------------------------------|----------------------------------------|-------------------------------|
B|---------------------------------|----------------------------------------|-------------------------------|
G|---------------------------------|----------------------------------------|-------------------------------|
D|---------------------------------|----------------------------------------|-------------------------------|
A|---------4--4--4--4--4--4--------|-----4--4--4--4--4----------4--4--4--4--|-4--4--------4--4--4--4--4-----|
E|---------------------------------|----------------------------------------|-------------------------------|


E|---------------------------------|----------------------------------------|-------------------------------|
B|---------------------------------|----------------------------------------|-------------------------------|
G|---------------------------------|----------------------------------------|-------------------------------|
D|---------------------------------|----------------------------------------|-------------------------------|
A|---------2--2--2--2--2--2--------|-----2--2--2--2--2----------4--4--4--4--|-4--4--------4--4--4--4--4-----|
E|---------------------------------|----------------------------------------|-------------------------------|


E|---------------------------------|----------------------------------------|-------------------------------|
B|---------------------------------|----------------------------------------|-------------------------------|
G|---------------------------------|----------------------------------------|-------------------------------|
D|---------------------------------|----------------------------------------|-------------------------------|
A|---------4--4--4--4--4--4--------|-----4--4--4--4--4----------4--4--4--4--|-4--4--------4--4--4--4--4-----|
E|---------------------------------|----------------------------------------|-------------------------------|


E|---------------------------------|----------------------------------------|-------------------------------|
B|---------------------------------|----------------------------------------|-------------------------------|
G|---------------------------------|----------------------------------------|-------------------------------|
D|---------------------------------|----------------------------------------|-------------------------------|
A|---------4--4--4--4--4--4--------|-----4--4--4--4--4----------4--4--4--4--|-4--4--------4--4--4--4--4-----|
E|---------------------------------|----------------------------------------|-------------------------------|


E|---------------------------------|----------------------------------------|-------------------------------|
B|---------------------------------|----------------------------------------|-------------------------------|
G|---------------------------------|----------------------------------------|-------------------------------|
D|---------------------------------|----------------------------------------|-------------------------------|
A|---------4--4--4--4--4--4--------|-----4--4--4--4--4----------2--2--2--2--|-2--2--------2--2--2--2--2-----|
E|---------------------------------|----------------------------------------|-------------------------------|


E|---------------------------------|----------------------------------------|-------------------------------|
B|---------------------------------|----------------------------------------|-------------------------------|
G|---------------------------------|----------------------------------------|-------------------------------|
D|---------------------------------|----------------------------------------|-------------------------------|
A|---------4--4--4--4--4--4--------|-----4--4--4--4--4----------4--4--4--4--|-4--4--------4--4--4--4--4-----|
E|---------------------------------|----------------------------------------|-------------------------------|


E|-----------------9---------------|---------9-----------------------|-9-----------9-------------------|
B|-------------8-------9---8-------|-----8-------9---8-----------8---|---------8-------9---8-----------|
G|---------7-------------------6---|-7-------------------6---7-------|-----7-------------------6---7---|
D|---------------------------------|---------------------------------|---------------------------------|
A|---------------------------------|---------------------------------|---------------------------------|
E|---------------------------------|---------------------------------|---------------------------------|


E|-----9-----------------------9---|---------9-----------------------|-9-----------------------9-------|
B|-8-------9---8-----------8-------|-----8-------9---8-----------8---|-----9---8-----------8-----------|
G|-----------------6---7-----------|-7-------------------6---7-------|-------------6---7-----------7---|
D|---------------------------------|---------------------------------|---------------------------------|
A|---------------------------------|---------------------------------|---------------------------------|
E|---------------------------------|---------------------------------|---------------------------------|


E|-----9-----------------------9---|---------------------9---------------|-------------------------------|
B|-8-------9---8-----------8-------|-9---8-----------8-------------------|-------------------------------|
G|-----------------6---7-----------|---------6---7-----------------------|-------------------------------|
D|---------------------------------|-------------------------------------|-------------------------------|
A|---------------------------------|-------------------------4--4--4--4--|-4--4--------4--4--4--4--4-----|
E|---------------------------------|-------------------------------------|-------------------------------|


E|---------------------------------|----------------------------------------|-------------------------------|
B|---------------------------------|----------------------------------------|-------------------------------|
G|---------------------------------|----------------------------------------|-------------------------------|
D|---------------------------------|----------------------------------------|-------------------------------|
A|---------4--4--4--4--4--4--------|-----4--4--4--4--4----------4--4--4--4--|-4--4--------4--4--4--4--4-----|
E|---------------------------------|----------------------------------------|-------------------------------|


E|---------------------------------|----------------------------------------|-------------------------------|
B|---------------------------------|----------------------------------------|-------------------------------|
G|---------------------------------|----------------------------------------|-------------------------------|
D|---------------------------------|----------------------------------------|-------------------------------|
A|---------4--4--4--4--4--4--------|-----4--4--4--4--4----------4--4--4--4--|-4--4--------4--4--4--4--4-----|
E|---------------------------------|----------------------------------------|-------------------------------|


E|---------------------------------|----------------------------------------|-------------------------------|
B|---------------------------------|----------------------------------------|-------------------------------|
G|---------------------------------|----------------------------------------|-------------------------------|
D|---------------------------------|----------------------------------------|-------------------------------|
A|---------4--4--4--4--4--4--------|-----4--4--4--4--4----------4--4--4--4--|-4--4--------4--4--4--4--4-----|
E|---------------------------------|----------------------------------------|-------------------------------|


E|---------------------------------|----------------------------------------|-------------------------------|
B|---------------------------------|----------------------------------------|-------------------------------|
G|---------------------------------|----------------------------------------|-------------------------------|
D|---------------------------------|----------------------------------------|-------------------------------|
A|---------4--4--4--4--4--4--------|-----4--4--4--4--4----------2--2--2--2--|-2--2--------2--2--2--2--2-----|
E|---------------------------------|----------------------------------------|-------------------------------|


E|---------------------------------|----------------------------------------|-------------------------------|
B|---------------------------------|----------------------------------------|-------------------------------|
G|---------------------------------|----------------------------------------|-------------------------------|
D|---------------------------------|----------------------------------------|-------------------------------|
A|---------4--4--4--4--4--4--------|-----4--4--4--4--4----------4--4--4--4--|-4--4--------4--4--4--4--4-----|
E|---------------------------------|----------------------------------------|-------------------------------|


E|---------------------------------|----------------------------------------|-------------------------------|
B|---------------------------------|----------------------------------------|-------------------------------|
G|---------------------------------|----------------------------------------|-------------------------------|
D|---------------------------------|----------------------------------------|-------------------------------|
A|---------4--4--4--4--4--4--------|-----4--4--4--4--4----------4--4--4--4--|-4--4--------4--4--4--4--4-----|
E|---------------------------------|----------------------------------------|-------------------------------|


E|---------------------------------|----------------------------------------|-------------------------------|
B|---------------------------------|----------------------------------------|-------------------------------|
G|---------------------------------|----------------------------------------|-------------------------------|
D|---------------------------------|----------------------------------------|-------------------------------|
A|---------4--4--4--4--4--4--------|-----4--4--4--4--4----------4--4--4--4--|-4--4--------4--4--4--4--4-----|
E|---------------------------------|----------------------------------------|-------------------------------|


E|---------------------------------|----------------------------------------|-------------------------------|
B|---------------------------------|----------------------------------------|-------------------------------|
G|---------------------------------|----------------------------------------|-------------------------------|
D|---------------------------------|----------------------------------------|-------------------------------|
A|---------2--2--2--2--2--2--------|-----2--2--2--2--2----------4--4--4--4--|-4--4--------4--4--4--4--4-----|
E|---------------------------------|----------------------------------------|-------------------------------|


E|---------------------------------|----------------------------------------|-3--4--------------3--4--------------------------|
B|---------------------------------|----------------------------------2--3--|-------------2--3--------------------------2--3--|
G|---------------------------------|----------------------------------------|-------------------------------------------------|
D|---------------------------------|----------------------------4--4--------|-------4--4--------------4--4--4--4--4--4--------|
A|---------4--4--4--4--4--4--------|-----4--4--4--4--4----------------------|-------------------------------------------------|
E|---------------------------------|----------------------------------------|-------------------------------------------------|


E|-3--4--------------3--4--------------------------|-3--4--------------3--4--------------------------|
B|-------------2--3--------------------------2--3--|-------------2--3--------------------------2--3--|
G|-------------------------------------------------|-------------------------------------------------|
D|-------4--4--------------4--4--4--4--4--4--------|-------4--4--------------4--4--4--4--4--4--------|
A|-------------------------------------------------|-------------------------------------------------|
E|-------------------------------------------------|-------------------------------------------------|


E|-3--4--------------3--4------------------------|-------------------------------------------|
B|-------------2--3------------------------------|-------------------------------------------|
G|-----------------------------------------------|-------------------------------------------|
D|-------4--4--------------4--4--4--4--1------1--|-1------1--1------1--1------1--1--1--1-----|
A|-----------------------------------------------|-------------------------------------------|
E|-----------------------------------------------|-------------------------------------------|


E|-------------------------------------------|-----------------------------------------|
B|-------------------------------------------|-----------------------------------------|
G|-------------------------------------------|-----------------------------------------|
D|----1--1------1--1------1--1------1--1--1--|-1------1--1------1--1------1--1------1--|
A|-------------------------------------------|-----------------------------------------|
E|-------------------------------------------|-----------------------------------------|


E|-------------------------------------------|-----------------------------------------------|
B|-------------------------------------------|-----------------------------------------------|
G|-------------------------------------------|-------------------8--10-----------------------|
D|-1--1--1------1--1------1--1------1--1-----|----1--1--1--8--10-------8--10-1------1--1-----|
A|-------------------------------------------|-----------------------------------------------|
E|-------------------------------------------|-----------------------------------------------|


E|-------------------------------------------|-------------------------------------------|
B|-------------------------------------------|-------------------------------------------|
G|-------------------------------------------|-------------------------------------------|
D|----1--1------1--1------1--1--1--1------1--|-1------1--1------1--1------1--1--1--1-----|
A|-------------------------------------------|-------------------------------------------|
E|-------------------------------------------|-------------------------------------------|


E|-------------------------------------------|-----------------------------------------|
B|-------------------------------------------|-----------------------------------------|
G|-------------------------------------------|-----------------------------------------|
D|----1--1------1--1------1--1------1--1--1--|-1------1--1------1--1------1--1------1--|
A|-------------------------------------------|-----------------------------------------|
E|-------------------------------------------|-----------------------------------------|


E|-------------------------------------------|-------------------------------------------|
B|-------------------------------------------|-------------------------------------------|
G|-------------------------------------------|-------------------------------------------|
D|-1--1--3------3--3------3--3------3--3-----|----3--3--3--3------3--3------3--3------3--|
A|-------------------------------------------|-------------------------------------------|
E|-------------------------------------------|-------------------------------------------|


E|-------------------------------------------|-------------------------------------------|
B|-------------------------------------------|-------------------------------------------|
G|-------------------------------------------|-------------------------------------------|
D|-3------3--3--3--3------3--3------3--3-----|----3--3------3--3--3--3------3--3------3--|
A|-------------------------------------------|-------------------------------------------|
E|-------------------------------------------|-------------------------------------------|


E|---------------------------------|--------|--------|--------|--------|--------|--------|
B|---------------------------------|--------|--------|--------|--------|--------|--------|
G|---------------------------------|--------|--------|--------|--------|--------|--------|
D|-3------3--3------3--3--3--------|--------|--------|--------|--------|--------|--------|
A|---------------------------------|--------|--------|--------|--------|--------|--------|
E|---------------------------------|--------|--------|--------|--------|--------|--------|


E|--------|--------|--------|--------|--------|--------|--------|--------|--------|
B|--------|--------|--------|--------|--------|--------|--------|--------|--------|
G|--------|--------|--------|--------|--------|--------|--------|--------|--------|
D|--------|--------|--------|--------|--------|--------|--------|--------|--------|
A|--------|--------|--------|--------|--------|--------|--------|--------|--------|
E|--------|--------|--------|--------|--------|--------|--------|--------|--------|


E|--------|--------|--------|--------|--------|--------|--------|--------|--------|
B|--------|--------|--------|--------|--------|--------|--------|--------|--------|
G|--------|--------|--------|--------|--------|--------|--------|--------|--------|
D|--------|--------|--------|--------|--------|--------|--------|--------|--------|
A|--------|--------|--------|--------|--------|--------|--------|--------|--------|
E|--------|--------|--------|--------|--------|--------|--------|--------|--------|


E|--------|--------|--------|--------|--------|--------|--------|--------|--------|
B|--------|--------|--------|--------|--------|--------|--------|--------|--------|
G|--------|--------|--------|--------|--------|--------|--------|--------|--------|
D|--------|--------|--------|--------|--------|--------|--------|--------|--------|
A|--------|--------|--------|--------|--------|--------|--------|--------|--------|
E|--------|--------|--------|--------|--------|--------|--------|--------|--------|


E|--------|--------|--------|--------|--------|--------|--------|--------|--------|
B|--------|--------|--------|--------|--------|--------|--------|--------|--------|
G|--------|--------|--------|--------|--------|--------|--------|--------|--------|
D|--------|--------|--------|--------|--------|--------|--------|--------|--------|
A|--------|--------|--------|--------|--------|--------|--------|--------|--------|
E|--------|--------|--------|--------|--------|--------|--------|--------|--------|


E|--------|--------|--------|--------|--------|--------|--------|--------|--------|
B|--------|--------|--------|--------|--------|--------|--------|--------|--------|
G|--------|--------|--------|--------|--------|--------|--------|--------|--------|
D|--------|--------|--------|--------|--------|--------|--------|--------|--------|
A|--------|--------|--------|--------|--------|--------|--------|--------|--------|
E|--------|--------|--------|--------|--------|--------|--------|--------|--------|


E|--------|--------|--------|--------|--------|--------|--------|--------|--------|
B|--------|--------|--------|--------|--------|--------|--------|--------|--------|
G|--------|--------|--------|--------|--------|--------|--------|--------|--------|
D|--------|--------|--------|--------|--------|--------|--------|--------|--------|
A|--------|--------|--------|--------|--------|--------|--------|--------|--------|
E|--------|--------|--------|--------|--------|--------|--------|--------|--------|


E|--------|--------|--------|--------|--------|--------|--------|--------|--------|
B|--------|--------|--------|--------|--------|--------|--------|--------|--------|
G|--------|--------|--------|--------|--------|--------|--------|--------|--------|
D|--------|--------|--------|--------|--------|--------|--------|--------|--------|
A|--------|--------|--------|--------|--------|--------|--------|--------|--------|
E|--------|--------|--------|--------|--------|--------|--------|--------|--------|


E|--------|--------|--------|--------|--------|--------|--------|--------|--------|
B|--------|--------|--------|--------|--------|--------|--------|--------|--------|
G|--------|--------|--------|--------|--------|--------|--------|--------|--------|
D|--------|--------|--------|--------|--------|--------|--------|--------|--------|
A|--------|--------|--------|--------|--------|--------|--------|--------|--------|
E|--------|--------|--------|--------|--------|--------|--------|--------|--------|


E|--------|--------|--------|--------|--------|--------|--------|--------|--------|
B|--------|--------|--------|--------|--------|--------|--------|--------|--------|
G|--------|--------|--------|--------|--------|--------|--------|--------|--------|
D|--------|--------|--------|--------|--------|--------|--------|--------|--------|
A|--------|--------|--------|--------|--------|--------|--------|--------|--------|
E|--------|--------|--------|--------|--------|--------|--------|--------|--------|


E|--------|--------|--------|--------|--------|--------|--------|--------|--------|
B|--------|--------|--------|--------|--------|--------|--------|--------|--------|
G|--------|--------|--------|--------|--------|--------|--------|--------|--------|
D|--------|--------|--------|--------|--------|--------|--------|--------|--------|
A|--------|--------|--------|--------|--------|--------|--------|--------|--------|
E|--------|--------|--------|--------|--------|--------|--------|--------|--------|


E|--------|--------|--------|--------|--------|--------|--------|--------|--------|
B|--------|--------|--------|--------|--------|--------|--------|--------|--------|
G|--------|--------|--------|--------|--------|--------|--------|--------|--------|
D|--------|--------|--------|--------|--------|--------|--------|--------|--------|
A|--------|--------|--------|--------|--------|--------|--------|--------|--------|
E|--------|--------|--------|--------|--------|--------|--------|--------|--------|


E|--------|--------|--------|--------|--------|
B|--------|--------|--------|--------|--------|
G|--------|--------|--------|--------|--------|
D|--------|--------|--------|--------|--------|
A|--------|--------|--------|--------|--------|
E|--------|--------|--------|--------|--------|





Track 7: Rhythm Guitar

E|--------|--------|--------|--------|--------|--------|--------|--------|--------|
B|--------|--------|--------|--------|--------|--------|--------|--------|--------|
G|--------|--------|--------|--------|--------|--------|--------|--------|--------|
D|--------|--------|--------|--------|--------|--------|--------|--------|--------|
A|--------|--------|--------|--------|--------|--------|--------|--------|--------|
E|--------|--------|--------|--------|--------|--------|--------|--------|--------|


E|--------|--------|--------|--------|--------|--------|--------|--------|--------|
B|--------|--------|--------|--------|--------|--------|--------|--------|--------|
G|--------|--------|--------|--------|--------|--------|--------|--------|--------|
D|--------|--------|--------|--------|--------|--------|--------|--------|--------|
A|--------|--------|--------|--------|--------|--------|--------|--------|--------|
E|--------|--------|--------|--------|--------|--------|--------|--------|--------|


E|--------|--------|--------|--------|--------|--------|--------|--------|--------|
B|--------|--------|--------|--------|--------|--------|--------|--------|--------|
G|--------|--------|--------|--------|--------|--------|--------|--------|--------|
D|--------|--------|--------|--------|--------|--------|--------|--------|--------|
A|--------|--------|--------|--------|--------|--------|--------|--------|--------|
E|--------|--------|--------|--------|--------|--------|--------|--------|--------|


E|--------|--------|--------|--------|--------|--------|--------|--------|--------|
B|--------|--------|--------|--------|--------|--------|--------|--------|--------|
G|--------|--------|--------|--------|--------|--------|--------|--------|--------|
D|--------|--------|--------|--------|--------|--------|--------|--------|--------|
A|--------|--------|--------|--------|--------|--------|--------|--------|--------|
E|--------|--------|--------|--------|--------|--------|--------|--------|--------|


E|--------|--------|--------|--------|--------|--------|--------|--------|--------|
B|--------|--------|--------|--------|--------|--------|--------|--------|--------|
G|--------|--------|--------|--------|--------|--------|--------|--------|--------|
D|--------|--------|--------|--------|--------|--------|--------|--------|--------|
A|--------|--------|--------|--------|--------|--------|--------|--------|--------|
E|--------|--------|--------|--------|--------|--------|--------|--------|--------|


E|--------|--------|--------|--------|--------|--------|--------|--------|--------|
B|--------|--------|--------|--------|--------|--------|--------|--------|--------|
G|--------|--------|--------|--------|--------|--------|--------|--------|--------|
D|--------|--------|--------|--------|--------|--------|--------|--------|--------|
A|--------|--------|--------|--------|--------|--------|--------|--------|--------|
E|--------|--------|--------|--------|--------|--------|--------|--------|--------|


E|--------|--------|--------|--------|--------|--------|--------|--------|--------|
B|--------|--------|--------|--------|--------|--------|--------|--------|--------|
G|--------|--------|--------|--------|--------|--------|--------|--------|--------|
D|--------|--------|--------|--------|--------|--------|--------|--------|--------|
A|--------|--------|--------|--------|--------|--------|--------|--------|--------|
E|--------|--------|--------|--------|--------|--------|--------|--------|--------|


E|--------|--------|--------|--------|--------|--------|--------|--------|--------|
B|--------|--------|--------|--------|--------|--------|--------|--------|--------|
G|--------|--------|--------|--------|--------|--------|--------|--------|--------|
D|--------|--------|--------|--------|--------|--------|--------|--------|--------|
A|--------|--------|--------|--------|--------|--------|--------|--------|--------|
E|--------|--------|--------|--------|--------|--------|--------|--------|--------|


E|--------|--------|--------|--------|--------|--------|--------|--------|--------|
B|--------|--------|--------|--------|--------|--------|--------|--------|--------|
G|--------|--------|--------|--------|--------|--------|--------|--------|--------|
D|--------|--------|--------|--------|--------|--------|--------|--------|--------|
A|--------|--------|--------|--------|--------|--------|--------|--------|--------|
E|--------|--------|--------|--------|--------|--------|--------|--------|--------|


E|--------|--------|--------|--------|--------|--------|--------|--------|--------|
B|--------|--------|--------|--------|--------|--------|--------|--------|--------|
G|--------|--------|--------|--------|--------|--------|--------|--------|--------|
D|--------|--------|--------|--------|--------|--------|--------|--------|--------|
A|--------|--------|--------|--------|--------|--------|--------|--------|--------|
E|--------|--------|--------|--------|--------|--------|--------|--------|--------|


E|--------|--------|--------|--------|--------|--------|--------|--------|--------|
B|--------|--------|--------|--------|--------|--------|--------|--------|--------|
G|--------|--------|--------|--------|--------|--------|--------|--------|--------|
D|--------|--------|--------|--------|--------|--------|--------|--------|--------|
A|--------|--------|--------|--------|--------|--------|--------|--------|--------|
E|--------|--------|--------|--------|--------|--------|--------|--------|--------|


E|--------|--------|--------|--------|--------|--------|--------|--------|--------|
B|--------|--------|--------|--------|--------|--------|--------|--------|--------|
G|--------|--------|--------|--------|--------|--------|--------|--------|--------|
D|--------|--------|--------|--------|--------|--------|--------|--------|--------|
A|--------|--------|--------|--------|--------|--------|--------|--------|--------|
E|--------|--------|--------|--------|--------|--------|--------|--------|--------|


E|--------|--------|--------|--------|--------|--------|--------|--------|--------|
B|--------|--------|--------|--------|--------|--------|--------|--------|--------|
G|--------|--------|--------|--------|--------|--------|--------|--------|--------|
D|--------|--------|--------|--------|--------|--------|--------|--------|--------|
A|--------|--------|--------|--------|--------|--------|--------|--------|--------|
E|--------|--------|--------|--------|--------|--------|--------|--------|--------|


E|--------|--------|--------|--------|--------|--------|--------|--------|--------|
B|--------|--------|--------|--------|--------|--------|--------|--------|--------|
G|--------|--------|--------|--------|--------|--------|--------|--------|--------|
D|--------|--------|--------|--------|--------|--------|--------|--------|--------|
A|--------|--------|--------|--------|--------|--------|--------|--------|--------|
E|--------|--------|--------|--------|--------|--------|--------|--------|--------|


E|--------|--------|--------|--------|--------|--------|--------|--------|--------|
B|--------|--------|--------|--------|--------|--------|--------|--------|--------|
G|--------|--------|--------|--------|--------|--------|--------|--------|--------|
D|--------|--------|--------|--------|--------|--------|--------|--------|--------|
A|--------|--------|--------|--------|--------|--------|--------|--------|--------|
E|--------|--------|--------|--------|--------|--------|--------|--------|--------|


E|--------|--------|--------|--------|--------|--------|--------|--------|--------|
B|--------|--------|--------|--------|--------|--------|--------|--------|--------|
G|--------|--------|--------|--------|--------|--------|--------|--------|--------|
D|--------|--------|--------|--------|--------|--------|--------|--------|--------|
A|--------|--------|--------|--------|--------|--------|--------|--------|--------|
E|--------|--------|--------|--------|--------|--------|--------|--------|--------|


E|--------|--------|--------|--------|--------|--------|--------|--------|--------|
B|--------|--------|--------|--------|--------|--------|--------|--------|--------|
G|--------|--------|--------|--------|--------|--------|--------|--------|--------|
D|--------|--------|--------|--------|--------|--------|--------|--------|--------|
A|--------|--------|--------|--------|--------|--------|--------|--------|--------|
E|--------|--------|--------|--------|--------|--------|--------|--------|--------|


E|--------|--------|--------|--------|--------|--------|--------|--------|--------|
B|--------|--------|--------|--------|--------|--------|--------|--------|--------|
G|--------|--------|--------|--------|--------|--------|--------|--------|--------|
D|--------|--------|--------|--------|--------|--------|--------|--------|--------|
A|--------|--------|--------|--------|--------|--------|--------|--------|--------|
E|--------|--------|--------|--------|--------|--------|--------|--------|--------|


E|--------|--------|--------|--------|--------|--------|--------|--------|--------|
B|--------|--------|--------|--------|--------|--------|--------|--------|--------|
G|--------|--------|--------|--------|--------|--------|--------|--------|--------|
D|--------|--------|--------|--------|--------|--------|--------|--------|--------|
A|--------|--------|--------|--------|--------|--------|--------|--------|--------|
E|--------|--------|--------|--------|--------|--------|--------|--------|--------|


E|--------|--------|--------|-----------------|-----------------|--------|-------------|
B|--------|--------|--------|-----------------|-----------------|--------|-------------|
G|--------|--------|--------|-----------------|-----------------|-4------|-4-----------|
D|--------|--------|--------|-----------------|-----------------|--------|-------------|
A|--------|--------|--------|-----------2-----|-----------2-----|--------|------2------|
E|--------|--------|--------|-----------------|-----------------|--------|-------------|


E|------------------|--------------------|----------------|-------------|-----------------|
B|------------------|--------------------|----------------|-------------|-----------------|
G|------------4-----|-----------4--------|----------------|------4------|------4----------|
D|------------------|--------------------|----------------|-------------|-----------------|
A|------2-----------|----------------2---|------------2---|-------------|-----------2-----|
E|------------------|--------------------|----------------|-------------|-----------------|


E|-----------------|----------------|------------|-----------------|-----------------|
B|-----------------|----------------|------------|-----------------|-----------------|
G|-------------4---|------------4---|------------|-----------4-----|-------4---------|
D|-----------------|----------------|------------|-----------------|-----------------|
A|-------2---------|----------------|-----2------|-----2-----------|------------2----|
E|-----------------|----------------|------------|-----------------|-----------------|


E|-------------|------------|------------------------|---------------------------|
B|-------------|------------|------------------------|---------------------------|
G|-------------|-----4------|-----4------------------|---------------------------|
D|-------------|------------|------------------------|---------------------------|
A|--------2----|------------|----------0---0---------|-0--------0--------0---0---|
E|-------------|------------|------------------------|---------------------------|


E|--------------------|-----------------------|------------------------------|------------------------------|
B|--------------------|-----------------------|------------------------------|------------------------------|
G|--------------------|-----------------------|------------------------------|------------------------------|
D|--------------------|-----------------------|------------------------------|------------------------------|
A|-------0--------0---|-0---0---------0-------|-----0-----------0---0--------|-----0--------0---2---2-------|
E|--------------------|-----------------------|------------------------------|------------------------------|


E|------------------------|-----------------------|-----------------------|------------------------------|
B|------------------------|-----------------------|-----------------------|------------------------------|
G|------------------------|-----------------------|-----------------------|------------------------------|
D|------------------------|-----------------------|-----------------------|------------------------------|
A|------2--------2--------|-2---2---------2-------|-----2---2---2---------|-2--------2-----------2---2---|
E|------------------------|-----------------------|-----------------------|------------------------------|


E|------------------------|------------------------|--------------------|---------------------------|
B|------------------------|------------------------|--------------------|---------------------------|
G|------------------------|------------------------|--------------------|---------------------------|
D|------------------------|------------------------|--------------------|---------------------------|
A|-------2--------2---0---|-0---------0--------0---|------0---0---------|-0--------0---0---0--------|
E|------------------------|------------------------|--------------------|---------------------------|


E|---------------------------|------------------------|---------------------------|
B|---------------------------|------------------------|---------------------------|
G|---------------------------|------------------------|---------------------------|
D|---------------------------|------------------------|---------------------------|
A|------0--------0-----------|-0---0---------0--------|-0---2---2---------2-------|
E|---------------------------|------------------------|---------------------------|


E|---------------------------|---------------------------|--------------------|---------------------------|
B|---------------------------|---------------------------|--------------------|---------------------------|
G|---------------------------|---------------------------|--------------------|---------------------------|
D|---------------------------|---------------------------|--------------------|---------------------------|
A|-----2--------2---2--------|------2--------2---2---2---|-------2--------2---|---------2---2---------2---|
E|---------------------------|---------------------------|--------------------|---------------------------|


E|--------------------|--------|--------|--------|--------|--------|--------|--------|
B|--------------------|--------|--------|--------|--------|--------|--------|--------|
G|--------------------|--------|--------|--------|--------|--------|--------|--------|
D|--------------------|--------|--------|--------|--------|--------|--------|--------|
A|------2-------------|--------|--------|--------|--------|--------|--------|--------|
E|--------------------|--------|--------|--------|--------|--------|--------|--------|


E|--------|--------|--------|--------|--------|--------|--------|--------|--------|
B|--------|--------|--------|--------|--------|--------|--------|--------|--------|
G|--------|--------|--------|--------|--------|--------|--------|--------|--------|
D|--------|--------|--------|--------|--------|--------|--------|--------|--------|
A|--------|--------|--------|--------|--------|--------|--------|--------|--------|
E|--------|--------|--------|--------|--------|--------|--------|--------|--------|


E|--------|--------|--------|--------|--------|--------|--------|--------|--------|
B|--------|--------|--------|--------|--------|--------|--------|--------|--------|
G|--------|--------|--------|--------|--------|--------|--------|--------|--------|
D|--------|--------|--------|--------|--------|--------|--------|--------|--------|
A|--------|--------|--------|--------|--------|--------|--------|--------|--------|
E|--------|--------|--------|--------|--------|--------|--------|--------|--------|


E|--------|--------|--------|--------|--------|--------|--------|--------|--------|
B|--------|--------|--------|--------|--------|--------|--------|--------|--------|
G|--------|--------|--------|--------|--------|--------|--------|--------|--------|
D|--------|--------|--------|--------|--------|--------|--------|--------|--------|
A|--------|--------|--------|--------|--------|--------|--------|--------|--------|
E|--------|--------|--------|--------|--------|--------|--------|--------|--------|


E|--------|--------|--------|--------|--------|--------|--------|--------|--------|
B|--------|--------|--------|--------|--------|--------|--------|--------|--------|
G|--------|--------|--------|--------|--------|--------|--------|--------|--------|
D|--------|--------|--------|--------|--------|--------|--------|--------|--------|
A|--------|--------|--------|--------|--------|--------|--------|--------|--------|
E|--------|--------|--------|--------|--------|--------|--------|--------|--------|


E|--------|--------|--------|--------|--------|--------|--------|--------|--------|
B|--------|--------|--------|--------|--------|--------|--------|--------|--------|
G|--------|--------|--------|--------|--------|--------|--------|--------|--------|
D|--------|--------|--------|--------|--------|--------|--------|--------|--------|
A|--------|--------|--------|--------|--------|--------|--------|--------|--------|
E|--------|--------|--------|--------|--------|--------|--------|--------|--------|


E|--------|--------|--------|--------|--------|--------|--------|--------|--------|
B|--------|--------|--------|--------|--------|--------|--------|--------|--------|
G|--------|--------|--------|--------|--------|--------|--------|--------|--------|
D|--------|--------|--------|--------|--------|--------|--------|--------|--------|
A|--------|--------|--------|--------|--------|--------|--------|--------|--------|
E|--------|--------|--------|--------|--------|--------|--------|--------|--------|


E|--------|--------|--------|--------|--------|--------|--------|--------|--------|
B|--------|--------|--------|--------|--------|--------|--------|--------|--------|
G|--------|--------|--------|--------|--------|--------|--------|--------|--------|
D|--------|--------|--------|--------|--------|--------|--------|--------|--------|
A|--------|--------|--------|--------|--------|--------|--------|--------|--------|
E|--------|--------|--------|--------|--------|--------|--------|--------|--------|


E|--------|--------|--------|
B|--------|--------|--------|
G|--------|--------|--------|
D|--------|--------|--------|
A|--------|--------|--------|
E|--------|--------|--------|





Track 8: Rhythm Guitar

E|--------|--------|--------|--------|--------|--------|--------|--------|--------|
B|--------|--------|--------|--------|--------|--------|--------|--------|--------|
G|--------|--------|--------|--------|--------|--------|--------|--------|--------|
D|--------|--------|--------|--------|--------|--------|--------|--------|--------|
A|--------|--------|--------|--------|--------|--------|--------|--------|--------|
E|--------|--------|--------|--------|--------|--------|--------|--------|--------|


E|--------|--------|--------|--------|--------|--------|--------|--------|--------|
B|--------|--------|--------|--------|--------|--------|--------|--------|--------|
G|--------|--------|--------|--------|--------|--------|--------|--------|--------|
D|--------|--------|--------|--------|--------|--------|--------|--------|--------|
A|--------|--------|--------|--------|--------|--------|--------|--------|--------|
E|--------|--------|--------|--------|--------|--------|--------|--------|--------|


E|--------|--------|--------|--------|--------|--------|--------|--------|--------|
B|--------|--------|--------|--------|--------|--------|--------|--------|--------|
G|--------|--------|--------|--------|--------|--------|--------|--------|--------|
D|--------|--------|--------|--------|--------|--------|--------|--------|--------|
A|--------|--------|--------|--------|--------|--------|--------|--------|--------|
E|--------|--------|--------|--------|--------|--------|--------|--------|--------|


E|--------|--------|--------|--------|--------|--------|--------|--------|--------|
B|--------|--------|--------|--------|--------|--------|--------|--------|--------|
G|--------|--------|--------|--------|--------|--------|--------|--------|--------|
D|--------|--------|--------|--------|--------|--------|--------|--------|--------|
A|--------|--------|--------|--------|--------|--------|--------|--------|--------|
E|--------|--------|--------|--------|--------|--------|--------|--------|--------|


E|--------|--------|--------|--------|--------|--------|--------|--------|--------|
B|--------|--------|--------|--------|--------|--------|--------|--------|--------|
G|--------|--------|--------|--------|--------|--------|--------|--------|--------|
D|--------|--------|--------|--------|--------|--------|--------|--------|--------|
A|--------|--------|--------|--------|--------|--------|--------|--------|--------|
E|--------|--------|--------|--------|--------|--------|--------|--------|--------|


E|--------|--------|--------|--------|--------|--------|--------|--------|--------|
B|--------|--------|--------|--------|--------|--------|--------|--------|--------|
G|--------|--------|--------|--------|--------|--------|--------|--------|--------|
D|--------|--------|--------|--------|--------|--------|--------|--------|--------|
A|--------|--------|--------|--------|--------|--------|--------|--------|--------|
E|--------|--------|--------|--------|--------|--------|--------|--------|--------|


E|--------|--------|--------|--------|--------|--------|--------|--------|--------|
B|--------|--------|--------|--------|--------|--------|--------|--------|--------|
G|--------|--------|--------|--------|--------|--------|--------|--------|--------|
D|--------|--------|--------|--------|--------|--------|--------|--------|--------|
A|--------|--------|--------|--------|--------|--------|--------|--------|--------|
E|--------|--------|--------|--------|--------|--------|--------|--------|--------|


E|--------|--------|--------|--------|--------|--------|--------|--------|--------|
B|--------|--------|--------|--------|--------|--------|--------|--------|--------|
G|--------|--------|--------|--------|--------|--------|--------|--------|--------|
D|--------|--------|--------|--------|--------|--------|--------|--------|--------|
A|--------|--------|--------|--------|--------|--------|--------|--------|--------|
E|--------|--------|--------|--------|--------|--------|--------|--------|--------|


E|--------|--------|--------|--------|--------|--------|--------|--------|--------|
B|--------|--------|--------|--------|--------|--------|--------|--------|--------|
G|--------|--------|--------|--------|--------|--------|--------|--------|--------|
D|--------|--------|--------|--------|--------|--------|--------|--------|--------|
A|--------|--------|--------|--------|--------|--------|--------|--------|--------|
E|--------|--------|--------|--------|--------|--------|--------|--------|--------|


E|--------|--------|--------|--------|--------|--------|--------|--------|--------|
B|--------|--------|--------|--------|--------|--------|--------|--------|--------|
G|--------|--------|--------|--------|--------|--------|--------|--------|--------|
D|--------|--------|--------|--------|--------|--------|--------|--------|--------|
A|--------|--------|--------|--------|--------|--------|--------|--------|--------|
E|--------|--------|--------|--------|--------|--------|--------|--------|--------|


E|--------|--------|--------|--------|--------|--------|--------|--------|--------|
B|--------|--------|--------|--------|--------|--------|--------|--------|--------|
G|--------|--------|--------|--------|--------|--------|--------|--------|--------|
D|--------|--------|--------|--------|--------|--------|--------|--------|--------|
A|--------|--------|--------|--------|--------|--------|--------|--------|--------|
E|--------|--------|--------|--------|--------|--------|--------|--------|--------|


E|--------|--------|--------|--------|--------|--------|--------|--------|--------|
B|--------|--------|--------|--------|--------|--------|--------|--------|--------|
G|--------|--------|--------|--------|--------|--------|--------|--------|--------|
D|--------|--------|--------|--------|--------|--------|--------|--------|--------|
A|--------|--------|--------|--------|--------|--------|--------|--------|--------|
E|--------|--------|--------|--------|--------|--------|--------|--------|--------|


E|--------|--------|--------|--------|--------|--------|--------|--------|--------|
B|--------|--------|--------|--------|--------|--------|--------|--------|--------|
G|--------|--------|--------|--------|--------|--------|--------|--------|--------|
D|--------|--------|--------|--------|--------|--------|--------|--------|--------|
A|--------|--------|--------|--------|--------|--------|--------|--------|--------|
E|--------|--------|--------|--------|--------|--------|--------|--------|--------|


E|--------|--------|--------|--------|--------|--------|--------|--------|--------|
B|--------|--------|--------|--------|--------|--------|--------|--------|--------|
G|--------|--------|--------|--------|--------|--------|--------|--------|--------|
D|--------|--------|--------|--------|--------|--------|--------|--------|--------|
A|--------|--------|--------|--------|--------|--------|--------|--------|--------|
E|--------|--------|--------|--------|--------|--------|--------|--------|--------|


E|--------|--------|--------|--------|--------|--------|--------|--------|--------|
B|--------|--------|--------|--------|--------|--------|--------|--------|--------|
G|--------|--------|--------|--------|--------|--------|--------|--------|--------|
D|--------|--------|--------|--------|--------|--------|--------|--------|--------|
A|--------|--------|--------|--------|--------|--------|--------|--------|--------|
E|--------|--------|--------|--------|--------|--------|--------|--------|--------|


E|--------|--------|--------|--------|--------|--------|--------|--------|--------|
B|--------|--------|--------|--------|--------|--------|--------|--------|--------|
G|--------|--------|--------|--------|--------|--------|--------|--------|--------|
D|--------|--------|--------|--------|--------|--------|--------|--------|--------|
A|--------|--------|--------|--------|--------|--------|--------|--------|--------|
E|--------|--------|--------|--------|--------|--------|--------|--------|--------|


E|--------|--------|--------|--------|--------|--------|--------|--------|--------|
B|--------|--------|--------|--------|--------|--------|--------|--------|--------|
G|--------|--------|--------|--------|--------|--------|--------|--------|--------|
D|--------|--------|--------|--------|--------|--------|--------|--------|--------|
A|--------|--------|--------|--------|--------|--------|--------|--------|--------|
E|--------|--------|--------|--------|--------|--------|--------|--------|--------|


E|--------|--------|--------|--------|--------|--------|--------|--------|--------|
B|--------|--------|--------|--------|--------|--------|--------|--------|--------|
G|--------|--------|--------|--------|--------|--------|--------|--------|--------|
D|--------|--------|--------|--------|--------|--------|--------|--------|--------|
A|--------|--------|--------|--------|--------|--------|--------|--------|--------|
E|--------|--------|--------|--------|--------|--------|--------|--------|--------|


E|--------|--------|--------|--------|--------|--------|--------|--------|--------|
B|--------|--------|--------|--------|--------|--------|--------|--------|--------|
G|--------|--------|--------|--------|--------|--------|--------|--------|--------|
D|--------|--------|--------|--------|--------|--------|--------|--------|--------|
A|--------|--------|--------|--------|--------|--------|--------|--------|--------|
E|--------|--------|--------|--------|--------|--------|--------|--------|--------|


E|--------|--------|--------|--------|--------|--------|--------|--------|--------|
B|--------|--------|--------|--------|--------|--------|--------|--------|--------|
G|--------|--------|--------|--------|--------|--------|--------|--------|--------|
D|--------|--------|--------|--------|--------|--------|--------|--------|--------|
A|--------|--------|--------|--------|--------|--------|--------|--------|--------|
E|--------|--------|--------|--------|--------|--------|--------|--------|--------|


E|--------|--------|--------|--------|--------|--------|--------|--------|--------|
B|--------|--------|--------|--------|--------|--------|--------|--------|--------|
G|--------|--------|--------|--------|--------|--------|--------|--------|--------|
D|--------|--------|--------|--------|--------|--------|--------|--------|--------|
A|--------|--------|--------|--------|--------|--------|--------|--------|--------|
E|--------|--------|--------|--------|--------|--------|--------|--------|--------|


E|--------|--------|--------|--------|--------|--------|--------|--------|--------|
B|--------|--------|--------|--------|--------|--------|--------|--------|--------|
G|--------|--------|--------|--------|--------|--------|--------|--------|--------|
D|--------|--------|--------|--------|--------|--------|--------|--------|--------|
A|--------|--------|--------|--------|--------|--------|--------|--------|--------|
E|--------|--------|--------|--------|--------|--------|--------|--------|--------|


E|--------|--------|--------|--------|--------|--------|--------|--------|--------|
B|--------|--------|--------|--------|--------|--------|--------|--------|--------|
G|--------|--------|--------|--------|--------|--------|--------|--------|--------|
D|--------|--------|--------|--------|--------|--------|--------|--------|--------|
A|--------|--------|--------|--------|--------|--------|--------|--------|--------|
E|--------|--------|--------|--------|--------|--------|--------|--------|--------|


E|--------|--------|--------|--------|---------------------|---------------------------|
B|--------|--------|--------|--------|---------------------|---------------------------|
G|--------|--------|--------|--------|---------------------|---------------------------|
D|--------|--------|--------|--------|---------------------|---------------------------|
A|--------|--------|--------|--------|-------2---2---------|-2--------2-------2--------|
E|--------|--------|--------|--------|---------------------|---------------------------|


E|-----------------------------------|-----------------------------|-------------------------------------------|
B|-----------------------------------|-----------------------------|-------------------------------------------|
G|-4---------------------------------|-----------------------------|-------------------------------------------|
D|-----------------------------------|-----------------------3--2--|-0--0--3--2--0--0--3--2--0--0--------------|
A|----2------2---2-------2---2-------|------2--------2-------------|-------------------------------2---2-------|
E|-----------------------------------|-----------------------------|-------------------------------------------|


E|---------------------------|------------------------------------|-------------------------------|
B|---------------------------|------------------------------------|-------------------------------|
G|---------------------------|------4-----------------------------|-------------------------------|
D|---------------------------|------------------------3--2--0--0--|-3--2--0--0--------------------|
A|------2--------2-------2---|---------2------2-------------------|-------------2---2---------2---|
E|---------------------------|------------------------------------|-------------------------------|


E|-----------------------------|------------------------------|----------------------------------|
B|-----------------------------|------------------------------|----------------------------------|
G|-----------------------4-----|------------------------------|----------------------------------|
D|-----------------------------|------------------------------|----------------------3--2--0--0--|
A|------2-------2-----------2--|-----2---2-------2---2--------|-----2--------2-------------------|
E|-----------------------------|------------------------------|----------------------------------|


E|--------------------------------------|------------------------------|-----------------------------------------|
B|--------------------------------------|------------------------------|-----------------------------------------|
G|--------------------------------------|------------------------------|-----4-----------------------------------|
D|-3--2--0--0--3--2--0--0---------------|------------------------------|-----------------------3--2--0--0--3--2--|
A|-------------------------2---2--------|-----2--------2-------2-------|--------2------2-------------------------|
E|--------------------------------------|------------------------------|-----------------------------------------|


E|---------------6-----------------------|------------------------6-------|------------------------------------|
B|-----------4---------------------------|--------------------4-----------|------------------------------------|
G|-------2-----------2-------2--2--2--2--|------2--2------2-----------2---|-----2--2--2--2-------2--2------3---|
D|-0--0----------------------------------|--------------------------------|------------------------------------|
A|---------------------------------------|--------------------------------|------------------------------------|
E|---------------------------------------|--------------------------------|------------------------------------|


E|-----7----------------------------|-------------------7-----------------|------------------------------6---|
B|-5--------------------------------|---------------5---------------------|--------------------------4-------|
G|---------3-------3--3--3--3-------|-3--3------3-----------3-------3--3--|-3--3-------3--3------2-----------|
D|----------------------------------|-------------------------------------|----------------------------------|
A|----------------------------------|-------------------------------------|----------------------------------|
E|----------------------------------|-------------------------------------|----------------------------------|


E|------------------------------------|---------6---------------------------|-----------------------7-----------|
B|------------------------------------|-----4-------------------------------|-------------------5---------------|
G|-2-------2--2--2--2-------2--2------|-2-----------2-------2--2--2--2------|-----2--2------3-----------3-------|
D|------------------------------------|-------------------------------------|-----------------------------------|
A|------------------------------------|-------------------------------------|-----------------------------------|
E|------------------------------------|-------------------------------------|-----------------------------------|


E|------------------------------------|-7----------------------------------|--------------------------------------|
B|--------------------------------5---|------------------------------------|--------------------------------------|
G|-3--3--3--3-------3--3------3-------|-----3-------3--3--3--3-------3--3--|--------------------------------------|
D|------------------------------------|------------------------------------|--------------------------------------|
A|------------------------------------|------------------------------------|-----0---0-------0---0---0--0--0------|
E|------------------------------------|------------------------------------|--------------------------------------|


E|------------------------------|-----------------------------------|------------------------------|
B|------------------------------|-----------------------------------|------------------------------|
G|------------------------------|-----------------------------------|------------------------------|
D|--------------------------7---|-7-------7---7---7--7--7-------7---|-7-------7--------------------|
A|-----0---0-------0------------|-----------------------------------|------------------0---0-------|
E|------------------------------|-----------------------------------|------------------------------|


E|-----------------------------------|------------------------------|-----------------------------------|
B|-----------------------------------|------------------------------|-----------------------------------|
G|-----------------------------------|------------------------------|-----------------------------------|
D|-----------------------------------|----------7---7-------7---7---|-7--7--7-------7---7-------7-------|
A|-0---0---0--0--0-------0---0-------|-0----------------------------|-----------------------------------|
E|-----------------------------------|------------------------------|-----------------------------------|


E|--------------------------------------|------------------------------|-----------------------------------|
B|--------------------------------------|------------------------------|-----------------------------------|
G|--------------------------------------|------------------------------|-----------------------------------|
D|--------------------------------------|--------------------------7---|-7-------7---7---7--7--7-------7---|
A|-----0---0-------0---0---0--0--0------|-----0---0-------0------------|-----------------------------------|
E|--------------------------------------|------------------------------|-----------------------------------|


E|--------------------------------|---------------------------------------|-----------------------------------------|
B|--------------------------------|---------------------------------------|-----------------------------------------|
G|--------------------------------|---------------------------------------|-----------------------------------------|
D|-7-------7--------0-------3--4--|-5--6--0-------3--4--5--6--0-------0---|-----3--4--5--6--0-------3--4--5--6--0---|
A|--------------------------------|---------------------------------------|-----------------------------------------|
E|--------------------------------|---------------------------------------|-----------------------------------------|


E|---------------------------------------|---------------------------------------|
B|---------------------------------------|---------------------------------------|
G|---------------------------------------|---------------------------------------|
D|-----0-------3--4--5--6--0-------3--4--|-5--6--0-------0-------3--4--5--6--0---|
A|---------------------------------------|---------------------------------------|
E|---------------------------------------|---------------------------------------|


E|-------------------------------------------|-------------------------------------------------|
B|-------------------------------------------|-------------------------------------------------|
G|-------------------------------------------|-------------------------------------------------|
D|-----3--4--5--6--0-------2-----2--2--2-----|-2--2--2-----2--2--2-----2--2--2-----2--2--2-----|
A|-------------------------------------------|-------------------------------------------------|
E|-------------------------------------------|-------------------------------------------------|


E|-------------------------------------------------|-------------------------------------------------|
B|-------------------------------------------------|-------------------------------------------------|
G|-------------------------------------------------|-------------------------------------------------|
D|-2--2--2-----2--2--2-----2--2--2-----2--2--2-----|-2--2--2-----2--2--2-----2--2--2-----2--2--2-----|
A|-------------------------------------------------|-------------------------------------------------|
E|-------------------------------------------------|-------------------------------------------------|


E|-------------------------------------------------|-------------------------------------------------|
B|-------------------------------------------------|-------------------------------------------------|
G|-------------------------------------------------|-------------------------------------------------|
D|-2--2--2-----2--2--2-----2--2--2-----2--2--2-----|-2--2--2-----2--2--2-----2--2--2-----2--2--2-----|
A|-------------------------------------------------|-------------------------------------------------|
E|-------------------------------------------------|-------------------------------------------------|


E|-------------------------------------------------|-------------------------------------------------|
B|-------------------------------------------------|-------------------------------------------------|
G|-------------------------------------------------|-------------------------------------------------|
D|-2--2--2-----2--2--2-----2--2--2-----2--2--2-----|-2--2--2-----2--2--2-----2--2--2-----2--2--2-----|
A|-------------------------------------------------|-------------------------------------------------|
E|-------------------------------------------------|-------------------------------------------------|


E|-------------------------------------------------|-------------------------------------------------|
B|-------------------------------------------------|-------------------------------------------------|
G|-------------------------------------------------|-------------------------------------------------|
D|-2--2--2-----2--2--2-----2--2--2-----2--2--2-----|-2--2--2-----2--2--2-----2--2--2-----2--2--2-----|
A|-------------------------------------------------|-------------------------------------------------|
E|-------------------------------------------------|-------------------------------------------------|


E|---------------------------------------4---|-5---4-----------4---5---4-------|-----4---5---4-----------4---5---|
B|-----------------------------------4-------|-------------4-------------------|-4-------------------4-----------|
G|-------------------------------3-----------|---------3-------------------3---|-----------------3---------------|
D|-2--2--2-----2--2--2-----2--2--------------|---------------------------------|---------------------------------|
A|-------------------------------------------|---------------------------------|---------------------------------|
E|-------------------------------------------|---------------------------------|---------------------------------|


E|-4-----------4---5---4-----------|-4---5---4-----------4---5---4---|---------4---5---4-----------4---|
B|---------4-------------------4---|-----------------4---------------|-----4-------------------4-------|
G|-----3-------------------3-------|-------------3-------------------|-3-------------------3-----------|
D|---------------------------------|---------------------------------|---------------------------------|
A|---------------------------------|---------------------------------|---------------------------------|
E|---------------------------------|---------------------------------|---------------------------------|


E|-5---4-----------4---5---4-------|-----4---5---4-----------4---5---|-4-----------4---5---4-----------|
B|-------------4-------------------|-4-------------------4-----------|---------4-------------------4---|
G|---------3-------------------3---|-----------------3---------------|-----3-------------------3-------|
D|---------------------------------|---------------------------------|---------------------------------|
A|---------------------------------|---------------------------------|---------------------------------|
E|---------------------------------|---------------------------------|---------------------------------|


E|-4---5---4-----------4---5---4---|---------4---5---4---------------|-----------------------|
B|-----------------4---------------|-----4---------------------------|-----------------------|
G|-------------3-------------------|-3-------------------------------|-----------------------|
D|---------------------------------|---------------------------------|-----------------------|
A|---------------------------------|---------------------2---2-------|-----------2---2-------|
E|---------------------------------|---------------------------------|-----------------------|


E|--------------------|------------------------|----------------|------------------------|
B|--------------------|------------------------|----------------|------------------------|
G|--------------------|------------------------|----------------|------------------------|
D|--------------------|------------------------|----------------|------------------------|
A|------2---2---------|------2---2---------2---|-2----------2---|-2---------2---2--------|
E|--------------------|------------------------|----------------|------------------------|


E|--------------------|--------------------|---------------------------|----------------|
B|--------------------|--------------------|---------------------------|----------------|
G|--------------------|--------------------|---------------------------|----------------|
D|--------------------|--------------------|---------------------------|----------------|
A|-------2---2--------|-----2---2----------|-----2---2---------2---2---|--------2---2---|
E|--------------------|--------------------|---------------------------|----------------|


E|---------------------|---------------------|----------------|---------------------------|
B|---------------------|---------------------|----------------|---------------------------|
G|---------------------|---------------------|----------------|---------------------------|
D|---------------------|---------------------|----------------|---------------------------|
A|-------2---2---------|-------2---2---------|-2---2----------|-2---2---------2-----------|
E|---------------------|---------------------|----------------|---------------------------|





Track 9: Untitled

G|--------|--------|--------|--------|--------|--------|--------|--------|--------|
D|--------|--------|--------|--------|--------|--------|--------|--------|--------|
A|--------|--------|--------|--------|--------|--------|--------|--------|--------|
E|--------|--------|--------|--------|--------|--------|--------|--------|--------|


G|--------|--------|--------|--------|--------|--------|--------|--------|--------|
D|--------|--------|--------|--------|--------|--------|--------|--------|--------|
A|--------|--------|--------|--------|--------|--------|--------|--------|--------|
E|--------|--------|--------|--------|--------|--------|--------|--------|--------|


G|--------|--------|--------|--------|--------|--------|--------|--------|--------|
D|--------|--------|--------|--------|--------|--------|--------|--------|--------|
A|--------|--------|--------|--------|--------|--------|--------|--------|--------|
E|--------|--------|--------|--------|--------|--------|--------|--------|--------|


G|--------|--------|--------|--------|--------|--------|--------|--------|--------|
D|--------|--------|--------|--------|--------|--------|--------|--------|--------|
A|--------|--------|--------|--------|--------|--------|--------|--------|--------|
E|--------|--------|--------|--------|--------|--------|--------|--------|--------|


G|--------|--------|--------|--------|--------|--------|--------|--------|--------|
D|--------|--------|--------|--------|--------|--------|--------|--------|--------|
A|--------|--------|--------|--------|--------|--------|--------|--------|--------|
E|--------|--------|--------|--------|--------|--------|--------|--------|--------|


G|--------|--------|--------|--------|--------|--------|--------|--------|--------|
D|--------|--------|--------|--------|--------|--------|--------|--------|--------|
A|--------|--------|--------|--------|--------|--------|--------|--------|--------|
E|--------|--------|--------|--------|--------|--------|--------|--------|--------|


G|--------|--------|--------|--------|--------|--------|--------|--------|--------|
D|--------|--------|--------|--------|--------|--------|--------|--------|--------|
A|--------|--------|--------|--------|--------|--------|--------|--------|--------|
E|--------|--------|--------|--------|--------|--------|--------|--------|--------|


G|--------|--------|--------|--------|--------|--------|--------|--------|--------|
D|--------|--------|--------|--------|--------|--------|--------|--------|--------|
A|--------|--------|--------|--------|--------|--------|--------|--------|--------|
E|--------|--------|--------|--------|--------|--------|--------|--------|--------|


G|--------|--------|--------|--------|--------|--------|--------|--------|--------|
D|--------|--------|--------|--------|--------|--------|--------|--------|--------|
A|--------|--------|--------|--------|--------|--------|--------|--------|--------|
E|--------|--------|--------|--------|--------|--------|--------|--------|--------|


G|--------|--------|--------|--------|--------|--------|--------|--------|--------|
D|--------|--------|--------|--------|--------|--------|--------|--------|--------|
A|--------|--------|--------|--------|--------|--------|--------|--------|--------|
E|--------|--------|--------|--------|--------|--------|--------|--------|--------|


G|--------|--------|--------|--------|--------|--------|--------|--------|--------|
D|--------|--------|--------|--------|--------|--------|--------|--------|--------|
A|--------|--------|--------|--------|--------|--------|--------|--------|--------|
E|--------|--------|--------|--------|--------|--------|--------|--------|--------|


G|--------|--------|--------|--------|--------|--------|--------|--------|--------|
D|--------|--------|--------|--------|--------|--------|--------|--------|--------|
A|--------|--------|--------|--------|--------|--------|--------|--------|--------|
E|--------|--------|--------|--------|--------|--------|--------|--------|--------|


G|--------|--------|--------|--------|--------|--------|--------|--------|--------|
D|--------|--------|--------|--------|--------|--------|--------|--------|--------|
A|--------|--------|--------|--------|--------|--------|--------|--------|--------|
E|--------|--------|--------|--------|--------|--------|--------|--------|--------|


G|--------|--------|--------|--------|--------|--------|--------|--------|--------|
D|--------|--------|--------|--------|--------|--------|--------|--------|--------|
A|--------|--------|--------|--------|--------|--------|--------|--------|--------|
E|--------|--------|--------|--------|--------|--------|--------|--------|--------|


G|--------|--------|--------|--------|--------|--------|--------|--------|--------|
D|--------|--------|--------|--------|--------|--------|--------|--------|--------|
A|--------|--------|--------|--------|--------|--------|--------|--------|--------|
E|--------|--------|--------|--------|--------|--------|--------|--------|--------|


G|--------|--------|--------|--------|--------|--------|--------|--------|--------|
D|--------|--------|--------|--------|--------|--------|--------|--------|--------|
A|--------|--------|--------|--------|--------|--------|--------|--------|--------|
E|--------|--------|--------|--------|--------|--------|--------|--------|--------|


G|--------|--------|--------|--------|--------|--------|--------|--------|--------|
D|--------|--------|--------|--------|--------|--------|--------|--------|--------|
A|--------|--------|--------|--------|--------|--------|--------|--------|--------|
E|--------|--------|--------|--------|--------|--------|--------|--------|--------|


G|--------|--------|--------|--------|--------|--------|--------|--------|--------|
D|--------|--------|--------|--------|--------|--------|--------|--------|--------|
A|--------|--------|--------|--------|--------|--------|--------|--------|--------|
E|--------|--------|--------|--------|--------|--------|--------|--------|--------|


G|--------|--------|--------|--------|--------|--------|--------|--------|--------|
D|--------|--------|--------|--------|--------|--------|--------|--------|--------|
A|--------|--------|--------|--------|--------|--------|--------|--------|--------|
E|--------|--------|--------|--------|--------|--------|--------|--------|--------|


G|--------|--------|--------|--------|--------|--------|--------|--------|--------|
D|--------|--------|--------|--------|--------|--------|--------|--------|--------|
A|--------|--------|--------|--------|--------|--------|--------|--------|--------|
E|--------|--------|--------|--------|--------|--------|--------|--------|--------|


G|--------|--------|--------|--------|--------|--------|--------|--------|--------|
D|--------|--------|--------|--------|--------|--------|--------|--------|--------|
A|--------|--------|--------|--------|--------|--------|--------|--------|--------|
E|--------|--------|--------|--------|--------|--------|--------|--------|--------|


G|--------|--------|--------|--------|--------|--------|--------|--------|--------|
D|--------|--------|--------|--------|--------|--------|--------|--------|--------|
A|--------|--------|--------|--------|--------|--------|--------|--------|--------|
E|--------|--------|--------|--------|--------|--------|--------|--------|--------|


G|--------|--------|--------|--------|--------|--------|--------|--------|--------|
D|--------|--------|--------|--------|--------|--------|--------|--------|--------|
A|--------|--------|--------|--------|--------|--------|--------|--------|--------|
E|--------|--------|--------|--------|--------|--------|--------|--------|--------|


G|--------|--------|--------|--------|--------|--------|--------|--------|--------|
D|--------|--------|--------|--------|--------|--------|--------|--------|--------|
A|--------|--------|--------|--------|--------|--------|--------|--------|--------|
E|--------|--------|--------|--------|--------|--------|--------|--------|--------|


G|--------|--------|--------|--------|--------|--------|--------|--------|--------|
D|--------|--------|--------|--------|--------|--------|--------|--------|--------|
A|--------|--------|--------|--------|--------|--------|--------|--------|--------|
E|--------|--------|--------|--------|--------|--------|--------|--------|--------|


G|--------|--------|--------|--------|--------|--------|--------|--------|--------|
D|--------|--------|--------|--------|--------|--------|--------|--------|--------|
A|--------|--------|--------|--------|--------|--------|--------|--------|--------|
E|--------|--------|--------|--------|--------|--------|--------|--------|--------|


G|--------|--------|--------|--------|--------|--------|--------|--------|--------|
D|--------|--------|--------|--------|--------|--------|--------|--------|--------|
A|--------|--------|--------|--------|--------|--------|--------|--------|--------|
E|--------|--------|--------|--------|--------|--------|--------|--------|--------|


G|--------|--------|--------|--------|--------|--------|--------|--------|--------|
D|--------|--------|--------|--------|--------|--------|--------|--------|--------|
A|--------|--------|--------|--------|--------|--------|--------|--------|--------|
E|--------|--------|--------|--------|--------|--------|--------|--------|--------|


G|--------|--------|--------|--------|--------|--------|--------|--------|--------|
D|--------|--------|--------|--------|--------|--------|--------|--------|--------|
A|--------|--------|--------|--------|--------|--------|--------|--------|--------|
E|--------|--------|--------|--------|--------|--------|--------|--------|--------|


G|--------|--------|--------|--------|--------|--------|--------|--------|--------|
D|--------|--------|--------|--------|--------|--------|--------|--------|--------|
A|--------|--------|--------|--------|--------|--------|--------|--------|--------|
E|--------|--------|--------|--------|--------|--------|--------|--------|--------|


G|--------|--------|--------|--------|--------|--------|--------|--------|--------|
D|--------|--------|--------|--------|--------|--------|--------|--------|--------|
A|--------|--------|--------|--------|--------|--------|--------|--------|--------|
E|--------|--------|--------|--------|--------|--------|--------|--------|--------|


G|--------|--------|--------|--------|--------|--------|
D|--------|--------|--------|--------|--------|--------|
A|--------|--------|--------|--------|--------|--------|
E|--------|--------|--------|--------|--------|--------|