Site menu:

    

Browse: 0-9 A B C D E F G H I J K L N O P Q R S T U V W X Y Z

zero hour - jaded eyes:



Title: Jaded Eyes
Artist: 
Album: Metamorphosis
Author: Jason Tipton & Troy Tipton


Track 1: gtr

E|-----------------------------------------------|---------------------------------------------|
B|-----------------------------------------------|---------------------------------------------|
G|-----------------------------------------------|---------------------------------------------|
D|-4---6-------------------------------------4---|-4---6---------------------------------------|
A|-2---4-4--4--4--4--4--4--4--4--4--4--4--4--2---|-2---4-4--4--4--4--4--4--4--4--4--4--4-------|
E|-----------------------------------------------|---------------------------------------------|


E|-----------------------------------------------|-------------------------------------------------|
B|-----------------------------------------------|-------------------------------------------------|
G|-----------------------------------------------|-------------------------------------------------|
D|-4---6-------------------------------------4---|-4---6-------------------------------------------|
A|-2---4-4--4--4--4--4--4--4--4--4--4--4--4--2---|-2---4-4--4--4--4--4--4--4--6--7--4--6--2--4--2--|
E|-----------------------------------------------|-------------------------------------------------|


E|-----------------------------------------------|---------------------------------------------|
B|-----------------------------------------------|---------------------------------------------|
G|-----------------------------------------------|---------------------------------------------|
D|-4---6-------------------------------------4---|-4---6---------------------------------------|
A|-2---4-4--4--4--4--4--4--4--4--4--4--4--4--2---|-2---4-4--4--4--4--4--4--4--4--4--4--4-------|
E|-----------------------------------------------|---------------------------------------------|


E|-----------------------------------------------|-------------------------------------------------|
B|-----------------------------------------------|-------------------------------------------------|
G|-----------------------------------------------|-------------------------------------------------|
D|-4---6-------------------------------------4---|-4---6-------------------------------------------|
A|-2---4-4--4--4--4--4--4--4--4--4--4--4--4--2---|-2---4-4--4--4--4--4--4--4--6--7--4--6--2--4--2--|
E|-----------------------------------------------|-------------------------------------------------|


E|---------------------------------------------|-------------------------------------|
B|---------------------------------------------|-------------------------------------|
G|-------------------------6---------6---------|-6-----------4---6---------6---------|
D|-------------------------6---------6---------|-6-------6-------6---------6---------|
A|-4--6--7--4--6--2--4--2--4---4--4--4---4--4--|-4---4-----------4---4--4--4---4--4--|
E|---------------------------------------------|-------------------------------------|


E|-------------------------------------|-------------------------------------|-------------------------------------|
B|-------------------------------------|-------------------------------------|-------------------------------------|
G|-6-----------6---------6---------6---|-------------6---------6---------6---|---------6---------6---------6-------|
D|-6-------6---6---------6---------6---|---------6---6---------6---------6---|---------6---------6---------6-------|
A|-4---4-------0---0--0--0---0--0--0---|-0---4-------0---0--0--0---0--0--0---|-0---4---4---4--4--4---4--4--4---4---|
E|-------------------------------------|-------------------------------------|-------------------------------------|


E|-------------------------------------|-------------------------------------|-------------------------------------|
B|-------------------------------------|-------------------------------------|-------------------------------------|
G|-----4---6---------6---------6-------|-----6---------6---------6-----------|-----6---------6---------6-----------|
D|-6-------6---------6---------6-------|-6---6---------6---------6-----------|-6---6---------6---------6-----------|
A|---------4---4--4--4---4--4--4---4---|-----0---0--0--0---0--0--0---0---4---|-----0---0--0--0---0--0--0---0---4---|
E|-------------------------------------|-------------------------------------|-------------------------------------|


E|-------------------------------------|-------------------------------------|-------------------------------------|
B|-------------------------------------|-------------------------------------|-------------------------------------|
G|-8---------8---------8-----------8---|-8---------8---------8-----------8---|-------8---------8---------------8---|
D|-6---------6---------6-------6-------|-6---------6---------6-------6---6---|-------6---------6-----------6---6---|
A|-4---4--4--4---4--4--4---4-----------|-4---4--4--4---4--4--4---4-------0---|-0--0--0---0--0--0---0---4-------0---|
E|-------------------------------------|-------------------------------------|-------------------------------------|


E|---------------------------------------|-------------------------------------|-------------------------------------|
B|---------------------------------------|-------------------------------------|-------------------------------------|
G|-------8---------8-----------8---------|-8---------8-----------8---8---------|-8---------8-----------8---------8---|
D|-------6---------6-----------6---------|-6---------6-------6-------6---------|-6---------6-------6---6---------6---|
A|-0--0--0---0--0--0---0---4---4---4--4--|-4---4--4--4---4-----------4---4--4--|-4---4--4--4---4-------0---0--0--0---|
E|---------------------------------------|-------------------------------------|-------------------------------------|


E|-------------------------------------|-----------------------------------|---------------------------------|
B|-------------------------------------|-----------------------------------|---------------------------------|
G|-------8---------------8---------8---|-------8-----------------------8---|---------4-----------------------|
D|-------6-----------6---6---------6---|-------6-----------6-------6-------|-----2-----------4-----------6---|
A|-0--0--0---0---4-------0---0--0--0---|-0--0--0---0---4-------4-----------|-0-----------2-----------4-------|
E|-------------------------------------|-----------------------------------|---------------------2-----------|


E|-------------------------------------------|-----------------------------------------------|
B|-------------------------------------------|-----------------------------------------------|
G|---------4---------------------------------|-----------------------------------------------|
D|-----2-------4---6-------------------------|-------------4---4---6-------------------------|
A|-0-----------2---4-4--4--4--4--4--4--4--4--|-4--4--4--4--2---2---4-4--4--4--4--4--4--4--4--|
E|-------------------------------------------|-----------------------------------------------|


E|-----------------------------------|---------------------------------|-----------------------------------------------|
B|-----------------------------------|---------------------------------|-----------------------------------------------|
G|-----------------------8-----------|-4-------------------------------|-4---------------------------------------------|
D|-------------------6-----------2---|---------4-----------6-------2---|-----4---6-------------------------------------|
A|-4--4--4-------4-----------0-------|-----2-----------4-------0-------|-----2---4-4--4--4--4--4--4--4--4--4--4--4--4--|
E|-----------------------------------|-------------2-------------------|-----------------------------------------------|


E|---------------------------------------------|---------------------------------|
B|---------------------------------------------|---------------------------------|
G|---------------------------------------------|-------------8-----------4-------|
D|-4---4---6-----------------------------------|---------6-----------2-----------|
A|-2---2---4-4--4--4--4--4--4--4--4--4--4--4---|-----4-----------0-----------2---|
E|---------------------------------------------|---------------------------------|


E|-----------------------------------|-----------------------------------------------|
B|-----------------------------------|-----------------------------------------------|
G|-------------------------4---------|-----------------------------------------------|
D|-4-----------6-------2-------4---6-|-------------------------------------4---4---6-|
A|---------4-------0-----------2---4-|-4--4--4--4--4--4--4--4--4--4--4--4--2---2---4-|
E|-----2-----------------------------|-----------------------------------------------|


E|---------------------------------------------|-----------------------------------------------|
B|---------------------------------------------|-----------------------------------------------|
G|---------------------------------------------|-----------------------------------------------|
D|---------------------------------------4---6-|-------------------------------------4---4---6-|
A|-4--4--4--4--4--4--4--4--4--4--4-------2---4-|-4--4--4--4--4--4--4--4--4--4--4--4--2---2---4-|
E|---------------------------------------------|-----------------------------------------------|


E|-------------------------------------------------|-----------------------------------------------|
B|-------------------------------------------------|-----------------------------------------------|
G|-------------------------------------------------|-----------------------------------------------|
D|-------------------------------------------4---6-|-------------------------------------4---4---6-|
A|-4--4--4--4--4--4--4--6--7--4--6--2--4--2--2---4-|-4--4--4--4--4--4--4--4--4--4--4--4--2---2---4-|
E|-------------------------------------------------|-----------------------------------------------|


E|---------------------------------------------|-----------------------------------------------|
B|---------------------------------------------|-----------------------------------------------|
G|---------------------------------------------|-----------------------------------------------|
D|---------------------------------------4---6-|-------------------------------------4---4---6-|
A|-4--4--4--4--4--4--4--4--4--4--4-------2---4-|-4--4--4--4--4--4--4--4--4--4--4--4--2---2---4-|
E|---------------------------------------------|-----------------------------------------------|


E|-----------------------------------------------|-------------------------------------|
B|-----------------------------------------------|-------------------------------------|
G|-------------------------------------------6---|-------6---------6-----------4---6---|
D|-------------------------------------------6---|-------6---------6-------6-------6---|
A|-4--4--4--4--4--4--4--6--7--4--6--2--4--2--4---|-4--4--4---4--4--4---4-----------4---|
E|-----------------------------------------------|-------------------------------------|


E|---------------------------------------|-------------------------------------|-------------------------------------|
B|---------------------------------------|-------------------------------------|-------------------------------------|
G|-------6---------6-----------6---------|-6---------6---------------6---------|-6---------6-----------6---------6---|
D|-------6---------6-------6---6---------|-6---------6-----------6---6---------|-6---------6-----------6---------6---|
A|-4--4--4---4--4--4---4-------0---0--0--|-0---0--0--0---0---4-------0---0--0--|-0---0--0--0---0---4---4---4--4--4---|
E|---------------------------------------|-------------------------------------|-------------------------------------|


E|-------------------------------------|---------------------------------------|-------------------------------------|
B|-------------------------------------|---------------------------------------|-------------------------------------|
G|-------6-----------4---6---------6---|-------6-----------6---------6---------|-6---------------6---------6---------|
D|-------6-------6-------6---------6---|-------6-------6---6---------6---------|-6-----------6---6---------6---------|
A|-4--4--4---4-----------4---4--4--4---|-4--4--4---4-------0---0--0--0---0--0--|-0---0---4-------0---0--0--0---0--0--|
E|-------------------------------------|---------------------------------------|-------------------------------------|


E|-------------------------------------|-------------------------------------|-------------------------------------|
B|-------------------------------------|-------------------------------------|-------------------------------------|
G|-6-----------8---------8---------8---|---------8---8---------8---------8---|---------8---------8---------8-------|
D|-6-----------6---------6---------6---|-----6-------6---------6---------6---|-----6---6---------6---------6-------|
A|-0---0---4---4---4--4--4---4--4--4---|-4-----------4---4--4--4---4--4--4---|-4-------0---0--0--0---0--0--0---0---|
E|-------------------------------------|-------------------------------------|-------------------------------------|


E|-------------------------------------|-------------------------------------|-------------------------------------|
B|-------------------------------------|-------------------------------------|-------------------------------------|
G|---------8---------8---------8-------|-----8---------8---------8-----------|-8---8---------8---------8-----------|
D|-----6---6---------6---------6-------|-----6---------6---------6-------6---|-----6---------6---------6-------6---|
A|-4-------0---0--0--0---0--0--0---0---|-4---4---4--4--4---4--4--4---4-------|-----4---4--4--4---4--4--4---4-------|
E|-------------------------------------|-------------------------------------|-------------------------------------|


E|-------------------------------------|-------------------------------------|---------------------------------|
B|-------------------------------------|-------------------------------------|---------------------------------|
G|-8---------8---------8---------------|-8---------8---------8---------------|---------8-----------4-----------|
D|-6---------6---------6-----------6---|-6---------6---------6-----------6---|-----6-----------2-----------4---|
A|-0---0--0--0---0--0--0---0---4-------|-0---0--0--0---0--0--0---0---4-------|-4-----------0-----------2-------|
E|-------------------------------------|-------------------------------------|---------------------------------|


E|-------------------------------------|-----------------------------------------------|
B|-------------------------------------|-----------------------------------------------|
G|---------------------4---------------|-----------------------------------------------|
D|---------6-------2-------4---6-------|-------------------------------4---4---6-------|
A|-----4-------0-----------2---4-4--4--|-4--4--4--4--4--4--4--4--4--4--2---2---4-4--4--|
E|-2-----------------------------------|-----------------------------------------------|


E|-----------------------------------------|---------------------------------|-----------------------------------------|
B|-----------------------------------------|---------------------------------|-----------------------------------------|
G|-----------------------------------------|-8-----------4-------------------|-------------4---------------------------|
D|-------------------------------------6---|---------2-----------4-----------|-6-------2-------4---6-------------------|
A|-4--4--4--4--4--4--4--4--4-------4-------|-----0-----------2-----------4---|-----0-----------2---4-4--4--4--4--4--4--|
E|-----------------------------------------|-------------------------2-------|-----------------------------------------|


E|-----------------------------------------------|---------------------------|-------------|
B|-----------------------------------------------|---------------------------|-------------|
G|-----------------------------------------------|---------------------------|-------------|
D|-------------------4---4---6-------------------|---------------------6-----|-4----6------|
A|-4--4--4--4--4--4--2---2---4-4--4--4--4--4--4--|-4--4--4--4--4-------4-----|-2----4------|
E|-----------------------------------------------|---------------------------|-------------|


E|-----------------|-------------|-----------------|-----------------|-----------------|
B|-----------------|-------------|-----------------|-----------------|-----------------|
G|-----------------|-------------|-----------------|-----------------|-----------------|
D|-4----6-----4----|-6------4----|-6-----4----6----|-------4----6----|------4----6-----|
A|-2----4-----2----|-4------2----|-4-----2----4----|-------2----4----|------2----4-----|
E|-----------------|-------------|-----------------|-----------------|-----------------|


E|-----------------|-------------|-------------|-------------|-------------|-----------------|
B|-----------------|-------------|-------------|-------------|-------------|-----------------|
G|-----------------|-------------|-------------|-------------|-------------|-----------------|
D|------4----6-----|-------9-----|-------9-----|-------11----|-------------|-----------------|
A|------2----4-----|-------6-----|-------7-----|-------9-----|-------2-----|-4-----6---------|
E|-----------------|-------------|-------------|-------------|-------0-----|-2-----4---------|


E|------------------------------------|-------------------------------------|-------------------------------------|
B|------------------------------------|-------------------------------------|-------------------------------------|
G|------------------------------------|-------------------------------------|-------------------------------------|
D|------------------------------------|-------------------------------------|-------------------------------------|
A|------4--4--4-------2--2--2---4--4--|-4-----------4--4--4---2---4--4--4---|-----2--2--2---4--4--4-----------2---|
E|------------------------------------|-------------------------------------|-------------------------------------|


E|-------------------------------------|---------------------------------------|-------------------------------------|
B|-------------------------------------|---------------------------------------|-------------------------------------|
G|-------------------------------------|---------------------------------------|-------------------------------------|
D|-4-------4---------------------------|---------------------------------------|-------------------------------------|
A|-----2-------4--4--4-------2--2--2---|-4--4--4-----------4--4--4---2---4--4--|-4-------2--2--2---4--4--4-----------|
E|-------------------------------------|---------------------------------------|-------------------------------------|


E|-------------------------------------|-------------------------------------|---------------------------------------|
B|-------------------------------------|-------------------------------------|---------------------------------------|
G|-------------------------------------|-------------------------------------|---------------------------------------|
D|-----4-------4-----------------------|-------------------------------------|---------------------------------------|
A|-2-------2-------4--4--4-------2--2--|-2---4--4--4-----------4--4--4---2---|-4--4--4-------2--2--2---4--4--4-------|
E|-------------------------------------|-------------------------------------|---------------------------------------|


E|-----------------------------------|---------------------------------------|---------------------------------------|
B|-----------------------------------|---------------------------------------|---------------------------------------|
G|-----------------------------------|---------------------------------------|---------------------------------------|
D|---------4-------4-----------------|---------------------------------------|---------------------------------------|
A|-----2-------2-------4--4--4-------|-2--2--2---4--4--4-----------4--4--4---|-2---4--4--4-------2--2--2---4--4--4---|
E|-----------------------------------|---------------------------------------|---------------------------------------|


E|-----------------------------------|-------------------------------------|-------------------------------------|
B|-----------------------------------|-------------------------------------|-------------------------------------|
G|-------------------------6---------|-6---------6-----------4---6---------|-6---------6-----------6---------6---|
D|-------------4-------4---6---------|-6---------6-------6-------6---------|-6---------6-------6---6---------6---|
A|---------2-------2-------4---4--4--|-4---4--4--4---4-----------4---4--4--|-4---4--4--4---4-------0---0--0--0---|
E|-----------------------------------|-------------------------------------|-------------------------------------|


E|-------------------------------------|---------------------------------------|-------------------------------------|
B|-------------------------------------|---------------------------------------|-------------------------------------|
G|-------6---------------6---------6---|-------6-----------6---------6---------|-6-----------4---6---------6---------|
D|-------6-----------6---6---------6---|-------6-----------6---------6---------|-6-------6-------6---------6---------|
A|-0--0--0---0---4-------0---0--0--0---|-0--0--0---0---4---4---4--4--4---4--4--|-4---4-----------4---4--4--4---4--4--|
E|-------------------------------------|---------------------------------------|-------------------------------------|


E|-------------------------------------|-------------------------------------|-------------------------------------|
B|-------------------------------------|-------------------------------------|-------------------------------------|
G|-6-----------6---------6---------6---|-------------6---------6---------6---|---------8---------8---------8-------|
D|-6-------6---6---------6---------6---|---------6---6---------6---------6---|---------6---------6---------6-------|
A|-4---4-------0---0--0--0---0--0--0---|-0---4-------0---0--0--0---0--0--0---|-0---4---4---4--4--4---4--4--4---4---|
E|-------------------------------------|-------------------------------------|-------------------------------------|


E|-------------------------------------|-------------------------------------|-------------------------------------|
B|-------------------------------------|-------------------------------------|-------------------------------------|
G|-----8---8---------8---------8-------|-----8---------8---------8-----------|-----8---------8---------8-----------|
D|-6-------6---------6---------6-------|-6---6---------6---------6-----------|-6---6---------6---------6-----------|
A|---------4---4--4--4---4--4--4---4---|-----0---0--0--0---0--0--0---0---4---|-----0---0--0--0---0--0--0---0---4---|
E|-------------------------------------|-------------------------------------|-------------------------------------|


E|-------------------------------------|-------------------------------------|-------------------------------------|
B|-------------------------------------|-------------------------------------|-------------------------------------|
G|-8---------8---------8-----------8---|-8---------8---------8-----------8---|-------8---------8---------------8---|
D|-6---------6---------6-------6-------|-6---------6---------6-------6---6---|-------6---------6-----------6---6---|
A|-4---4--4--4---4--4--4---4-----------|-4---4--4--4---4--4--4---4-------0---|-0--0--0---0--0--0---0---4-------0---|
E|-------------------------------------|-------------------------------------|-------------------------------------|


E|-------------------------------------|---------------------------------|---------------------------------------|
B|-------------------------------------|---------------------------------|---------------------------------------|
G|-------8---------8-------------------|-----8-----------4---------------|-----------------4---------------------|
D|-------6---------6-----------6-------|-6-----------2-----------4-------|-----6-------2-------4---6-------------|
A|-0--0--0---0--0--0---0---4-------4---|---------0-----------2-----------|-4-------0-----------2---4-4--4--4--4--|
E|-------------------------------------|-----------------------------2---|---------------------------------------|


E|-----------------------------------------------|---------------------------------------|
B|-----------------------------------------------|---------------------------------------|
G|-----------------------------------------------|-----------------------------------8---|
D|-------------------------4---4---6-------------|-------------------------------6-------|
A|-4--4--4--4--4--4--4--4--2---2---4-4--4--4--4--|-4--4--4--4--4--4--4-------4-----------|
E|-----------------------------------------------|---------------------------------------|


E|---------------------------------|-------------------------------------------|-----------------------------------------------|
B|---------------------------------|-------------------------------------------|-----------------------------------------------|
G|---------4-----------------------|---------4---------------------------------|-----------------------------------------------|
D|-----2-----------4-----------6---|-----2-------4---6-------------------------|-------------4---4---6-------------------------|
A|-0-----------2-----------4-------|-0-----------2---4-4--4--4--4--4--4--4--4--|-4--4--4--4--2---2---4-4--4--4--4--4--4--4--4--|
E|---------------------2-----------|-------------------------------------------|-----------------------------------------------|


E|-----------------------------------|---------------------------------|-----------------------------------------------|
B|-----------------------------------|---------------------------------|-----------------------------------------------|
G|-----------------------8-----------|-4-------------------------------|-4---------------------------------------------|
D|-------------------6-----------2---|---------4-----------6-------2---|-----4---6-------------------------------------|
A|-4--4--4-------4-----------0-------|-----2-----------4-------0-------|-----2---4-4--4--4--4--4--4--4--4--4--4--4--4--|
E|-----------------------------------|-------------2-------------------|-----------------------------------------------|


E|---------------------------------------------|-----------------------------------------------|
B|---------------------------------------------|-----------------------------------------------|
G|---------------------------------------------|-----------------------------------------------|
D|-4---4---6-----------------------------------|-----4---6-------------------------------------|
A|-2---2---4-4--4--4--4--4--4--4--4--4--4--4---|-----2---4-4--4--4--4--4--4--4--4--4--4--4--4--|
E|---------------------------------------------|-----------------------------------------------|


E|-----------------------------------------------|-------------------------------------------------|
B|-----------------------------------------------|-------------------------------------------------|
G|-----------------------------------------------|-------------------------------------------------|
D|-4---4---6-------------------------------------|-------4---6-------------------------------------|
A|-2---2---4-4--4--4--4--4--4--4--6--7--4--6--2--|-4--2--2---4-4--4--4--4--4--4--4--4--4--4--4--4--|
E|-----------------------------------------------|-------------------------------------------------|


E|---------------------------------------------|-----------------------------------------------|
B|---------------------------------------------|-----------------------------------------------|
G|---------------------------------------------|-----------------------------------------------|
D|-4---4---6-----------------------------------|-----4---6-------------------------------------|
A|-2---2---4-4--4--4--4--4--4--4--4--4--4--4---|-----2---4-4--4--4--4--4--4--4--4--4--4--4--4--|
E|---------------------------------------------|-----------------------------------------------|


E|-----------------------------------------------|----------------------------------------|
B|-----------------------------------------------|----------------------------------------|
G|-----------------------------------------------|----------------------------------------|
D|-4---4---6-------------------------------------|-------------------------------6--------|
A|-2---2---4-4--4--4--4--4--4--4--6--7--4--6--2--|-4--2--4--6--7--4--6--2--4--2--4--------|
E|-----------------------------------------------|----------------------------------------|





Track 2: synth

E|-19--19--19--19--------|------------|-19--19--19--19--------|-------23----21----19-16-------|
B|-----------------21----|-21---------|-----------------21----|-21----------------------19----|
G|-16--16--16--16--------|------------|-16--16--16--16--------|-------20----18----16-13-------|
D|-----------------18----|-18---------|-----------------18----|-18-------18----18-------16----|
A|-----------------------|------------|-----------------------|----------------------------16-|
E|-----------------------|------------|-----------------------|-------------------------------|


E|-19--19--19--19--------|------------|-19--19--19--19--------|-------23----21----19-16-------|
B|-----------------21----|-21---------|-----------------21----|-21----------------------19----|
G|-16--16--16--16--------|------------|-16--16--16--16--------|-------20----18----16-13-------|
D|-----------------18----|-18---------|-----------------18----|-18-------18----18-------16----|
A|-----------------------|------------|-----------------------|----------------------------16-|
E|-----------------------|------------|-----------------------|-------------------------------|


E|-23----21----19-16-------------|--------|--------|--------|--------|--------|--------|
B|-------------------19----------|--------|--------|--------|--------|--------|--------|
G|-20----18----16-13-------------|--------|--------|--------|--------|--------|--------|
D|----18----18-------16----------|--------|--------|--------|--------|--------|--------|
A|----------------------16-------|--------|--------|--------|--------|--------|--------|
E|-------------------------------|--------|--------|--------|--------|--------|--------|


E|--------|--------|--------|--------|--------|--------|--------|--------|--------|
B|--------|--------|--------|--------|--------|--------|--------|--------|--------|
G|--------|--------|--------|--------|--------|--------|--------|--------|--------|
D|--------|--------|--------|--------|--------|--------|--------|--------|--------|
A|--------|--------|--------|--------|--------|--------|--------|--------|--------|
E|--------|--------|--------|--------|--------|--------|--------|--------|--------|


E|--------|--------|--------|--------|--------|--------|--------|--------|------------19--|
B|--------|--------|--------|--------|--------|--------|--------|--------|----------------|
G|--------|--------|--------|--------|--------|--------|--------|--------|------------16--|
D|--------|--------|--------|--------|--------|--------|--------|--------|----------------|
A|--------|--------|--------|--------|--------|--------|--------|--------|----------------|
E|--------|--------|--------|--------|--------|--------|--------|--------|----------------|


E|-19--19--19------------|------------19--|-19--19--19------------|-------23----21----19-16-------19--|
B|-------------21----21--|----------------|-------------21----21--|-------------------------19--------|
G|-16--16--16------------|------------16--|-16--16--16------------|-------20----18----16-13-------16--|
D|-------------18----18--|----------------|-------------18----18--|----------18----18-------16--------|
A|-----------------------|----------------|-----------------------|----------------------------16-----|
E|-----------------------|----------------|-----------------------|-----------------------------------|


E|-19--19--19------------|------------19--|-19--19--19------------|-------23----21----19-16-----------|
B|-------------21----21--|----------------|-------------21----21--|-------------------------19--------|
G|-16--16--16------------|------------16--|-16--16--16------------|-------20----18----16-13-----------|
D|-------------18----18--|----------------|-------------18----18--|----------18----18-------16--------|
A|-----------------------|----------------|-----------------------|----------------------------16-----|
E|-----------------------|----------------|-----------------------|-----------------------------------|


E|--------|--------|--------|--------|--------|--------|--------|--------|--------|
B|--------|--------|--------|--------|--------|--------|--------|--------|--------|
G|--------|--------|--------|--------|--------|--------|--------|--------|--------|
D|--------|--------|--------|--------|--------|--------|--------|--------|--------|
A|--------|--------|--------|--------|--------|--------|--------|--------|--------|
E|--------|--------|--------|--------|--------|--------|--------|--------|--------|


E|--------|--------|--------|--------|--------|--------|--------|--------|--------|
B|--------|--------|--------|--------|--------|--------|--------|--------|--------|
G|--------|--------|--------|--------|--------|--------|--------|--------|--------|
D|--------|--------|--------|--------|--------|--------|--------|--------|--------|
A|--------|--------|--------|--------|--------|--------|--------|--------|--------|
E|--------|--------|--------|--------|--------|--------|--------|--------|--------|


E|--------|--------|--------|--------|-------16-12----------------------------12-|
B|--------|--------|--------|--------|-------------14----------------------14----|
G|--------|--------|--------|--------|----------------13----------------13-------|
D|--------|--------|--------|--------|-------------------14----------14----------|
A|--------|--------|--------|--------|----------------------16-11-16-------------|
E|--------|--------|--------|--------|-------------------------------------------|


E|-14-11-------------16-12----------------------------12-16-12-------------|------16-12----------------------------12-14-11-------------|
B|-------12----------------14----------------------14----------14----------|------------14----------------------14----------12----------|
G|----------11----11----------13----------------13----------------13-------|---------------13----------------13----------------11----11-|
D|-------------13----------------14----------14----------------------14----|------------------14----------14----------------------13----|
A|----------------------------------16-11-16----------------------------16-|-11------------------16-11-16-------------------------------|
E|-------------------------------------------------------------------------|------------------------------------------------------------|


E|-16-12----------------------------12-16-12------------------|-16-12----------------------------12-14-11-------------16-12-------------|
B|-------14----------------------14----------14---------------|-------14----------------------14----------12----------------14----------|
G|----------13----------------13----------------13------------|----------13----------------13----------------11----11----------13-------|
D|-------------14----------14----------------------14---------|-------------14----------14----------------------13----------------14----|
A|----------------16-11-16----------------------------16-11---|----------------16-11-16----------------------------------------------16-|
E|------------------------------------------------------------|-------------------------------------------------------------------------|


E|----------------12-16-12------------------16-12-------------|----------------12-14-11-------------16-12----------------------------12-|
B|-------------14----------14---------------------14----------|-------------14----------12----------------14----------------------14----|
G|----------13----------------13---------------------13-------|----------13----------------11----11----------13----------------13-------|
D|-------14----------------------14---------------------14----|-------14----------------------13----------------14----------14----------|
A|-11-16----------------------------16-11------------------16-|-11-16----------------------------------------------16-11-16-------------|
E|------------------------------------------------------------|-------------------------------------------------------------------------|


E|-16-12------------------------|--------|--------|--------|--------|--------|------------------------|
B|-------14---------------------|--------|--------|--------|--------|--------|------14----16--17--16--|
G|----------13------------------|--------|--------|--------|--------|--------|------------------------|
D|-------------14---------------|--------|--------|--------|--------|--------|------------------------|
A|----------------16-11---------|--------|--------|--------|--------|--------|------------------------|
E|------------------------------|--------|--------|--------|--------|--------|------------------------|


E|--------------------------------|-----------------------14-16-14-14---14-----14-16-17-|
B|--------------14--16--16--14----|-14-14--14----14-16-17-------------------17----------|
G|-13---13--13-----------------16-|-----------16----------------------------------------|
D|--------------------------------|-----------------------------------------------------|
A|--------------------------------|-----------------------------------------------------|
E|--------------------------------|-----------------------------------------------------|


E|-16-14----------------------------------------------------------------|-------12-14-16-21-16-12----------------------------------------------|
B|-------17-16-14----16-17-16-14-16-14----------------------------------|----14----------------------------------------------------------------|
G|----------------16-------------------16-14-13----13-14-13-------------|-13----------------------13-16-13-------------------------------9--12-|
D|----------------------------------------------16----------16-14----14-|----------------------------------16-14-13-------------------11-------|
A|----------------------------------------------------------------16----|-------------------------------------------16-14-11-------11----------|
E|----------------------------------------------------------------------|----------------------------------------------------9--12-------------|


E|-------------12-14-16-19-21-23--23--21-23-21-23-21--|-------21--------|--------|
B|----12-14-16----------------------------------------|-----------------|--------|
G|-13-------------------------------------------------|-----------------|--------|
D|----------------------------------------------------|-----------------|--------|
A|----------------------------------------------------|-----------------|--------|
E|----------------------------------------------------|-----------------|--------|


E|--------|--------|--------|--------|--------|--------|--------|--------|--------|
B|--------|--------|--------|--------|--------|--------|--------|--------|--------|
G|--------|--------|--------|--------|--------|--------|--------|--------|--------|
D|--------|--------|--------|--------|--------|--------|--------|--------|--------|
A|--------|--------|--------|--------|--------|--------|--------|--------|--------|
E|--------|--------|--------|--------|--------|--------|--------|--------|--------|


E|--------|--------|--------|--------|--------|--------|--------|--------|--------|
B|--------|--------|--------|--------|--------|--------|--------|--------|--------|
G|--------|--------|--------|--------|--------|--------|--------|--------|--------|
D|--------|--------|--------|--------|--------|--------|--------|--------|--------|
A|--------|--------|--------|--------|--------|--------|--------|--------|--------|
E|--------|--------|--------|--------|--------|--------|--------|--------|--------|


E|--------|--------|--------|--------|--------|--------|--------|--------|--------|
B|--------|--------|--------|--------|--------|--------|--------|--------|--------|
G|--------|--------|--------|--------|--------|--------|--------|--------|--------|
D|--------|--------|--------|--------|--------|--------|--------|--------|--------|
A|--------|--------|--------|--------|--------|--------|--------|--------|--------|
E|--------|--------|--------|--------|--------|--------|--------|--------|--------|


E|--------|--------|-----19--19--19--19--------|------------|-----19--19--19--19--------|
B|--------|--------|---------------------21----|-----21-----|---------------------21----|
G|--------|--------|-----16--16--16--16--------|------------|-----16--16--16--16--------|
D|--------|--------|---------------------18----|-----18-----|---------------------18----|
A|--------|--------|---------------------------|------------|---------------------------|
E|--------|--------|---------------------------|------------|---------------------------|


E|-----------23----21----19-16-|-------19--19--19--19--------|------------|-----19--19--19--19--------|
B|-----21----------------------|-19--------------------21----|-----21-----|---------------------21----|
G|-----------20----18----16-13-|-------16--16--16--16--------|------------|-----16--16--16--16--------|
D|-----18-------18----18-------|-16--------------------18----|-----18-----|---------------------18----|
A|-----------------------------|----16-----------------------|------------|---------------------------|
E|-----------------------------|-----------------------------|------------|---------------------------|


E|-----------23----21----19-16-|-------23----21----19-16-------------|
B|-----21----------------------|-19----------------------19----------|
G|-----------20----18----16-13-|-------20----18----16-13-------------|
D|-----18-------18----18-------|-16-------18----18-------16----------|
A|-----------------------------|----16----------------------16-------|
E|-----------------------------|-------------------------------------|





Track 3: str

E|--------|--------|--------|--------|--------|--------|--------|--------|-------7-----|
B|--------|--------|--------|--------|--------|--------|--------|--------|-------9-----|
G|--------|--------|--------|--------|--------|--------|--------|--------|-------------|
D|--------|--------|--------|--------|--------|--------|--------|--------|-------11----|
A|--------|--------|--------|--------|--------|--------|--------|--------|-------------|
E|--------|--------|--------|--------|--------|--------|--------|--------|-------------|


E|-------7-----|-------7------|---------------------|-----7---7------|------7------|
B|-------9-----|-------9------|---------------------|---------9------|------9------|
G|-------------|--------------|-------6----8----9---|----------------|-------------|
D|-------11----|-------7------|---------------------|---------11-----|------11-----|
A|-------------|--------------|---------------------|----------------|-------------|
E|-------------|--------------|---------------------|----------------|-------------|


E|-----7------|--------------------7---|-7------|-7------7---|----------------|---------------7---7----|
B|-----9------|------------------------|-9------|-9------9---|----------------|-------------------9----|
G|------------|-----6----8----9--------|--------|------------|------------6---|-----8----9-------------|
D|-----7------|------------------------|-11-----|-11-----7---|----------------|-------------------11---|
A|------------|------------------------|--------|------------|----------------|------------------------|
E|------------|------------------------|--------|------------|----------------|------------------------|


E|--------7----|-----------7-----|--------------------|---------------------------11--|
B|--------9----|-----------9-----|--------------------|-----------------------9-------|
G|-------------|-----------------|-----------6----8---|-----9----9---8----6-----------|
D|--------11---|-----------7-----|--------------------|-------------------------------|
A|-------------|-----------------|--------------------|-------------------------------|
E|-------------|-----------------|--------------------|-------------------------------|


E|---------------------------------|-----------------------|-------------7---|---------------11----------|
B|---------12------------------9---|---------12------------|-----------------|-----------9---------------|
G|-----9-----------11--------------|-----9-------------8---|-------9---------|-------6---------------9---|
D|-7-----------9-----------11------|-7-----------11--------|-----------------|-------------------7-------|
A|---------------------9-----------|-----------------------|-----------------|---------------------------|
E|---------------------------------|-----------------------|-----------------|---------------------------|


E|---------------------------------|-----------------|-----------------|-------------11------------------|
B|-12------------------9-----------|-12--------------|-----------------|---------9---------------12------|
G|---------11------------------9---|-----------8-----|-----9-----------|-----6---------------9-----------|
D|-----9-----------11------7-------|-----11----------|-----------9-----|-----------------7-----------9---|
A|-------------9-------------------|-----------------|-----------------|---------------------------------|
E|---------------------------------|-----------------|-----------------|---------------------------------|


E|---------------------------------|--------|--------|--------|--------|--------|--------|
B|-------------9-----------12------|--------|--------|--------|--------|--------|--------|
G|-11------------------9-----------|--------|--------|--------|--------|--------|--------|
D|---------11------7---------------|--------|--------|--------|--------|--------|--------|
A|-----9---------------------------|--------|--------|--------|--------|--------|--------|
E|---------------------------------|--------|--------|--------|--------|--------|--------|


E|--------|------------7---|------------7---|--------7----|-------------|-----------7---7-----|
B|--------|------------9---|------------9---|--------9----|-------------|---------------9-----|
G|--------|----------------|----------------|-------------|--------6----|-8----9--------------|
D|--------|------------11--|------------11--|--------7----|-------------|---------------11----|
A|--------|----------------|----------------|-------------|-------------|---------------------|
E|--------|----------------|----------------|-------------|-------------|---------------------|


E|-----------7-----|-------7-----|-----------------|------7---7------|-------7------|
B|-----------9-----|-------9-----|-----------------|----------9------|-------9------|
G|-----------------|-------------|-------6----8----|-9---------------|--------------|
D|-----------11----|-------7-----|-----------------|----------11-----|-------11-----|
A|-----------------|-------------|-----------------|-----------------|--------------|
E|-----------------|-------------|-----------------|-----------------|--------------|


E|------7------|---------------------|-7---7------|-----7------|-7------|-------------------------|
B|------9------|---------------------|-----9------|-----9------|-9------|-------------------------|
G|-------------|------6----8----9----|------------|------------|--------|-6----8----9----9---8----|
D|------7------|---------------------|-----11-----|-----11-----|-7------|-------------------------|
A|-------------|---------------------|------------|------------|--------|-------------------------|
E|-------------|---------------------|------------|------------|--------|-------------------------|


E|---------11----------------------|------------------------------|-----------------|
B|-----9---------------12----------|---------9-----------12-------|-----------------|
G|-6---------------9-----------11--|-----------------9------------|------8-----9----|
D|-------------7-----------9-------|-----11------7-----------11---|-----------------|
A|---------------------------------|-9----------------------------|-----------------|
E|---------------------------------|------------------------------|-----------------|


E|------7-------------|-11------------------------------|-----------------------|-------------|
B|----------------9---|-------------12------------------|-9-----------12--------|-------------|
G|------------6-------|---------9-----------11----------|---------9-------------|-8-----9-----|
D|--------------------|-----7-----------9-----------11--|-----7-----------11----|-------------|
A|--------------------|-------------------------9-------|-----------------------|-------------|
E|--------------------|---------------------------------|-----------------------|-------------|


E|-------------|--------|--------|--------|--------|--------|--------|--------|--------|
B|-------------|--------|--------|--------|--------|--------|--------|--------|--------|
G|-------------|--------|--------|--------|--------|--------|--------|--------|--------|
D|-9-----------|--------|--------|--------|--------|--------|--------|--------|--------|
A|-------------|--------|--------|--------|--------|--------|--------|--------|--------|
E|-------------|--------|--------|--------|--------|--------|--------|--------|--------|


E|--------|--------|--------|--------|--------|--------|--------|--------|--------|
B|--------|--------|--------|--------|--------|--------|--------|--------|--------|
G|--------|--------|--------|--------|--------|--------|--------|--------|--------|
D|--------|--------|--------|--------|--------|--------|--------|--------|--------|
A|--------|--------|--------|--------|--------|--------|--------|--------|--------|
E|--------|--------|--------|--------|--------|--------|--------|--------|--------|


E|--------|--------|--------|--------|--------|--------|--------|--------7----|--------7----|
B|--------|--------|--------|--------|--------|--------|--------|--------9----|--------9----|
G|--------|--------|--------|--------|--------|--------|--------|-------------|-------------|
D|--------|--------|--------|--------|--------|--------|--------|--------11---|--------11---|
A|--------|--------|--------|--------|--------|--------|--------|-------------|-------------|
E|--------|--------|--------|--------|--------|--------|--------|-------------|-------------|


E|-----------7-----|--------------------|----------7---7-----|-------7-----|-------7------|
B|-----------9-----|--------------------|--------------9-----|-------9-----|-------9------|
G|-----------------|-----------6----8---|-----9--------------|-------------|--------------|
D|-----------7-----|--------------------|--------------11----|-------11----|-------7------|
A|-----------------|--------------------|--------------------|-------------|--------------|
E|-----------------|--------------------|--------------------|-------------|--------------|


E|---------------------|-----7---7------|------7------|-----7------|--------------------7---|
B|---------------------|---------9------|------9------|-----9------|------------------------|
G|-------6----8----9---|----------------|-------------|------------|-----6----8----9--------|
D|---------------------|---------11-----|------11-----|-----7------|------------------------|
A|---------------------|----------------|-------------|------------|------------------------|
E|---------------------|----------------|-------------|------------|------------------------|


E|-7------|-7------7---|----------------|----------------------------|-----11--------------------------|
B|-9------|-9------9---|----------------|----------------------------|-9---------------12--------------|
G|--------|------------|------------6---|-----8----9----9---8----6---|-------------9-----------11------|
D|-11-----|-11-----7---|----------------|----------------------------|---------7-----------9-----------|
A|--------|------------|----------------|----------------------------|-----------------------------9---|
E|--------|------------|----------------|----------------------------|---------------------------------|


E|---------------------------|-----------------|-----7-------------11--|---------------------------------|
B|-----9-----------12--------|-----------------|---------------9-------|---------12------------------9---|
G|-------------9-------------|-----8-----9-----|-----------6-----------|-----9-----------11--------------|
D|-11------7-----------11----|-----------------|-----------------------|-7-----------9-----------11------|
A|---------------------------|-----------------|-----------------------|---------------------9-----------|
E|---------------------------|-----------------|-----------------------|---------------------------------|


E|-----------------------|-----------------|---------------11----------|---------------------------------|
B|---------12------------|-----------------|-----------9---------------|-12------------------9-----------|
G|-----9-------------8---|-------9---------|-------6---------------9---|---------11------------------9---|
D|-7-----------11--------|-------------9---|-------------------7-------|-----9-----------11------7-------|
A|-----------------------|-----------------|---------------------------|-------------9-------------------|
E|-----------------------|-----------------|---------------------------|---------------------------------|


E|----------------|--------|--------|--------|--------|--------|--------|--------|
B|-12-------------|--------|--------|--------|--------|--------|--------|--------|
G|----------------|--------|--------|--------|--------|--------|--------|--------|
D|----------------|--------|--------|--------|--------|--------|--------|--------|
A|----------------|--------|--------|--------|--------|--------|--------|--------|
E|----------------|--------|--------|--------|--------|--------|--------|--------|


E|--------------------|
B|-----------17-------|
G|-----------18-------|
D|-----------18-------|
A|--------------------|
E|--------------------|





Track 4: solo gtr

E|--------|--------|--------|--------|--------|--------|--------|--------|--------|
B|--------|--------|--------|--------|--------|--------|--------|--------|--------|
G|--------|--------|--------|--------|--------|--------|--------|--------|--------|
D|--------|--------|--------|--------|--------|--------|--------|--------|--------|
A|--------|--------|--------|--------|--------|--------|--------|--------|--------|
E|--------|--------|--------|--------|--------|--------|--------|--------|--------|


E|--------|--------|--------|--------|--------|--------|--------|--------|--------|
B|--------|--------|--------|--------|--------|--------|--------|--------|--------|
G|--------|--------|--------|--------|--------|--------|--------|--------|--------|
D|--------|--------|--------|--------|--------|--------|--------|--------|--------|
A|--------|--------|--------|--------|--------|--------|--------|--------|--------|
E|--------|--------|--------|--------|--------|--------|--------|--------|--------|


E|--------|--------|--------|--------|--------|--------|--------|--------|--------|
B|--------|--------|--------|--------|--------|--------|--------|--------|--------|
G|--------|--------|--------|--------|--------|--------|--------|--------|--------|
D|--------|--------|--------|--------|--------|--------|--------|--------|--------|
A|--------|--------|--------|--------|--------|--------|--------|--------|--------|
E|--------|--------|--------|--------|--------|--------|--------|--------|--------|


E|--------|--------|--------|--------|--------|--------|--------|--------|--------|
B|--------|--------|--------|--------|--------|--------|--------|--------|--------|
G|--------|--------|--------|--------|--------|--------|--------|--------|--------|
D|--------|--------|--------|--------|--------|--------|--------|--------|--------|
A|--------|--------|--------|--------|--------|--------|--------|--------|--------|
E|--------|--------|--------|--------|--------|--------|--------|--------|--------|


E|--------|--------|--------|--------|--------|--------|--------|--------|--------|
B|--------|--------|--------|--------|--------|--------|--------|--------|--------|
G|--------|--------|--------|--------|--------|--------|--------|--------|--------|
D|--------|--------|--------|--------|--------|--------|--------|--------|--------|
A|--------|--------|--------|--------|--------|--------|--------|--------|--------|
E|--------|--------|--------|--------|--------|--------|--------|--------|--------|


E|--------|--------|--------|--------|--------|--------|--------|--------|--------|
B|--------|--------|--------|--------|--------|--------|--------|--------|--------|
G|--------|--------|--------|--------|--------|--------|--------|--------|--------|
D|--------|--------|--------|--------|--------|--------|--------|--------|--------|
A|--------|--------|--------|--------|--------|--------|--------|--------|--------|
E|--------|--------|--------|--------|--------|--------|--------|--------|--------|


E|--------|--------|--------|--------|--------|--------|--------|--------|--------|
B|--------|--------|--------|--------|--------|--------|--------|--------|--------|
G|--------|--------|--------|--------|--------|--------|--------|--------|--------|
D|--------|--------|--------|--------|--------|--------|--------|--------|--------|
A|--------|--------|--------|--------|--------|--------|--------|--------|--------|
E|--------|--------|--------|--------|--------|--------|--------|--------|--------|


E|--------|--------|--------|--------|--------|--------|--------|-------------------------------------------|
B|--------|--------|--------|--------|--------|--------|--------|-------------------------------------------|
G|--------|--------|--------|--------|--------|--------|--------|-------------------------------------------|
D|--------|--------|--------|--------|--------|--------|--------|-------------------------------------------|
A|--------|--------|--------|--------|--------|--------|--------|----------------9--11-9-----------------9--|
E|--------|--------|--------|--------|--------|--------|--------|-------9--11-12----------12-11-9--11-12----|


E|----------------------------------------------------------------------|-------------------------------9--11-12-9-----------------------------|
B|-------------------------------------------------------------------9--|-10-12-10-9-----------9--10-12-------------12-10----------------------|
G|----------------------------------8--9--11-9--8--------------8--------|-------------11-9--11----------------------------11-9-----------------|
D|-------9--11-9-----------9--11-13----------------11-8--9--11----11----|-------------------------------------------------------11-7-----------|
A|-11-12----------12-11-12----------------------------------------------|-------------------------------------------------------------9--7--11-|
E|----------------------------------------------------------------------|----------------------------------------------------------------------|


E|----------------------------------------------------------------|-----------------12-7-----------------------7--12-12-|
B|----------------------------------------------------------------|-------------7---------9-----------------9-----------|
G|----------------------------------------------------------6--8--|-8--8---8-----------------9-----------9--------------|
D|-7--9--11-9--7--------------------------------------6--7--------|-----------------------------9-----9-----------------|
A|----------------11-9--7--6-----------------6--7--9--------------|--------------------------------11-------------------|
E|----------------------------9--7--5--7--9-----------------------|-----------------------------------------------------|


E|-14-9-----------------------9--14-1416----|--------|--------|--------|--------|--------|
B|-------10----------------10---------------|--------|--------|--------|--------|--------|
G|----------11----------11------------------|--------|--------|--------|--------|--------|
D|-------------11----11---------------------|--------|--------|--------|--------|--------|
A|----------------9-------------------------|--------|--------|--------|--------|--------|
E|------------------------------------------|--------|--------|--------|--------|--------|


E|--------|-------21-19-------------21-19-|-------------21-19-------------21-19----------------|
B|--------|-------------19-21-17----------|-19-21-17----------19-21-17----------19-21-17-21-19-|
G|--------|----------------------18-------|----------18----------------18----------------------|
D|--------|-------------------------------|----------------------------------------------------|
A|--------|-------------------------------|----------------------------------------------------|
E|--------|-------------------------------|----------------------------------------------------|


E|-17-21-17-------------17-21-17----------------------------|------------------------------------------------------------|
B|----------19-21-17-19----------19-21-17-14----------------|-12-14-12------------------------------------------------14-|
G|-------------------------------------------16-12-13----13-|----------11-12-11------------------------------13----13----|
D|----------------------------------------------------14----|-------------------14-11------------------11-14----14-------|
A|----------------------------------------------------------|---------------------------------------11-------------------|
E|----------------------------------------------------------|-------------------------14---9--11-12----------------------|


E|----16-19-23-16---------------------------|--------------------------------|-------14-19-19-19-14-------------------------|
B|-17-------------17---------------19--19---|-19--19--17--16-----------------|----16----------------16----------------------|
G|-------------------18---------------------|-----------------16-------------|-16----------------------16-------------------|
D|----------------------18------------------|---------------------16---16-16-|----------------------------16----------------|
A|-------------------------19-16------------|--------------------------------|-------------------------------18-14----------|
E|------------------------------------------|--------------------------------|----------------------------------------------|


E|--------|--------|--------|--------|--------|--------|--------|--------|--------|
B|--------|--------|--------|--------|--------|--------|--------|--------|--------|
G|--------|--------|--------|--------|--------|--------|--------|--------|--------|
D|--------|--------|--------|--------|--------|--------|--------|--------|--------|
A|--------|--------|--------|--------|--------|--------|--------|--------|--------|
E|--------|--------|--------|--------|--------|--------|--------|--------|--------|


E|--------|--------|--------|--------|--------|--------|--------|--------|--------|
B|--------|--------|--------|--------|--------|--------|--------|--------|--------|
G|--------|--------|--------|--------|--------|--------|--------|--------|--------|
D|--------|--------|--------|--------|--------|--------|--------|--------|--------|
A|--------|--------|--------|--------|--------|--------|--------|--------|--------|
E|--------|--------|--------|--------|--------|--------|--------|--------|--------|


E|--------|--------|--------|--------|--------|--------|--------|--------|--------|
B|--------|--------|--------|--------|--------|--------|--------|--------|--------|
G|--------|--------|--------|--------|--------|--------|--------|--------|--------|
D|--------|--------|--------|--------|--------|--------|--------|--------|--------|
A|--------|--------|--------|--------|--------|--------|--------|--------|--------|
E|--------|--------|--------|--------|--------|--------|--------|--------|--------|


E|--------|--------|--------|--------|--------|--------|
B|--------|--------|--------|--------|--------|--------|
G|--------|--------|--------|--------|--------|--------|
D|--------|--------|--------|--------|--------|--------|
A|--------|--------|--------|--------|--------|--------|
E|--------|--------|--------|--------|--------|--------|





Track 5: Untitled

G|-----------------------------------------------|---------------------------------------------|
D|-----------------------------------------------|---------------------------------------------|
A|-----------------------------------------------|---------------------------------------------|
E|-----------------------------------------------|---------------------------------------------|
B|-0--2--2--2--2--2--2--2--2--2--2--2--2--2--0---|-0--2--2--2--2--2--2--2--2--2--2--2--2-------|


G|-----------------------------------------------|-------------------------------------------------|
D|-----------------------------------------------|-------------------------------------------------|
A|-----------------------------------------------|-------------------------------------------------|
E|-----------------------------------------------|-------------------------------------------------|
B|-0--2--2--2--2--2--2--2--2--2--2--2--2--2--0---|-0--2--2--2--2--2--2--2--2--4--5--2--4--0--2--0--|


G|-----------------------------------------------|---------------------------------------------|
D|-----------------------------------------------|---------------------------------------------|
A|-----------------------------------------------|---------------------------------------------|
E|-----------------------------------------------|---------------------------------------------|
B|-0--2--2--2--2--2--2--2--2--2--2--2--2--2--0---|-0--2--2--2--2--2--2--2--2--2--2--2--2-------|


G|-----------------------------------------------|-------------------------------------------------|
D|-----------------------------------------------|-------------------------------------------------|
A|-----------------------------------------------|-------------------------------------------------|
E|-----------------------------------------------|-------------------------------------------------|
B|-0--2--2--2--2--2--2--2--2--2--2--2--2--2--0---|-0--2--2--2--2--2--2--2--2--4--5--2--4--0--2--0--|


G|---------------------------------------------|----------------------------------|
D|---------------------------------------------|----------------------------------|
A|-----------------------------4--4------4--4--|-----4------------4--4------4--4--|
E|---------------------------------------------|----------------------------------|
B|-2--4--5--2--4--0--2--0--2-------------------|---------2----2-------------------|


G|-------------------------------------|----------------------------------|-------------------------------------|
D|-------------------------------------|----------------------------------|-------------------------------------|
A|-----4-------------------------------|----------------------------------|-------------4--4------4--4------4---|
E|-----------------5--5------5--5------|-5------------5--5------5--5------|-5-----------------------------------|
B|---------2---2-----------------------|-----2----2-----------------------|-----2---2---------------------------|


G|----------------------------------|-------------------------------------|-------------------------------------|
D|----------------------------------|-------------------------------------|-------------------------------------|
A|----------4--4------4--4------4---|-------------------------------------|-------------------------------------|
E|----------------------------------|---------5--5------5--5------5-------|---------5--5------5--5------5-------|
B|-2----2---------------------------|-2---2---------------------------2---|-----2---------------------------2---|


G|----------------------------------|-------------------------------------|----------------------------------|
D|----------------------------------|-------------------------------------|----------------------------------|
A|-----4--4------4--4------4--------|-----4--4------4--4------4-----------|----------------------------------|
E|----------------------------------|-------------------------------------|-5--5------5--5------5------------|
B|-2---------------------------2----|-2---------------------------2---2---|-------------------------2----2---|


G|---------------------------------------|----------------------------------|-------------------------------------|
D|---------------------------------------|----------------------------------|-------------------------------------|
A|---------------------------------4--4--|-----4--4------4------------4--4--|-----4--4------4---------------------|
E|-5--5------5--5------5-----------------|----------------------------------|---------------------------5--5------|
B|-------------------------2---2---------|-------------------2----2---------|-------------------2---2-------------|


G|----------------------------------|--------------------------------------|-------------------------------|
D|----------------------------------|--------------------------------------|-------------------------------|
A|----------------------------------|--------------------4--4--4--4--4--4--|----------2--2--2--2-----------|
E|-5--5------5------------5--5------|-5--5------5--------------------------|-5--------------------2--------|
B|---------------2----2-------------|---------------2----------------------|-------------------------------|


G|-------------------------------------------|-----------------------------------------------|
D|-------------------------------------------|-----------------------------------------------|
A|-------------------------------------------|-----------------------------------------------|
E|-5---5-------------------------------------|-----------------------------------------------|
B|---------0---0--2--2--2--2--2--2--2--2--2--|-2--2--2--2--0---0--2--2--2--2--2--2--2--2--2--|


G|-----------------------------------------|----------------------------------|-----------------------------------------------|
D|-----------------------------------------|----------------------------------|-----------------------------------------------|
A|---------------4--4--4--4--4--4----------|-----2--2--2--2-------------------|-----------------------------------------------|
E|---------------------------------5-------|-----------------2--------5---5---|-----------------------------------------------|
B|-2--2--2---------------------------------|----------------------------------|-0---0--2--2--2--2--2--2--2--2--2--2--2--2--2--|


G|---------------------------------------------|--------------------------------------|
D|---------------------------------------------|--------------------------------------|
A|---------------------------------------------|-----4--4--4--4--4--4-----------2--2--|
E|---------------------------------------------|-----------------------5--------------|
B|-0---0--2--2--2--2--2--2--2--2--2--2--2--2---|--------------------------------------|


G|----------------------------------|-----------------------------------------------|
D|----------------------------------|-----------------------------------------------|
A|-2--2-----------------------------|-----------------------------------------------|
E|-------2--------5---5-------------|-----------------------------------------------|
B|------------------------0---0--2--|-2--2--2--2--2--2--2--2--2--2--2--2--0---0--2--|


G|---------------------------------------------|-----------------------------------------------|
D|---------------------------------------------|-----------------------------------------------|
A|---------------------------------------------|-----------------------------------------------|
E|---------------------------------------------|-----------------------------------------------|
B|-2--2--2--2--2--2--2--2--2--2--2-------0--2--|-2--2--2--2--2--2--2--2--2--2--2--2--0---0--2--|


G|-------------------------------------------------|-----------------------------------------------|
D|-------------------------------------------------|-----------------------------------------------|
A|-------------------------------------------------|-----------------------------------------------|
E|-------------------------------------------------|-----------------------------------------------|
B|-2--2--2--2--2--2--2--4--5--2--4--0--2--0--0--2--|-2--2--2--2--2--2--2--2--2--2--2--2--0---0--2--|


G|---------------------------------------------|-----------------------------------------------|
D|---------------------------------------------|-----------------------------------------------|
A|---------------------------------------------|-----------------------------------------------|
E|---------------------------------------------|-----------------------------------------------|
B|-2--2--2--2--2--2--2--2--2--2--2-------0--2--|-2--2--2--2--2--2--2--2--2--2--2--2--0---0--2--|


G|-----------------------------------------------|----------------------------------|
D|-----------------------------------------------|----------------------------------|
A|-----------------------------------------------|-4--4------4--4------4------------|
E|-----------------------------------------------|----------------------------------|
B|-2--2--2--2--2--2--2--4--5--2--4--0--2--0--2---|-------------------------2----2---|


G|---------------------------------------|----------------------------------|-------------------------------------|
D|---------------------------------------|----------------------------------|-------------------------------------|
A|-4--4------4--4------4-----------------|----------------------------------|---------------------------4--4------|
E|---------------------------------5--5--|-----5--5------5------------5--5--|-----5--5------5---------------------|
B|-------------------------2---2---------|-------------------2----2---------|-------------------2---2-------------|


G|----------------------------------|---------------------------------------|----------------------------------|
D|----------------------------------|---------------------------------------|----------------------------------|
A|-4--4------4------------4--4------|-4--4------4---------------------------|----------------------------------|
E|----------------------------------|-----------------------5--5------5--5--|-----5------------5--5------5--5--|
B|---------------2----2-------------|---------------2---2-------------------|---------2----2-------------------|


G|-------------------------------------|----------------------------------|-------------------------------------|
D|-------------------------------------|----------------------------------|-------------------------------------|
A|-----------------4--4------4--4------|-4------------4--4------4--4------|-4-----------------------------------|
E|-----5-------------------------------|----------------------------------|-------------5--5------5--5------5---|
B|---------2---2-----------------------|-----2----2-----------------------|-----2---2---------------------------|


G|----------------------------------|-------------------------------------|-------------------------------------|
D|----------------------------------|-------------------------------------|-------------------------------------|
A|----------------------------------|---------4--4------4--4------4-------|---------4--4------4--4------4-------|
E|----------5--5------5--5------5---|-------------------------------------|-------------------------------------|
B|-2----2---------------------------|-2---2---------------------------2---|-----2---------------------------2---|


G|----------------------------------|----------------------------------|----------------------------------------|
D|----------------------------------|----------------------------------|----------------------------------------|
A|----------------------------------|----------------------------------|-4--4--4--4--4--4-----------2--2--2--2--|
E|-----5--5------5--5------5--------|-----5--5------5--5------5--------|-------------------5--------------------|
B|-2---------------------------2----|-2---------------------------2----|----------------------------------------|


G|----------------------------------|-----------------------------------------------|
D|----------------------------------|-----------------------------------------------|
A|----------------------------------|-----------------------------------------------|
E|-2--------5---5-------------------|-----------------------------------------------|
B|------------------0---0--2--2--2--|-2--2--2--2--2--2--2--2--2--2--0---0--2--2--2--|


G|---------------------------------------------|------------------------------------|
D|---------------------------------------------|------------------------------------|
A|---------------------------------4--4--4--4--|-4--4-----------2--2--2--2----------|
E|---------------------------------------------|-------5--------------------2-------|
B|-2--2--2--2--2--2--2--2--2-------------------|------------------------------------|


G|-----------------------------------------|-----------------------------------------------|
D|-----------------------------------------|-----------------------------------------------|
A|-----------------------------------------|-----------------------------------------------|
E|-----5---5-------------------------------|-----------------------------------------------|
B|-------------0---0--2--2--2--2--2--2--2--|-2--2--2--2--2--2--0---0--2--2--2--2--2--2--2--|


G|-------------------------------------|---------------------------------|------------------------------|
D|-------------------------------------|---------------------------------|------------------------------|
A|-------------------------------------|---------------------------------|------------------------------|
E|-------------------------------------|---------------------------------|------------------------------|
B|-2--2--2--2--2-------2---2---2---2---|-0---0---2---2---2---2---2---2---|-0----2---2---2---2---0---0---|


G|------------------------------|---------------------------------|------------------------------|
D|------------------------------|---------------------------------|------------------------------|
A|------------------------------|---------------------------------|------------------------------|
E|------------------------------|---------------------------------|------------------------------|
B|-2---2---2---2---2---2---0----|-2---2---2---2---0---0---2---2---|-2---2---2---2---0----2---2---|


G|---------------------------------|--------------------|-------------|-------------|
D|---------------------------------|--------------------|-------------|-------------|
A|---------------------------------|--------------------|-------------|-------------|
E|---------------------------------|--------------------|-------------|-------------|
B|-2---2---0---0---2---2---2---2---|-2---2---0----2-----|-------4-----|-------5-----|


G|-------------|-------------|-------------|------------------------------------|-------------------------------------|
D|-------------|-------------|-------------|------------------------------------|-------------------------------------|
A|-------------|-------------|-------------|------------------------------------|-------------------------------------|
E|-------------|-------------|-------------|------------------------------------|-------------------------------------|
B|-------7-----|-------5-----|-7-----9-----|------2--2--2-------0--0--0---2--2--|-2-----------2--2--2---0---2--2--2---|


G|-------------------------------------|-------------------------------------|---------------------------------------|
D|-------------------------------------|-------------------------------------|---------------------------------------|
A|-------------------------------------|-------------------------------------|---------------------------------------|
E|-------------------------------------|-2-------2---------------------------|---------------------------------------|
B|-----0--0--0---2--2--2-----------0---|-----0-------2--2--2-------0--0--0---|-2--2--2-----------2--2--2---0---2--2--|


G|-------------------------------------|-------------------------------------|-------------------------------------|
D|-------------------------------------|-------------------------------------|-------------------------------------|
A|-------------------------------------|-------------------------------------|-------------------------------------|
E|-------------------------------------|-----2-------2-----------------------|-------------------------------------|
B|-2-------0--0--0---2--2--2-----------|-0-------0-------2--2--2-------0--0--|-0---2--2--2-----------2--2--2---0---|


G|---------------------------------------|-----------------------------------|---------------------------------------|
D|---------------------------------------|-----------------------------------|---------------------------------------|
A|---------------------------------------|-----------------------------------|---------------------------------------|
E|---------------------------------------|---------2-------2-----------------|---------------------------------------|
B|-2--2--2-------0--0--0---2--2--2-------|-----0-------0-------2--2--2-------|-0--0--0---2--2--2-----------2--2--2---|


G|---------------------------------------|-----------------------------------|----------------------------------|
D|---------------------------------------|-----------------------------------|----------------------------------|
A|---------------------------------------|-----------------------------4--4--|-----4--4------4------------4--4--|
E|---------------------------------------|-------------2-------2-------------|----------------------------------|
B|-0---2--2--2-------0--0--0---2--2--2---|---------0-------0-------2---------|-------------------2----2---------|


G|-------------------------------------|----------------------------------|---------------------------------------|
D|-------------------------------------|----------------------------------|---------------------------------------|
A|-----4--4------4---------------------|----------------------------------|-----------------------4--4------4--4--|
E|---------------------------5--5------|-5--5------5------------5--5------|-5--5------5---------------------------|
B|-------------------2---2-------------|---------------2----2-------------|---------------2---2-------------------|


G|----------------------------------|-------------------------------------|----------------------------------|
D|----------------------------------|-------------------------------------|----------------------------------|
A|-----4------------4--4------4--4--|-----4-------------------------------|----------------------------------|
E|----------------------------------|-----------------5--5------5--5------|-5------------5--5------5--5------|
B|---------2----2-------------------|---------2---2-----------------------|-----2----2-----------------------|


G|-------------------------------------|----------------------------------|-------------------------------------|
D|-------------------------------------|----------------------------------|-------------------------------------|
A|-------------4--4------4--4------4---|----------4--4------4--4------4---|-------------------------------------|
E|-5-----------------------------------|----------------------------------|---------5--5------5--5------5-------|
B|-----2---2---------------------------|-2----2---------------------------|-2---2---------------------------2---|


G|-------------------------------------|----------------------------------|-------------------------------------|
D|-------------------------------------|----------------------------------|-------------------------------------|
A|-------------------------------------|-----4--4------4--4------4--------|-----4--4------4--4------4-----------|
E|---------5--5------5--5------5-------|----------------------------------|-------------------------------------|
B|-----2---------------------------2---|-2---------------------------2----|-2---------------------------2---2---|


G|----------------------------------|------------------------------------|--------------------------------------|
D|----------------------------------|------------------------------------|--------------------------------------|
A|----------------------------------|------------------------------4--4--|-4--4--4--4-----------2--2--2--2------|
E|-5--5------5--5------5------------|-5--5------5--5------5--------------|-------------5--------------------2---|
B|-------------------------2----2---|-------------------------2----------|--------------------------------------|


G|------------------------------------|-----------------------------------------------|
D|------------------------------------|-----------------------------------------------|
A|------------------------------------|-----------------------------------------------|
E|------5---5-------------------------|-----------------------------------------------|
B|--------------0---0--2--2--2--2--2--|-2--2--2--2--2--2--2--2--0---0--2--2--2--2--2--|


G|---------------------------------------------|-------------------------------|-------------------------------------------|
D|---------------------------------------------|-------------------------------|-------------------------------------------|
A|---------------------------4--4--4--4--4--4--|----------2--2--2--2-----------|-------------------------------------------|
E|---------------------------------------------|-5--------------------2--------|-5---5-------------------------------------|
B|-2--2--2--2--2--2--2-------------------------|-------------------------------|---------0---0--2--2--2--2--2--2--2--2--2--|


G|-----------------------------------------------|-----------------------------------------|
D|-----------------------------------------------|-----------------------------------------|
A|-----------------------------------------------|---------------4--4--4--4--4--4----------|
E|-----------------------------------------------|---------------------------------5-------|
B|-2--2--2--2--0---0--2--2--2--2--2--2--2--2--2--|-2--2--2---------------------------------|


G|----------------------------------|-----------------------------------------------|
D|----------------------------------|-----------------------------------------------|
A|-----2--2--2--2-------------------|-----------------------------------------------|
E|-----------------2--------5---5---|-----------------------------------------------|
B|----------------------------------|-0---0--2--2--2--2--2--2--2--2--2--2--2--2--2--|


G|---------------------------------------------|-----------------------------------------------|
D|---------------------------------------------|-----------------------------------------------|
A|---------------------------------------------|-----------------------------------------------|
E|---------------------------------------------|-----------------------------------------------|
B|-0---0--2--2--2--2--2--2--2--2--2--2--2--2---|-----0--2--2--2--2--2--2--2--2--2--2--2--2--2--|


G|-----------------------------------------------|-------------------------------------------------|
D|-----------------------------------------------|-------------------------------------------------|
A|-----------------------------------------------|-------------------------------------------------|
E|-----------------------------------------------|-------------------------------------------------|
B|-0---0--2--2--2--2--2--2--2--2--4--5--2--4--0--|-2--0--0--2--2--2--2--2--2--2--2--2--2--2--2--2--|


G|---------------------------------------------|-----------------------------------------------|
D|---------------------------------------------|-----------------------------------------------|
A|---------------------------------------------|-----------------------------------------------|
E|---------------------------------------------|-----------------------------------------------|
B|-0---0--2--2--2--2--2--2--2--2--2--2--2--2---|-----0--2--2--2--2--2--2--2--2--2--2--2--2--2--|


G|-----------------------------------------------|----------------------------------------|
D|-----------------------------------------------|----------------------------------------|
A|-----------------------------------------------|----------------------------------------|
E|-----------------------------------------------|----------------------------------------|
B|-0---0--2--2--2--2--2--2--2--2--4--5--2--4--0--|-2--0--2--4--5--2--4--0--2--0--2--------|