Site menu:

    

Browse: 0-9 A B C D E F G H I J K L N O P Q R S T U V W X Y Z

zemfira - kukushka:



Title: Kukushka
Artist: 
Album: Do Svidaniya
Author: Zemfira


Track 1: Capo 12th Fret

E|-----0-----------------------0---|-----0-----------------------0---|-----0-----------------------0---|
B|-1---1---1---0---0---0---1---1---|-1---1---1---0---0---0---1---1---|-1---1---1---0---0---0---1---1---|
G|-2---2---2---2---2---2---2---2---|-2---2---2---2---2---2---2---2---|-2---2---2---2---2---2---2---2---|
D|-2---2---2---2---2---2---2---2---|-2---2---2---2---2---2---2---2---|-2---2---2---2---2---2---2---2---|
A|-0---0---0---0---0---0---0---0---|-0---0---0---0---0---0---0---0---|-0---0---0---0---0---0---0---0---|
E|---------------------------------|---------------------------------|---------------------------------|


E|-----0-----------------------0---|-----0-----------------------0---|-----0-----------------------0---|
B|-1---1---1---0---0---0---1---1---|-1---1---1---0---0---0---1---1---|-1---1---1---0---0---0---1---1---|
G|-2---2---2---2---2---2---2---2---|-2---2---2---2---2---2---2---2---|-2---2---2---2---2---2---2---2---|
D|-2---2---2---2---2---2---2---2---|-2---2---2---2---2---2---2---2---|-2---2---2---2---2---2---2---2---|
A|-0---0---0---0---0---0---0---0---|-0---0---0---0---0---0---0---0---|-0---0---0---0---0---0---0---0---|
E|---------------------------------|---------------------------------|---------------------------------|


E|-----0-----------------------0---|-----0-----------------------0---|-----0-----------------------0---|
B|-1---1---1---0---0---0---1---1---|-1---1---1---0---0---0---1---1---|-1---1---1---0---0---0---1---1---|
G|-2---2---2---2---2---2---2---2---|-2---2---2---2---2---2---2---2---|-2---2---2---2---2---2---2---2---|
D|-2---2---2---2---2---2---2---2---|-2---2---2---2---2---2---2---2---|-2---2---2---2---2---2---2---2---|
A|-0---0---0---0---0---0---0---0---|-0---0---0---0---0---0---0---0---|-0---0---0---0---0---0---0---0---|
E|---------------------------------|---------------------------------|---------------------------------|


E|-----0-----------------------0---|-3---3---3-----------------------|-3---3---3-----------------------|
B|-1---1---1---0---0---0---1---1---|-3---3---3---1---1---1---3---3---|-3---3---3---1---1---1---3---3---|
G|-2---2---2---2---2---2---2---2---|-0---0---0---0---0---0---0---0---|-0---0---0---0---0---0---0---0---|
D|-2---2---2---2---2---2---2---2---|-0---0---0---0---0---0---0---0---|-0---0---0---0---0---0---0---0---|
A|-0---0---0---0---0---0---0---0---|---------------------------------|---------------------------------|
E|---------------------------------|---------------------------------|---------------------------------|


E|-----0-----------------------0---|-----0-----------------------0---|-3---3---3-----------------------|
B|-1---1---1---0---0---0---1---1---|-1---1---1---0---0---0---1---1---|-3---3---3---1---1---1---3---3---|
G|-2---2---2---2---2---2---2---2---|-2---2---2---2---2---2---2---2---|-0---0---0---0---0---0---0---0---|
D|-2---2---2---2---2---2---2---2---|-2---2---2---2---2---2---2---2---|-0---0---0---0---0---0---0---0---|
A|-0---0---0---0---0---0---0---0---|-0---0---0---0---0---0---0---0---|---------------------------------|
E|---------------------------------|---------------------------------|---------------------------------|


E|-3---3---3-----------------------|-----0-----------------------0---|-----0-----------------------0---|
B|-3---3---3---1---1---1---3---3---|-1---1---1---0---0---0---1---1---|-1---1---1---0---0---0---1---1---|
G|-0---0---0---0---0---0---0---0---|-2---2---2---2---2---2---2---2---|-2---2---2---2---2---2---2---2---|
D|-0---0---0---0---0---0---0---0---|-2---2---2---2---2---2---2---2---|-2---2---2---2---2---2---2---2---|
A|---------------------------------|-0---0---0---0---0---0---0---0---|-0---0---0---0---0---0---0---0---|
E|---------------------------------|---------------------------------|---------------------------------|


E|-3---3---3-----------------------|-3---3---3-----------------------|-----0-----------------------0---|
B|-3---3---3---1---1---1---3---3---|-3---3---3---1---1---1---3---3---|-1---1---1---0---0---0---1---1---|
G|-0---0---0---0---0---0---0---0---|-0---0---0---0---0---0---0---0---|-2---2---2---2---2---2---2---2---|
D|-0---0---0---0---0---0---0---0---|-0---0---0---0---0---0---0---0---|-2---2---2---2---2---2---2---2---|
A|---------------------------------|---------------------------------|-0---0---0---0---0---0---0---0---|
E|---------------------------------|---------------------------------|---------------------------------|


E|-----0-----------------------0---|-3---3---3-----------------------|-3---3---3-----------------------|
B|-1---1---1---0---0---0---1---1---|-3---3---3---1---1---1---3---3---|-3---3---3---1---1---1---3---3---|
G|-2---2---2---2---2---2---2---2---|-0---0---0---0---0---0---0---0---|-0---0---0---0---0---0---0---0---|
D|-2---2---2---2---2---2---2---2---|-0---0---0---0---0---0---0---0---|-0---0---0---0---0---0---0---0---|
A|-0---0---0---0---0---0---0---0---|---------------------------------|---------------------------------|
E|---------------------------------|---------------------------------|---------------------------------|


E|-----0-----------------------0---|-----0-----------------------0---|-----0-----------------------0---|
B|-1---1---1---0---0---0---1---1---|-1---1---1---0---0---0---1---1---|-1---1---1---0---0---0---1---1---|
G|-2---2---2---2---2---2---2---2---|-2---2---2---2---2---2---2---2---|-2---2---2---2---2---2---2---2---|
D|-2---2---2---2---2---2---2---2---|-2---2---2---2---2---2---2---2---|-2---2---2---2---2---2---2---2---|
A|-0---0---0---0---0---0---0---0---|-0---0---0---0---0---0---0---0---|-0---0---0---0---0---0---0---0---|
E|---------------------------------|---------------------------------|---------------------------------|


E|-----0-----------------------0---|-3---3---3-----------------------|-3---3---3-----------------------|
B|-1---1---1---0---0---0---1---1---|-3---3---3---1---1---1---3---3---|-3---3---3---1---1---1---3---3---|
G|-2---2---2---2---2---2---2---2---|-0---0---0---0---0---0---0---0---|-0---0---0---0---0---0---0---0---|
D|-2---2---2---2---2---2---2---2---|-0---0---0---0---0---0---0---0---|-0---0---0---0---0---0---0---0---|
A|-0---0---0---0---0---0---0---0---|---------------------------------|---------------------------------|
E|---------------------------------|---------------------------------|---------------------------------|


E|-----0-----------------------0---|-----0-----------------------0---|-----0-----------------------0---|
B|-1---1---1---0---0---0---1---1---|-1---1---1---0---0---0---1---1---|-1---1---1---0---0---0---1---1---|
G|-2---2---2---2---2---2---2---2---|-2---2---2---2---2---2---2---2---|-2---2---2---2---2---2---2---2---|
D|-2---2---2---2---2---2---2---2---|-2---2---2---2---2---2---2---2---|-2---2---2---2---2---2---2---2---|
A|-0---0---0---0---0---0---0---0---|-0---0---0---0---0---0---0---0---|-0---0---0---0---0---0---0---0---|
E|---------------------------------|---------------------------------|---------------------------------|


E|-----0-----------------------0---|-----0-----------------------0---|-----0-----------------------0---|
B|-1---1---1---0---0---0---1---1---|-1---1---1---0---0---0---1---1---|-1---1---1---0---0---0---1---1---|
G|-2---2---2---2---2---2---2---2---|-2---2---2---2---2---2---2---2---|-2---2---2---2---2---2---2---2---|
D|-2---2---2---2---2---2---2---2---|-2---2---2---2---2---2---2---2---|-2---2---2---2---2---2---2---2---|
A|-0---0---0---0---0---0---0---0---|-0---0---0---0---0---0---0---0---|-0---0---0---0---0---0---0---0---|
E|---------------------------------|---------------------------------|---------------------------------|


E|-3---3---3-----------------------|-3---3---3-----------------------|-----0-----------------------0---|
B|-3---3---3---1---1---1---3---3---|-3---3---3---1---1---1---3---3---|-1---1---1---0---0---0---1---1---|
G|-0---0---0---0---0---0---0---0---|-0---0---0---0---0---0---0---0---|-2---2---2---2---2---2---2---2---|
D|-0---0---0---0---0---0---0---0---|-0---0---0---0---0---0---0---0---|-2---2---2---2---2---2---2---2---|
A|---------------------------------|---------------------------------|-0---0---0---0---0---0---0---0---|
E|---------------------------------|---------------------------------|---------------------------------|


E|-----0-----------------------0---|-3---3---3-----------------------|-3---3---3-----------------------|
B|-1---1---1---0---0---0---1---1---|-3---3---3---1---1---1---3---3---|-3---3---3---1---1---1---3---3---|
G|-2---2---2---2---2---2---2---2---|-0---0---0---0---0---0---0---0---|-0---0---0---0---0---0---0---0---|
D|-2---2---2---2---2---2---2---2---|-0---0---0---0---0---0---0---0---|-0---0---0---0---0---0---0---0---|
A|-0---0---0---0---0---0---0---0---|---------------------------------|---------------------------------|
E|---------------------------------|---------------------------------|---------------------------------|


E|-----0-----------------------0---|-----0-----------------------0---|-3---3---3-----------------------|
B|-1---1---1---0---0---0---1---1---|-1---1---1---0---0---0---1---1---|-3---3---3---1---1---1---3---3---|
G|-2---2---2---2---2---2---2---2---|-2---2---2---2---2---2---2---2---|-0---0---0---0---0---0---0---0---|
D|-2---2---2---2---2---2---2---2---|-2---2---2---2---2---2---2---2---|-0---0---0---0---0---0---0---0---|
A|-0---0---0---0---0---0---0---0---|-0---0---0---0---0---0---0---0---|---------------------------------|
E|---------------------------------|---------------------------------|---------------------------------|


E|-3---3---3-----------------------|-----0-----------------------0---|-----0-----------------------0---|
B|-3---3---3---1---1---1---3---3---|-1---1---1---0---0---0---1---1---|-1---1---1---0---0---0---1---1---|
G|-0---0---0---0---0---0---0---0---|-2---2---2---2---2---2---2---2---|-2---2---2---2---2---2---2---2---|
D|-0---0---0---0---0---0---0---0---|-2---2---2---2---2---2---2---2---|-2---2---2---2---2---2---2---2---|
A|---------------------------------|-0---0---0---0---0---0---0---0---|-0---0---0---0---0---0---0---0---|
E|---------------------------------|---------------------------------|---------------------------------|


E|-3---3---3-----------------------|-3---3---3-----------------------|-----0-----------------------0---|
B|-3---3---3---1---1---1---3---3---|-3---3---3---1---1---1---3---3---|-1---1---1---0---0---0---1---1---|
G|-0---0---0---0---0---0---0---0---|-0---0---0---0---0---0---0---0---|-2---2---2---2---2---2---2---2---|
D|-0---0---0---0---0---0---0---0---|-0---0---0---0---0---0---0---0---|-2---2---2---2---2---2---2---2---|
A|---------------------------------|---------------------------------|-0---0---0---0---0---0---0---0---|
E|---------------------------------|---------------------------------|---------------------------------|


E|-----0-----------------------0---|-3---3---3-----------------------|-3------------------|
B|-1---1---1---0---0---0---1---1---|-3---3---3---1---1---1---3---3---|-3------------------|
G|-2---2---2---2---2---2---2---2---|-0---0---0---0---0---0---0---0---|-0------------------|
D|-2---2---2---2---2---2---2---2---|-0---0---0---0---0---0---0---0---|-0------------------|
A|-0---0---0---0---0---0---0---0---|---------------------------------|--------------------|
E|---------------------------------|---------------------------------|--------------------|


E|-----0-----------------------0---|-----0-----------------------0---|-3---3---3-----------------------|
B|-1---1---1---0---0---0---1---1---|-1---1---1---0---0---0---1---1---|-3---3---3---1---1---1---3---3---|
G|-2---2---2---2---2---2---2---2---|-2---2---2---2---2---2---2---2---|-0---0---0---0---0---0---0---0---|
D|-2---2---2---2---2---2---2---2---|-2---2---2---2---2---2---2---2---|-0---0---0---0---0---0---0---0---|
A|-0---0---0---0---0---0---0---0---|-0---0---0---0---0---0---0---0---|---------------------------------|
E|---------------------------------|---------------------------------|---------------------------------|


E|-3---3---3-----------------------|-----0-----------------------0---|-----0-----------------------0---|
B|-3---3---3---1---1---1---3---3---|-1---1---1---0---0---0---1---1---|-1---1---1---0---0---0---1---1---|
G|-0---0---0---0---0---0---0---0---|-2---2---2---2---2---2---2---2---|-2---2---2---2---2---2---2---2---|
D|-0---0---0---0---0---0---0---0---|-2---2---2---2---2---2---2---2---|-2---2---2---2---2---2---2---2---|
A|---------------------------------|-0---0---0---0---0---0---0---0---|-0---0---0---0---0---0---0---0---|
E|---------------------------------|---------------------------------|---------------------------------|


E|-3---3---3-----------------------|-3---3---3-----------------------|-3---3---3-----------------------|
B|-3---3---3---1---1---1---3---3---|-3---3---3---1---1---1---3---3---|-3---3---3---1---1---1---3---3---|
G|-0---0---0---0---0---0---0---0---|-0---0---0---0---0---0---0---0---|-0---0---0---0---0---0---0---0---|
D|-0---0---0---0---0---0---0---0---|-0---0---0---0---0---0---0---0---|-0---0---0---0---0---0---0---0---|
A|---------------------------------|---------------------------------|---------------------------------|
E|---------------------------------|---------------------------------|---------------------------------|


E|-3---3---3-----------------------|-----0-----------------------0---|-----0-----------------------0---|
B|-3---3---3---1---1---1---3---3---|-1---1---1---0---0---0---1---1---|-1---1---1---0---0---0---1---1---|
G|-0---0---0---0---0---0---0---0---|-2---2---2---2---2---2---2---2---|-2---2---2---2---2---2---2---2---|
D|-0---0---0---0---0---0---0---0---|-2---2---2---2---2---2---2---2---|-2---2---2---2---2---2---2---2---|
A|---------------------------------|-0---0---0---0---0---0---0---0---|-0---0---0---0---0---0---0---0---|
E|---------------------------------|---------------------------------|---------------------------------|


E|-3---3---3-----------------------|-3---3---3-----------------------|-----0-----------------------0---|
B|-3---3---3---1---1---1---3---3---|-3---3---3---1---1---1---3---3---|-1---1---1---0---0---0---1---1---|
G|-0---0---0---0---0---0---0---0---|-0---0---0---0---0---0---0---0---|-2---2---2---2---2---2---2---2---|
D|-0---0---0---0---0---0---0---0---|-0---0---0---0---0---0---0---0---|-2---2---2---2---2---2---2---2---|
A|---------------------------------|---------------------------------|-0---0---0---0---0---0---0---0---|
E|---------------------------------|---------------------------------|---------------------------------|


E|-----0-----------------------0---|-3---3---3-----------------------|-3---3---3-----------------------|
B|-1---1---1---0---0---0---1---1---|-3---3---3---1---1---1---3---3---|-3---3---3---1---1---1---3---3---|
G|-2---2---2---2---2---2---2---2---|-0---0---0---0---0---0---0---0---|-0---0---0---0---0---0---0---0---|
D|-2---2---2---2---2---2---2---2---|-0---0---0---0---0---0---0---0---|-0---0---0---0---0---0---0---0---|
A|-0---0---0---0---0---0---0---0---|---------------------------------|---------------------------------|
E|---------------------------------|---------------------------------|---------------------------------|


E|-----0-----------------------0---|-----0-----------------------0---|-3---3---3-----------------------|
B|-1---1---1---0---0---0---1---1---|-1---1---1---0---0---0---1---1---|-3---3---3---1---1---1---3---3---|
G|-2---2---2---2---2---2---2---2---|-2---2---2---2---2---2---2---2---|-0---0---0---0---0---0---0---0---|
D|-2---2---2---2---2---2---2---2---|-2---2---2---2---2---2---2---2---|-0---0---0---0---0---0---0---0---|
A|-0---0---0---0---0---0---0---0---|-0---0---0---0---0---0---0---0---|---------------------------------|
E|---------------------------------|---------------------------------|---------------------------------|


E|-3------------------|-----0-----------------------0---|-----0-----------------------0---|
B|-3------------------|-1---1---1---0---0---0---1---1---|-1---1---1---0---0---0---1---1---|
G|-0------------------|-2---2---2---2---2---2---2---2---|-2---2---2---2---2---2---2---2---|
D|-0------------------|-2---2---2---2---2---2---2---2---|-2---2---2---2---2---2---2---2---|
A|--------------------|-0---0---0---0---0---0---0---0---|-0---0---0---0---0---0---0---0---|
E|--------------------|---------------------------------|---------------------------------|


E|-3---3---3-----------------------|-3---3---3-----------------------|-----0-----------------------0---|
B|-3---3---3---1---1---1---3---3---|-3---3---3---1---1---1---3---3---|-1---1---1---0---0---0---1---1---|
G|-0---0---0---0---0---0---0---0---|-0---0---0---0---0---0---0---0---|-2---2---2---2---2---2---2---2---|
D|-0---0---0---0---0---0---0---0---|-0---0---0---0---0---0---0---0---|-2---2---2---2---2---2---2---2---|
A|---------------------------------|---------------------------------|-0---0---0---0---0---0---0---0---|
E|---------------------------------|---------------------------------|---------------------------------|


E|-----0-----------------------0---|-3---3---3-----------------------|-3---3---3-----------------------|
B|-1---1---1---0---0---0---1---1---|-3---3---3---1---1---1---3---3---|-3---3---3---1---1---1---3---3---|
G|-2---2---2---2---2---2---2---2---|-0---0---0---0---0---0---0---0---|-0---0---0---0---0---0---0---0---|
D|-2---2---2---2---2---2---2---2---|-0---0---0---0---0---0---0---0---|-0---0---0---0---0---0---0---0---|
A|-0---0---0---0---0---0---0---0---|---------------------------------|---------------------------------|
E|---------------------------------|---------------------------------|---------------------------------|


E|-----0-----------------------0---|-----0-----------------------0---|-3---3---3-----------------------|
B|-1---1---1---0---0---0---1---1---|-1---1---1---0---0---0---1---1---|-3---3---3---1---1---1---3---3---|
G|-2---2---2---2---2---2---2---2---|-2---2---2---2---2---2---2---2---|-0---0---0---0---0---0---0---0---|
D|-2---2---2---2---2---2---2---2---|-2---2---2---2---2---2---2---2---|-0---0---0---0---0---0---0---0---|
A|-0---0---0---0---0---0---0---0---|-0---0---0---0---0---0---0---0---|---------------------------------|
E|---------------------------------|---------------------------------|---------------------------------|


E|-3---3---3-----------------------|-----0-----------------------0---|-----0-----------------------0---|
B|-3---3---3---1---1---1---3---3---|-1---1---1---0---0---0---1---1---|-1---1---1---0---0---0---1---1---|
G|-0---0---0---0---0---0---0---0---|-2---2---2---2---2---2---2---2---|-2---2---2---2---2---2---2---2---|
D|-0---0---0---0---0---0---0---0---|-2---2---2---2---2---2---2---2---|-2---2---2---2---2---2---2---2---|
A|---------------------------------|-0---0---0---0---0---0---0---0---|-0---0---0---0---0---0---0---0---|
E|---------------------------------|---------------------------------|---------------------------------|


E|-3---3---3-----------------------|-3---3---3-----------------------|-----0-----------------------0---|
B|-3---3---3---1---1---1---3---3---|-3---3---3---1---1---1---3---3---|-1---1---1---0---0---0---1---1---|
G|-0---0---0---0---0---0---0---0---|-0---0---0---0---0---0---0---0---|-2---2---2---2---2---2---2---2---|
D|-0---0---0---0---0---0---0---0---|-0---0---0---0---0---0---0---0---|-2---2---2---2---2---2---2---2---|
A|---------------------------------|---------------------------------|-0---0---0---0---0---0---0---0---|
E|---------------------------------|---------------------------------|---------------------------------|


E|-----0-----------------------0---|-----0-----------------------0---|-----0-----------------------0---|
B|-1---1---1---0---0---0---1---1---|-1---1---1---0---0---0---1---1---|-1---1---1---0---0---0---1---1---|
G|-2---2---2---2---2---2---2---2---|-2---2---2---2---2---2---2---2---|-2---2---2---2---2---2---2---2---|
D|-2---2---2---2---2---2---2---2---|-2---2---2---2---2---2---2---2---|-2---2---2---2---2---2---2---2---|
A|-0---0---0---0---0---0---0---0---|-0---0---0---0---0---0---0---0---|-0---0---0---0---0---0---0---0---|
E|---------------------------------|---------------------------------|---------------------------------|


E|-3---3---3-----------------------|-3---3---3-----------------------|-----0-----------------------0---|
B|-3---3---3---1---1---1---3---3---|-3---3---3---1---1---1---3---3---|-1---1---1---0---0---0---1---1---|
G|-0---0---0---0---0---0---0---0---|-0---0---0---0---0---0---0---0---|-2---2---2---2---2---2---2---2---|
D|-0---0---0---0---0---0---0---0---|-0---0---0---0---0---0---0---0---|-2---2---2---2---2---2---2---2---|
A|---------------------------------|---------------------------------|-0---0---0---0---0---0---0---0---|
E|---------------------------------|---------------------------------|---------------------------------|


E|-----0-----------------------0---|-----0-----------------------0---|-----0-----------------------0---|
B|-1---1---1---0---0---0---1---1---|-1---1---1---0---0---0---1---1---|-1---1---1---0---0---0---1---1---|
G|-2---2---2---2---2---2---2---2---|-2---2---2---2---2---2---2---2---|-2---2---2---2---2---2---2---2---|
D|-2---2---2---2---2---2---2---2---|-2---2---2---2---2---2---2---2---|-2---2---2---2---2---2---2---2---|
A|-0---0---0---0---0---0---0---0---|-0---0---0---0---0---0---0---0---|-0---0---0---0---0---0---0---0---|
E|---------------------------------|---------------------------------|---------------------------------|


E|-----0-----------------------0---|-----0-----------------------0---|-3---3---3-----------------------|
B|-1---1---1---0---0---0---1---1---|-1---1---1---0---0---0---1---1---|-3---3---3---1---1---1---3---3---|
G|-2---2---2---2---2---2---2---2---|-2---2---2---2---2---2---2---2---|-0---0---0---0---0---0---0---0---|
D|-2---2---2---2---2---2---2---2---|-2---2---2---2---2---2---2---2---|-0---0---0---0---0---0---0---0---|
A|-0---0---0---0---0---0---0---0---|-0---0---0---0---0---0---0---0---|---------------------------------|
E|---------------------------------|---------------------------------|---------------------------------|


E|-3---3---3-----------------------|-----0-----------------------0---|-----0-----------------------0---|
B|-3---3---3---1---1---1---3---3---|-1---1---1---0---0---0---1---1---|-1---1---1---0---0---0---1---1---|
G|-0---0---0---0---0---0---0---0---|-2---2---2---2---2---2---2---2---|-2---2---2---2---2---2---2---2---|
D|-0---0---0---0---0---0---0---0---|-2---2---2---2---2---2---2---2---|-2---2---2---2---2---2---2---2---|
A|---------------------------------|-0---0---0---0---0---0---0---0---|-0---0---0---0---0---0---0---0---|
E|---------------------------------|---------------------------------|---------------------------------|


E|-3---3---3-----------------------|-3---3---3-----------------------|-----0-----------------------0---|
B|-3---3---3---1---1---1---3---3---|-3---3---3---1---1---1---3---3---|-1---1---1---0---0---0---1---1---|
G|-0---0---0---0---0---0---0---0---|-0---0---0---0---0---0---0---0---|-2---2---2---2---2---2---2---2---|
D|-0---0---0---0---0---0---0---0---|-0---0---0---0---0---0---0---0---|-2---2---2---2---2---2---2---2---|
A|---------------------------------|---------------------------------|-0---0---0---0---0---0---0---0---|
E|---------------------------------|---------------------------------|---------------------------------|


E|-----0-----------------------0---|-3---3---3-----------------------|-3---3---3-----------------------|
B|-1---1---1---0---0---0---1---1---|-3---3---3---1---1---1---3---3---|-3---3---3---1---1---1---3---3---|
G|-2---2---2---2---2---2---2---2---|-0---0---0---0---0---0---0---0---|-0---0---0---0---0---0---0---0---|
D|-2---2---2---2---2---2---2---2---|-0---0---0---0---0---0---0---0---|-0---0---0---0---0---0---0---0---|
A|-0---0---0---0---0---0---0---0---|---------------------------------|---------------------------------|
E|---------------------------------|---------------------------------|---------------------------------|


E|-----0-----------------------0---|-----0-----------------------0---|-3---3---3-----------------------|
B|-1---1---1---0---0---0---1---1---|-1---1---1---0---0---0---1---1---|-3---3---3---1---1---1---3---3---|
G|-2---2---2---2---2---2---2---2---|-2---2---2---2---2---2---2---2---|-0---0---0---0---0---0---0---0---|
D|-2---2---2---2---2---2---2---2---|-2---2---2---2---2---2---2---2---|-0---0---0---0---0---0---0---0---|
A|-0---0---0---0---0---0---0---0---|-0---0---0---0---0---0---0---0---|---------------------------------|
E|---------------------------------|---------------------------------|---------------------------------|


E|-3---3---3-----------------------|-----0-----------------------0---|-----0-----------------------0---|
B|-3---3---3---1---1---1---3---3---|-1---1---1---0---0---0---1---1---|-1---1---1---0---0---0---1---1---|
G|-0---0---0---0---0---0---0---0---|-2---2---2---2---2---2---2---2---|-2---2---2---2---2---2---2---2---|
D|-0---0---0---0---0---0---0---0---|-2---2---2---2---2---2---2---2---|-2---2---2---2---2---2---2---2---|
A|---------------------------------|-0---0---0---0---0---0---0---0---|-0---0---0---0---0---0---0---0---|
E|---------------------------------|---------------------------------|---------------------------------|


E|-3---3---3-----------------------|-3------------------|-----0-----------------------0---|
B|-3---3---3---1---1---1---3---3---|-3------------------|-1---1---1---0---0---0---1---1---|
G|-0---0---0---0---0---0---0---0---|-0------------------|-2---2---2---2---2---2---2---2---|
D|-0---0---0---0---0---0---0---0---|-0------------------|-2---2---2---2---2---2---2---2---|
A|---------------------------------|--------------------|-0---0---0---0---0---0---0---0---|
E|---------------------------------|--------------------|---------------------------------|


E|-----0-----------------------0---|-3---3---3-----------------------|-3---3---3-----------------------|
B|-1---1---1---0---0---0---1---1---|-3---3---3---1---1---1---3---3---|-3---3---3---1---1---1---3---3---|
G|-2---2---2---2---2---2---2---2---|-0---0---0---0---0---0---0---0---|-0---0---0---0---0---0---0---0---|
D|-2---2---2---2---2---2---2---2---|-0---0---0---0---0---0---0---0---|-0---0---0---0---0---0---0---0---|
A|-0---0---0---0---0---0---0---0---|---------------------------------|---------------------------------|
E|---------------------------------|---------------------------------|---------------------------------|


E|-----0-----------------------0---|-----0-----------------------0---|-3---3---3-----------------------|
B|-1---1---1---0---0---0---1---1---|-1---1---1---0---0---0---1---1---|-3---3---3---1---1---1---3---3---|
G|-2---2---2---2---2---2---2---2---|-2---2---2---2---2---2---2---2---|-0---0---0---0---0---0---0---0---|
D|-2---2---2---2---2---2---2---2---|-2---2---2---2---2---2---2---2---|-0---0---0---0---0---0---0---0---|
A|-0---0---0---0---0---0---0---0---|-0---0---0---0---0---0---0---0---|---------------------------------|
E|---------------------------------|---------------------------------|---------------------------------|


E|-3---3---3-----------------------|-----0-----------------------0---|-----0-----------------------0---|
B|-3---3---3---1---1---1---3---3---|-1---1---1---0---0---0---1---1---|-1---1---1---0---0---0---1---1---|
G|-0---0---0---0---0---0---0---0---|-2---2---2---2---2---2---2---2---|-2---2---2---2---2---2---2---2---|
D|-0---0---0---0---0---0---0---0---|-2---2---2---2---2---2---2---2---|-2---2---2---2---2---2---2---2---|
A|---------------------------------|-0---0---0---0---0---0---0---0---|-0---0---0---0---0---0---0---0---|
E|---------------------------------|---------------------------------|---------------------------------|


E|-3---3---3-----------------------|-3---3---3-----------------------|-----0-----------------------0---|
B|-3---3---3---1---1---1---3---3---|-3---3---3---1---1---1---3---3---|-1---1---1---0---0---0---1---1---|
G|-0---0---0---0---0---0---0---0---|-0---0---0---0---0---0---0---0---|-2---2---2---2---2---2---2---2---|
D|-0---0---0---0---0---0---0---0---|-0---0---0---0---0---0---0---0---|-2---2---2---2---2---2---2---2---|
A|---------------------------------|---------------------------------|-0---0---0---0---0---0---0---0---|
E|---------------------------------|---------------------------------|---------------------------------|


E|-----0-----------------------0---|-3---3---3-----------------------|-3---3---3-----------------------|
B|-1---1---1---0---0---0---1---1---|-3---3---3---1---1---1---3---3---|-3---3---3---1---1---1---3---3---|
G|-2---2---2---2---2---2---2---2---|-0---0---0---0---0---0---0---0---|-0---0---0---0---0---0---0---0---|
D|-2---2---2---2---2---2---2---2---|-0---0---0---0---0---0---0---0---|-0---0---0---0---0---0---0---0---|
A|-0---0---0---0---0---0---0---0---|---------------------------------|---------------------------------|
E|---------------------------------|---------------------------------|---------------------------------|


E|-0------|-0------|-0------|-0------|-0------|
B|-1------|-1------|-1------|-1------|-1------|
G|-2------|-2------|-2------|-2------|-2------|
D|-2------|-2------|-2------|-2------|-2------|
A|-0------|-0------|-0------|-0------|-0------|
E|--------|--------|--------|--------|--------|





Track 2: Rhythm

E|--------|--------|--------|--------|--------|--------|--------|--------|--------|
B|--------|--------|--------|--------|--------|--------|--------|--------|--------|
G|--------|--------|--------|--------|--------|--------|--------|--------|--------|
D|--------|--------|--------|--------|--------|--------|--------|--------|--------|
A|--------|--------|--------|--------|--------|--------|--------|--------|--------|
E|--------|--------|--------|--------|--------|--------|--------|--------|--------|


E|--------|--------|--------|--------|--------|--------|--------|--------|--------|
B|--------|--------|--------|--------|--------|--------|--------|--------|--------|
G|--------|--------|--------|--------|--------|--------|--------|--------|--------|
D|--------|--------|--------|--------|--------|--------|--------|--------|--------|
A|--------|--------|--------|--------|--------|--------|--------|--------|--------|
E|--------|--------|--------|--------|--------|--------|--------|--------|--------|


E|--------|--------|--------|--------|--------|--------|--------|--------|--------|
B|--------|--------|--------|--------|--------|--------|--------|--------|--------|
G|--------|--------|--------|--------|--------|--------|--------|--------|--------|
D|--------|--------|--------|--------|--------|--------|--------|--------|--------|
A|--------|--------|--------|--------|--------|--------|--------|--------|--------|
E|--------|--------|--------|--------|--------|--------|--------|--------|--------|


E|--------|--------|--------|--------|--------|--------|--------|--------|--------|
B|--------|--------|--------|--------|--------|--------|--------|--------|--------|
G|--------|--------|--------|--------|--------|--------|--------|--------|--------|
D|--------|--------|--------|--------|--------|--------|--------|--------|--------|
A|--------|--------|--------|--------|--------|--------|--------|--------|--------|
E|--------|--------|--------|--------|--------|--------|--------|--------|--------|


E|--------|--------|--------|--------|--------|--------|--------|--------|--------|
B|--------|--------|--------|--------|--------|--------|--------|--------|--------|
G|--------|--------|--------|--------|--------|--------|--------|--------|--------|
D|--------|--------|--------|--------|--------|--------|--------|--------|--------|
A|--------|--------|--------|--------|--------|--------|--------|--------|--------|
E|--------|--------|--------|--------|--------|--------|--------|--------|--------|


E|--------|--------|--------|--------|--------|--------|--------|--------|--------|
B|--------|--------|--------|--------|--------|--------|--------|--------|--------|
G|--------|--------|--------|--------|--------|--------|--------|--------|--------|
D|--------|--------|--------|--------|--------|--------|--------|--------|--------|
A|--------|--------|--------|--------|--------|--------|--------|--------|--------|
E|--------|--------|--------|--------|--------|--------|--------|--------|--------|


E|--------|--------|--------|--------|--------|--------|--------|--------|--------|
B|--------|--------|--------|--------|--------|--------|--------|--------|--------|
G|--------|--------|--------|--------|--------|--------|--------|--------|--------|
D|--------|--------|--------|--------|--------|--------|--------|--------|--------|
A|--------|--------|--------|--------|--------|--------|--------|--------|--------|
E|--------|--------|--------|--------|--------|--------|--------|--------|--------|


E|--------|--------|--------|--------|--------|--------|--------|--------|--------|
B|--------|--------|--------|--------|--------|--------|--------|--------|--------|
G|--------|--------|--------|--------|--------|--------|--------|--------|--------|
D|--------|--------|--------|--------|--------|--------|--------|--------|--------|
A|--------|--------|--------|--------|--------|--------|--------|--------|--------|
E|--------|--------|--------|--------|--------|--------|--------|--------|--------|


E|--------|--------|--------|--------|--------|--------|--------|--------|--------|
B|--------|--------|--------|--------|--------|--------|--------|--------|--------|
G|--------|--------|--------|--------|--------|--------|--------|--------|--------|
D|--------|--------|--------|--------|--------|--------|--------|--------|--------|
A|--------|--------|--------|--------|--------|--------|--------|--------|--------|
E|--------|--------|--------|--------|--------|--------|--------|--------|--------|


E|--------|--------|--------|--------|--------|--------|--------|--------|--------|
B|--------|--------|--------|--------|--------|--------|--------|--------|--------|
G|--------|--------|--------|--------|--------|--------|--------|--------|--------|
D|--------|--------|--------|--------|--------|--------|--------|--------|--------|
A|--------|--------|--------|--------|--------|--------|--------|--------|--------|
E|--------|--------|--------|--------|--------|--------|--------|--------|--------|


E|--------|--------|--------|--------|--------|--------|--------|--------|--------|
B|--------|--------|--------|--------|--------|--------|--------|--------|--------|
G|--------|--------|--------|--------|--------|--------|--------|--------|--------|
D|--------|--------|--------|--------|--------|--------|--------|--------|--------|
A|--------|--------|--------|--------|--------|--------|--------|--------|--------|
E|--------|--------|--------|--------|--------|--------|--------|--------|--------|


E|--------|--------|--------|--------|--------|--------|--------|--------|--------|
B|--------|--------|--------|--------|--------|--------|--------|--------|--------|
G|--------|--------|--------|--------|--------|--------|--------|--------|--------|
D|--------|--------|--------|--------|--------|--------|--------|--------|--------|
A|--------|--------|--------|--------|--------|--------|--------|--------|--------|
E|--------|--------|--------|--------|--------|--------|--------|--------|--------|


E|--------|--------|--------|--------|--------|--------|--------|--------|--------|
B|--------|--------|--------|--------|--------|--------|--------|--------|--------|
G|--------|--------|--------|--------|--------|--------|--------|--------|--------|
D|--------|--------|--------|--------|--------|--------|--------|--------|--------|
A|--------|--------|--------|--------|--------|--------|--------|--------|--------|
E|--------|--------|--------|--------|--------|--------|--------|--------|--------|


E|--------|--------|--------|--------|--------|--------|--------|--------|--------|
B|--------|--------|--------|--------|--------|--------|--------|--------|--------|
G|--------|--------|--------|--------|--------|--------|--------|--------|--------|
D|--------|--------|--------|--------|--------|--------|--------|--------|--------|
A|--------|--------|--------|--------|--------|--------|--------|--------|--------|
E|--------|--------|--------|--------|--------|--------|--------|--------|--------|


E|--------|--------|--------|--------|--------|--------|--------|--------|--------|
B|--------|--------|--------|--------|--------|--------|--------|--------|--------|
G|--------|--------|--------|--------|--------|--------|--------|--------|--------|
D|--------|--------|--------|--------|--------|--------|--------|--------|--------|
A|--------|--------|--------|--------|--------|--------|--------|--------|--------|
E|--------|--------|--------|--------|--------|--------|--------|--------|--------|


E|--------|--------|--------|--------|--------|--------|--------|--------|
B|--------|--------|--------|--------|--------|--------|--------|--------|
G|--------|--------|--------|--------|--------|--------|--------|--------|
D|--------|--------|--------|--------|--------|--------|--------|--------|
A|--------|--------|--------|--------|--------|--------|--------|--------|
E|--------|--------|--------|--------|--------|--------|--------|--------|





Track 3: Lead w/ Tremolo

E|--------|--------|--------|--------|--------|--------|--------|--------|--------|
B|--------|--------|--------|--------|--------|--------|--------|--------|--------|
G|--------|--------|--------|--------|--------|--------|--------|--------|--------|
D|--------|--------|--------|--------|--------|--------|--------|--------|--------|
A|--------|--------|--------|--------|--------|--------|--------|--------|--------|
E|--------|--------|--------|--------|--------|--------|--------|--------|--------|


E|--------|--------|--------|--------|--------|--------|--------|--------|--------|
B|--------|--------|--------|--------|--------|--------|--------|--------|--------|
G|--------|--------|--------|--------|--------|--------|--------|--------|--------|
D|--------|--------|--------|--------|--------|--------|--------|--------|--------|
A|--------|--------|--------|--------|--------|--------|--------|--------|--------|
E|--------|--------|--------|--------|--------|--------|--------|--------|--------|


E|--------|--------|--------|--------|--------|--------|--------|--------|--------|
B|--------|--------|--------|--------|--------|--------|--------|--------|--------|
G|--------|--------|--------|--------|--------|--------|--------|--------|--------|
D|--------|--------|--------|--------|--------|--------|--------|--------|--------|
A|--------|--------|--------|--------|--------|--------|--------|--------|--------|
E|--------|--------|--------|--------|--------|--------|--------|--------|--------|


E|--------|--------|--------|--------|--------|--------|--------|--------|--------|
B|--------|--------|--------|--------|--------|--------|--------|--------|--------|
G|--------|--------|--------|--------|--------|--------|--------|--------|--------|
D|--------|--------|--------|--------|--------|--------|--------|--------|--------|
A|--------|--------|--------|--------|--------|--------|--------|--------|--------|
E|--------|--------|--------|--------|--------|--------|--------|--------|--------|


E|--------|--------|--------|--------|-3------|-1------|--------|--------|-3------|
B|--------|--------|--------|--------|-3------|-1------|--------|--------|-3------|
G|--------|--------|--------|--------|-4------|-2------|--------|--------|-4------|
D|--------|--------|--------|--------|-5------|-3------|--------|--------|-5------|
A|--------|--------|--------|--------|-5------|-3------|-0------|-0------|-5------|
E|--------|--------|--------|--------|-3------|-1------|--------|--------|-3------|


E|-1------|--------|--------|-3------|-1------|--------|--------|-3------|-1------|
B|-1------|--------|--------|-3------|-1------|--------|--------|-3------|-1------|
G|-2------|--------|--------|-4------|-2------|--------|--------|-4------|-2------|
D|-3------|--------|--------|-5------|-3------|--------|--------|-5------|-3------|
A|-3------|-0------|-0------|-5------|-3------|-0------|-0------|-5------|-3------|
E|-1------|--------|--------|-3------|-1------|--------|--------|-3------|-1------|


E|---------------------|---------------------|----------------3----|-3------|---------------------|
B|---------------------|---------------------|----------------3----|-3------|---------------------|
G|---------------------|---------------------|----------------0----|-0------|---------------------|
D|-----------2---------|-2-----0---2----5----|-0--------------0----|-0------|-----------2---------|
A|-0-----3--------3----|---------------------|-------3---2----2----|-2------|-0-----3--------3----|
E|---------------------|---------------------|----------------3----|-3------|---------------------|


E|---------------------|----------------3----|-3------|-3------|-1------|--------|
B|---------------------|----------------3----|-3------|-3------|-1------|--------|
G|---------------------|----------------0----|-0------|-4------|-2------|--------|
D|-2-----0---2----5----|-0--------------0----|-0------|-5------|-3------|--------|
A|---------------------|-------3---2----2----|-2------|-5------|-3------|-0------|
E|---------------------|----------------3----|-3------|-3------|-1------|--------|


E|--------|-3------|-1------|-------------|--------|-3------|-1------|--------|--------|
B|--------|-3------|-1------|-------------|--------|-3------|-1------|--------|--------|
G|--------|-4------|-2------|-------------|--------|-4------|-2------|--------|--------|
D|--------|-5------|-3------|-------------|--------|-5------|-3------|--------|--------|
A|-0------|-5------|-3------|-0------0----|-0------|-5------|-3------|-0------|-0------|
E|--------|-3------|-1------|-------------|--------|-3------|-1------|--------|--------|


E|-3------|-1------|--------|--------|--------|--------|--------|--------|--------|
B|-3------|-1------|--------|--------|--------|--------|--------|--------|--------|
G|-4------|-2------|--------|--------|--------|--------|--------|--------|--------|
D|-5------|-3------|--------|--------|--------|--------|--------|--------|--------|
A|-5------|-3------|--------|--------|--------|--------|--------|--------|--------|
E|-3------|-1------|--------|--------|--------|--------|--------|--------|--------|


E|--------|---------------------|---------------------|----------------3----|-3------|
B|--------|---------------------|---------------------|----------------3----|-3------|
G|--------|---------------------|---------------------|----------------0----|-0------|
D|--------|-----------2---------|-2-----0---2----5----|-0--------------0----|-0------|
A|--------|-0-----3--------3----|---------------------|-------3---2----2----|-2------|
E|--------|---------------------|---------------------|----------------3----|-3------|


E|---------------------|---------------------|-----------------|--------|--------|
B|---------------------|---------------------|-----------------|--------|--------|
G|---------------------|---------------------|-----------------|--------|--------|
D|-----------2---------|-2-----0---2----5----|-0---------------|--------|--------|
A|-0-----3--------3----|---------------------|-------3---2-----|-2------|-0------|
E|---------------------|---------------------|-----------------|--------|--------|


E|--------|--------|--------|--------|--------|--------|--------|--------|--------|
B|--------|--------|--------|--------|--------|--------|--------|--------|--------|
G|--------|--------|--------|--------|--------|--------|--------|--------|--------|
D|--------|--------|--------|--------|--------|--------|--------|--------|--------|
A|-0------|--------|--------|--------|--------|--------|--------|-0------|-0------|
E|--------|--------|--------|--------|--------|--------|--------|--------|--------|


E|--------|--------|--------|--------|--------|--------|-3------|-1------|--------|
B|--------|--------|--------|--------|--------|--------|-3------|-1------|--------|
G|--------|--------|--------|--------|--------|--------|-4------|-2------|--------|
D|--------|--------|--------|--------|--------|--------|-5------|-3------|--------|
A|--------|--------|--------|--------|--------|--------|-5------|-3------|-0------|
E|--------|--------|--------|--------|--------|--------|-3------|-1------|--------|


E|--------|-3------|-1------|-------------|--------|-3------|-1------|--------|--------|
B|--------|-3------|-1------|-------------|--------|-3------|-1------|--------|--------|
G|--------|-4------|-2------|-------------|--------|-4------|-2------|--------|--------|
D|--------|-5------|-3------|-------------|--------|-5------|-3------|--------|--------|
A|-0------|-5------|-3------|-0------0----|-0------|-5------|-3------|-0------|-0------|
E|--------|-3------|-1------|-------------|--------|-3------|-1------|--------|--------|


E|-3------|-1------|--------|--------|-3------|-1------|--------|--------|-3------|
B|-3------|-1------|--------|--------|-3------|-1------|--------|--------|-3------|
G|-4------|-2------|--------|--------|-4------|-2------|--------|--------|-4------|
D|-5------|-3------|--------|--------|-5------|-3------|--------|--------|-5------|
A|-5------|-3------|-0------|-0------|-5------|-3------|-0------|-0------|-5------|
E|-3------|-1------|--------|--------|-3------|-1------|--------|--------|-3------|


E|-1------|--------|--------|-3------|-1------|--------|--------|-3------|-1------|
B|-1------|--------|--------|-3------|-1------|--------|--------|-3------|-1------|
G|-2------|--------|--------|-4------|-2------|--------|--------|-4------|-2------|
D|-3------|--------|--------|-5------|-3------|--------|--------|-5------|-3------|
A|-3------|-0------|-0------|-5------|-3------|-0------|-0------|-5------|-3------|
E|-1------|--------|--------|-3------|-1------|--------|--------|-3------|-1------|


E|-0------|-0------|-0------|-0------|-0------|
B|-1------|-1------|-1------|-1------|-1------|
G|-2------|-2------|-2------|-2------|-2------|
D|-2------|-2------|-2------|-2------|-2------|
A|-0------|-0------|-0------|-0------|-0------|
E|--------|--------|--------|--------|--------|





Track 4: Untitled

G|--------|--------|--------|--------|--------|--------|--------|--------|--------|
D|--------|--------|--------|--------|--------|--------|--------|--------|--------|
A|--------|--------|--------|--------|--------|--------|--------|--------|--------|
E|--------|--------|--------|--------|--------|--------|--------|--------|--------|


G|--------|--------|--------|--------|--------|--------|--------|--------|--------|
D|--------|--------|--------|--------|--------|--------|--------|--------|--------|
A|--------|--------|--------|--------|--------|--------|--------|--------|--------|
E|--------|--------|--------|--------|--------|--------|--------|--------|--------|


G|--------|--------|--------|--------|--------|--------|--------|--------|--------|
D|--------|--------|--------|--------|--------|--------|--------|--------|--------|
A|--------|--------|--------|--------|--------|--------|--------|--------|--------|
E|--------|--------|--------|--------|--------|--------|--------|--------|--------|


G|--------|--------|--------|--------|--------|--------|--------|--------|--------|
D|--------|--------|--------|--------|--------|--------|--------|--------|--------|
A|--------|--------|--------|--------|--------|--------|--------|--------|--------|
E|--------|--------|--------|--------|--------|--------|--------|--------|--------|


G|--------|--------|--------|--------|--------|--------|--------|--------|--------|
D|--------|--------|--------|--------|--------|--------|--------|--------|--------|
A|--------|--------|--------|--------|--------|--------|--------|--------|--------|
E|--------|--------|--------|--------|--------|--------|--------|--------|--------|


G|--------|--------|--------|--------|--------|--------|--------|--------|--------|
D|--------|--------|--------|--------|--------|--------|--------|--------|--------|
A|--------|--------|--------|--------|--------|--------|--------|--------|--------|
E|--------|--------|--------|--------|--------|--------|--------|--------|--------|


G|--------|--------|--------|--------|--------|--------|--------|--------|--------|
D|--------|--------|--------|--------|--------|--------|--------|--------|--------|
A|--------|--------|--------|--------|--------|--------|--------|--------|--------|
E|--------|--------|--------|--------|--------|--------|--------|--------|--------|


G|--------|--------|--------|--------|--------|--------|--------|--------|--------|
D|--------|--------|--------|--------|--------|--------|--------|--------|--------|
A|--------|--------|--------|--------|--------|--------|--------|--------|--------|
E|--------|--------|--------|--------|--------|--------|--------|--------|--------|


G|--------|--------|--------|--------|--------|--------|--------|--------|--------|
D|--------|--------|--------|--------|--------|--------|--------|--------|--------|
A|--------|--------|--------|--------|--------|--------|--------|--------|--------|
E|--------|--------|--------|--------|--------|--------|--------|--------|--------|


G|--------|--------|--------|--------|--------|--------|--------|--------|--------|
D|--------|--------|--------|--------|--------|--------|--------|--------|--------|
A|--------|--------|--------|--------|--------|--------|--------|--------|--------|
E|--------|--------|--------|--------|--------|--------|--------|--------|--------|


G|--------|--------|--------|--------|--------|--------|--------|--------|--------|
D|--------|--------|--------|--------|--------|--------|--------|--------|--------|
A|--------|--------|--------|--------|--------|--------|--------|--------|--------|
E|--------|--------|--------|--------|--------|--------|--------|--------|--------|


G|--------|--------|--------|--------|--------|--------|--------|--------|--------|
D|--------|--------|--------|--------|--------|--------|--------|--------|--------|
A|--------|--------|--------|--------|--------|--------|--------|--------|--------|
E|--------|--------|--------|--------|--------|--------|--------|--------|--------|


G|--------|--------|--------|--------|--------|--------|--------|--------|--------|
D|--------|--------|--------|--------|--------|--------|--------|--------|--------|
A|--------|--------|--------|--------|--------|--------|--------|--------|--------|
E|--------|--------|--------|--------|--------|--------|--------|--------|--------|


G|--------|--------|--------|--------|--------|--------|--------|--------|--------|
D|--------|--------|--------|--------|--------|--------|--------|--------|--------|
A|--------|--------|--------|--------|--------|--------|--------|--------|--------|
E|--------|--------|--------|--------|--------|--------|--------|--------|--------|


G|--------|--------|--------|--------|--------|--------|--------|--------|--------|
D|--------|--------|--------|--------|--------|--------|--------|--------|--------|
A|--------|--------|--------|--------|--------|--------|--------|--------|--------|
E|--------|--------|--------|--------|--------|--------|--------|--------|--------|


G|--------|--------|--------|--------|--------|--------|--------|--------|
D|--------|--------|--------|--------|--------|--------|--------|--------|
A|--------|--------|--------|--------|--------|--------|--------|--------|
E|--------|--------|--------|--------|--------|--------|--------|--------|