Site menu:

    

Browse: 0-9 A B C D E F G H I J K L N O P Q R S T U V W X Y Z

zemfira - do svidaniya:



Title: Do Svidaniya
Artist: 
Album: Do Svidaniya
Author: Zemfira Ramazanova


Track 1: Distortion Gtr.

E|--------|--------|--------|--------|--------|--------|--------|--------|--------|
B|--------|--------|--------|--------|--------|--------|--------|--------|--------|
G|--------|--------|--------|--------|--------|--------|--------|--------|--------|
D|--------|--------|--------|--------|--------|--------|--------|--------|--------|
A|--------|--------|--------|--------|--------|--------|--------|--------|--------|
E|--------|--------|--------|--------|--------|--------|--------|--------|--------|


E|--------|--------|--------|--------|--------|--------|--------|--------|--------|
B|--------|--------|--------|--------|--------|--------|--------|--------|--------|
G|--------|--------|--------|--------|--------|--------|--------|--------|--------|
D|--------|--------|--------|--------|--------|--------|--------|--------|--------|
A|--------|--------|--------|--------|--------|--------|--------|--------|--------|
E|--------|--------|--------|--------|--------|--------|--------|--------|--------|


E|-----5---5---5---0---5---5---5---|-5-------5---5---7---7-------7---|-8-------8---8---8---8-------8---|
B|-----5---5---5---0---5---5---5---|-6-------6---6---8---8-------8---|-8-------8---8---8---8-------8---|
G|-----5---5---5---0---5---5---5---|-5-------5---5---7---7-------7---|-9-------9---9---9---9-------9---|
D|---------------------------------|---------------------------------|---------------------------------|
A|---------------------------------|---------------------------------|---------------------------------|
E|---------------------------------|---------------------------------|---------------------------------|


E|-5-------5---5---4---4-------4---|-8-------8---8---8---8-------8---|-6-------6---6---8---8-------8---|
B|-6-------6---6---5---5-------5---|-10------10--10--10--10------10--|-8-------8---8---8---8-------8---|
G|-7-------7---7---4---4-------4---|-9-------9---9---9---9-------9---|-7-------7---7---9---9-------9---|
D|---------------------------------|---------------------------------|---------------------------------|
A|---------------------------------|---------------------------------|---------------------------------|
E|---------------------------------|---------------------------------|---------------------------------|


E|-8-------8---8---8---8-------8---|-4-------4---4---4---4-------4---|-----5---5---5---0---5---5---5---|
B|-10------10--10--10--10------10--|-5-------5---5---5---5-------5---|-----5---5---5---0---5---5---5---|
G|-10------10--10--10--10------10--|-4-------4---4---4---4-------4---|-----5---5---5---0---5---5---5---|
D|---------------------------------|---------------------------------|---------------------------------|
A|---------------------------------|-----------------2---------------|---------------------------------|
E|---------------------------------|-----0---4---0-------0---4---0---|---------------------------------|


E|-5-------5---5---7---7-------7---|-8-------8---8---8---8-------8---|-5-------5---5---4---4-------4---|
B|-6-------6---6---8---8-------8---|-8-------8---8---8---8-------8---|-6-------6---6---5---5-------5---|
G|-5-------5---5---7---7-------7---|-9-------9---9---9---9-------9---|-7-------7---7---4---4-------4---|
D|---------------------------------|---------------------------------|---------------------------------|
A|---------------------------------|---------------------------------|---------------------------------|
E|---------------------------------|---------------------------------|---------------------------------|


E|-8-------8---8---8---8-------8---|-6-------6---6---8---8-------8---|-8-------8---8---8---8-------8---|
B|-10------10--10--10--10------10--|-8-------8---8---8---8-------8---|-10------10--10--10--10------10--|
G|-9-------9---9---9---9-------9---|-7-------7---7---9---9-------9---|-10------10--10--10--10------10--|
D|---------------------------------|---------------------------------|---------------------------------|
A|---------------------------------|---------------------------------|---------------------------------|
E|---------------------------------|---------------------------------|---------------------------------|


E|-4-------4---4---4---4-------4---|-2-------2---2---2---2-------2---|-----------------5---4-------4---|
B|-5-------5---5---5---5-------5---|-3-------3---3---3---3-------3---|-5-------5---5---5---5-------5---|
G|-4-------4---4---4---4-------4---|-4-------4---4---4---4-------4---|-4-------4---4---4---4-------4---|
D|---------------------------------|---------------------------------|-6-------6---6-------------------|
A|-----------------2---------------|---------------------------------|---------------------------------|
E|-----0---4---0-------0---4---0---|---------------------------------|---------------------------------|


E|-5-------5---5---5---5-------5---|-2-------2---2---3---2-------2---|-5-------5---5---5---5-------5---|
B|-5-------5---5---5---5-------5---|-3-------3---3---3---3-------3---|-6-------6---6---6---6-------6---|
G|-5-------5---5---5---5-------5---|-2-------2---2---2---2-------2---|-7-------7---7---7---7-------7---|
D|---------------------------------|---------------------------------|---------------------------------|
A|---------------------------------|---------------------------------|---------------------------------|
E|---------------------------------|---------------------------------|---------------------------------|


E|-3-------3---3---3---3-------3---|-8-------8---8---8---8-------8---|-5-------5---5---5---5-------5---|
B|-3-------3---3---3---3-------3---|-8-------8---8---8---8-------8---|-6-------6---6---6---6-------6---|
G|-4-------4---4---4---4-------4---|-9-------9---9---9---9-------9---|-5-------5---5---5---5-------5---|
D|---------------------------------|---------------------------------|---------------------------------|
A|---------------------------------|---------------------------------|---------------------------------|
E|---------------------------------|---------------------------------|---------------------------------|


E|-2-------2---2---2---2-------2---|-----------------5---4-------4---|-5-------5---5---5---5-------5---|
B|-3-------3---3---3---3-------3---|-5-------5---5---5---5-------5---|-5-------5---5---5---5-------5---|
G|-4-------4---4---4---4-------4---|-4-------4---4---4---4-------4---|-5-------5---5---5---5-------5---|
D|---------------------------------|-6-------6---6-------------------|---------------------------------|
A|---------------------------------|---------------------------------|---------------------------------|
E|---------------------------------|---------------------------------|---------------------------------|


E|-2-------2---2---3---2-------2---|-5-------5---5---5---5-------5---|-3-------3---3---3---3-------3---|
B|-3-------3---3---3---3-------3---|-6-------6---6---6---6-------6---|-3-------3---3---3---3-------3---|
G|-2-------2---2---2---2-------2---|-7-------7---7---7---7-------7---|-4-------4---4---4---4-------4---|
D|---------------------------------|---------------------------------|---------------------------------|
A|---------------------------------|---------------------------------|---------------------------------|
E|---------------------------------|---------------------------------|---------------------------------|


E|-8-------8---8---8---8-------8---|-5-------5---5---5---5-------5---|---------------------------------|
B|-8-------8---8---8---8-------8---|-6-------6---6---6---6-------6---|---------------------------------|
G|-9-------9---9---9---9-------9---|-5-------5---5---5---5-------5---|---------------------------------|
D|---------------------------------|---------------------------------|-9---9---9---9---9---9---9---9---|
A|---------------------------------|---------------------------------|-5---5---5---5---5---5---5---5---|
E|---------------------------------|---------------------------------|---------------------------------|


E|---------------------------------|-----5---5---5---0---5---5---5---|-5-------5---5---7---7-------7---|
B|---------------------------------|-----5---5---5---0---5---5---5---|-6-------6---6---8---8-------8---|
G|---------------------------------|-----5---5---5---0---5---5---5---|-5-------5---5---7---7-------7---|
D|---------------------------------|---------------------------------|---------------------------------|
A|-----7-------7-------7-------7---|---------------------------------|---------------------------------|
E|---------------------------------|---------------------------------|---------------------------------|


E|-8-------8---8---8---8-------8---|-5-------5---5---4---4-------4---|-8-------8---8---8---8-------8---|
B|-8-------8---8---8---8-------8---|-6-------6---6---5---5-------5---|-10------10--10--10--10------10--|
G|-9-------9---9---9---9-------9---|-7-------7---7---4---4-------4---|-9-------9---9---9---9-------9---|
D|---------------------------------|---------------------------------|---------------------------------|
A|---------------------------------|---------------------------------|---------------------------------|
E|---------------------------------|---------------------------------|---------------------------------|


E|-6-------6---6---8---8-------8---|-8-------8---8---8---8-------8---|-4-------4---4---4---4-------4---|
B|-8-------8---8---8---8-------8---|-10------10--10--10--10------10--|-5-------5---5---5---5-------5---|
G|-7-------7---7---9---9-------9---|-10------10--10--10--10------10--|-4-------4---4---4---4-------4---|
D|---------------------------------|---------------------------------|---------------------------------|
A|---------------------------------|---------------------------------|-----------------2---------------|
E|---------------------------------|---------------------------------|-----0---4---0-------0---4---0---|


E|-----5---5---5---0---5---5---5---|-5-------5---5---7---7-------7---|-8-------8---8---8---8-------8---|
B|-----5---5---5---0---5---5---5---|-6-------6---6---8---8-------8---|-8-------8---8---8---8-------8---|
G|-----5---5---5---0---5---5---5---|-5-------5---5---7---7-------7---|-9-------9---9---9---9-------9---|
D|---------------------------------|---------------------------------|---------------------------------|
A|---------------------------------|---------------------------------|---------------------------------|
E|---------------------------------|---------------------------------|---------------------------------|


E|-5-------5---5---4---4-------4---|-8-------8---8---8---8-------8---|-6-------6---6---8---8-------8---|
B|-6-------6---6---5---5-------5---|-10------10--10--10--10------10--|-8-------8---8---8---8-------8---|
G|-7-------7---7---4---4-------4---|-9-------9---9---9---9-------9---|-7-------7---7---9---9-------9---|
D|---------------------------------|---------------------------------|---------------------------------|
A|---------------------------------|---------------------------------|---------------------------------|
E|---------------------------------|---------------------------------|---------------------------------|


E|-8-------8---8---8---8-------8---|-4-------4---4---4---4-------4---|---------------------------|
B|-10------10--10--10--10------10--|-5-------5---5---5---5-------5---|---------------------------|
G|-10------10--10--10--10------10--|-4-------4---4---4---4-------4---|---------------------------|
D|---------------------------------|---------------------------------|---------------------------|
A|---------------------------------|-----------------2---------------|-0----3---0---5----3---0---|
E|---------------------------------|-----0---4---0-------0---4---0---|---------------------------|


E|---------------------------------|------------------------------|---------------------------|
B|---------------------------------|------------------------------|---------------------------|
G|---------------------------------|------------------------------|---------------------------|
D|---------------------------------|------------------------------|-----2---2-----------------|
A|-5---3---0-----------------------|-0----3---0---5---3---0---5---|---------------------------|
E|-------------0---0---0---3---4---|------------------------------|---------------0---3---4---|


E|---------------------------|---------------------------------|------------------------------|
B|---------------------------|---------------------------------|------------------------------|
G|---------------------------|---------------------------------|------------------------------|
D|---------------------------|---------------------------------|------------------------------|
A|-0----3---0---5----3---0---|-5---3---0-----------------------|-0----3---0---5---3---0---5---|
E|---------------------------|-------------0---0---0---3---4---|------------------------------|


E|----------------|--------|--------|--------|--------|-----5---5---5---0---5---5---5---|
B|----------------|--------|--------|--------|--------|-----5---5---5---0---5---5---5---|
G|----------------|--------|--------|--------|--------|-----5---5---5---0---5---5---5---|
D|-----2---2------|--------|--------|--------|--------|---------------------------------|
A|----------------|--------|--------|--------|--------|---------------------------------|
E|----------------|--------|--------|--------|--------|---------------------------------|


E|-5-------5---5---7---7-------7---|-8-------8---8---8---8-------8---|-5-------5---5---4---4-------4---|
B|-6-------6---6---8---8-------8---|-8-------8---8---8---8-------8---|-6-------6---6---5---5-------5---|
G|-5-------5---5---7---7-------7---|-9-------9---9---9---9-------9---|-7-------7---7---4---4-------4---|
D|---------------------------------|---------------------------------|---------------------------------|
A|---------------------------------|---------------------------------|---------------------------------|
E|---------------------------------|---------------------------------|---------------------------------|


E|-8-------8---8---8---8-------8---|-6-------6---6---8---8-------8---|-8-------8---8---8---8-------8---|
B|-10------10--10--10--10------10--|-8-------8---8---8---8-------8---|-10------10--10--10--10------10--|
G|-9-------9---9---9---9-------9---|-7-------7---7---9---9-------9---|-10------10--10--10--10------10--|
D|---------------------------------|---------------------------------|---------------------------------|
A|---------------------------------|---------------------------------|---------------------------------|
E|---------------------------------|---------------------------------|---------------------------------|


E|-4-------4---4---4---4-------4---|-----5---5---5---0---5---5---5---|-5-------5---5---7---7-------7---|
B|-5-------5---5---5---5-------5---|-----5---5---5---0---5---5---5---|-6-------6---6---8---8-------8---|
G|-4-------4---4---4---4-------4---|-----5---5---5---0---5---5---5---|-5-------5---5---7---7-------7---|
D|---------------------------------|---------------------------------|---------------------------------|
A|-----------------2---------------|---------------------------------|---------------------------------|
E|-----0---4---0-------0---4---0---|---------------------------------|---------------------------------|


E|-8-------8---8---8---8-------8---|-5-------5---5---4---4-------4---|-8-------8---8---8---8-------8---|
B|-8-------8---8---8---8-------8---|-6-------6---6---5---5-------5---|-10------10--10--10--10------10--|
G|-9-------9---9---9---9-------9---|-7-------7---7---4---4-------4---|-9-------9---9---9---9-------9---|
D|---------------------------------|---------------------------------|---------------------------------|
A|---------------------------------|---------------------------------|---------------------------------|
E|---------------------------------|---------------------------------|---------------------------------|


E|-6-------6---6---8---8-------8---|-8-------8---8---8---8-------8---|-4-------4---4---4---4-------4---|
B|-8-------8---8---8---8-------8---|-10------10--10--10--10------10--|-5-------5---5---5---5-------5---|
G|-7-------7---7---9---9-------9---|-10------10--10--10--10------10--|-4-------4---4---4---4-------4---|
D|---------------------------------|---------------------------------|---------------------------------|
A|---------------------------------|---------------------------------|-----------------2---------------|
E|---------------------------------|---------------------------------|-----0---4---0-------0---4---0---|


E|-----5---5---5---0---5---5---5---|-5-------5---5---7---7-------7---|-8-------8---8---8---8-------8---|
B|-----5---5---5---0---5---5---5---|-6-------6---6---8---8-------8---|-8-------8---8---8---8-------8---|
G|-----5---5---5---0---5---5---5---|-5-------5---5---7---7-------7---|-9-------9---9---9---9-------9---|
D|---------------------------------|---------------------------------|---------------------------------|
A|---------------------------------|---------------------------------|---------------------------------|
E|---------------------------------|---------------------------------|---------------------------------|


E|-5-------5---5---4---4-------4---|-8-------8---8---8---8-------8---|-6-------6---6---8---8-------8---|
B|-6-------6---6---5---5-------5---|-10------10--10--10--10------10--|-8-------8---8---8---8-------8---|
G|-7-------7---7---4---4-------4---|-9-------9---9---9---9-------9---|-7-------7---7---9---9-------9---|
D|---------------------------------|---------------------------------|---------------------------------|
A|---------------------------------|---------------------------------|---------------------------------|
E|---------------------------------|---------------------------------|---------------------------------|


E|-8-------8---8---8---8-------8---|-4-------4---4---4---4-------4---|-----5---5---5---0---5---5---5---|
B|-10------10--10--10--10------10--|-5-------5---5---5---5-------5---|-----5---5---5---0---5---5---5---|
G|-10------10--10--10--10------10--|-4-------4---4---4---4-------4---|-----5---5---5---0---5---5---5---|
D|---------------------------------|---------------------------------|---------------------------------|
A|---------------------------------|-----------------2---------------|---------------------------------|
E|---------------------------------|-----0---4---0-------0---4---0---|---------------------------------|


E|-5-------5---5---7---7-------7---|-8-------8---8---8---8-------8---|-5-------5---5---4---4-------4---|
B|-6-------6---6---8---8-------8---|-8-------8---8---8---8-------8---|-6-------6---6---5---5-------5---|
G|-5-------5---5---7---7-------7---|-9-------9---9---9---9-------9---|-7-------7---7---4---4-------4---|
D|---------------------------------|---------------------------------|---------------------------------|
A|---------------------------------|---------------------------------|---------------------------------|
E|---------------------------------|---------------------------------|---------------------------------|


E|-8-------8---8---8---8-------8---|-6-------6---6---8---8-------8---|-8-------8---8---8---8-------8---|
B|-10------10--10--10--10------10--|-8-------8---8---8---8-------8---|-10------10--10--10--10------10--|
G|-9-------9---9---9---9-------9---|-7-------7---7---9---9-------9---|-10------10--10--10--10------10--|
D|---------------------------------|---------------------------------|---------------------------------|
A|---------------------------------|---------------------------------|---------------------------------|
E|---------------------------------|---------------------------------|---------------------------------|


E|-4-------4---4---4---4-------4---|--------|--------|--------|--------|--------|--------|
B|-5-------5---5---5---5-------5---|--------|--------|--------|--------|--------|--------|
G|-4-------4---4---4---4-------4---|--------|--------|--------|--------|--------|--------|
D|---------------------------------|--------|--------|--------|--------|--------|--------|
A|-----------------2---------------|--------|--------|--------|--------|--------|--------|
E|-----0---4---0-------0---4---0---|--------|--------|--------|--------|--------|--------|


E|--------|--------|--------|--------|--------|--------|
B|--------|--------|--------|--------|--------|--------|
G|--------|--------|--------|--------|--------|--------|
D|--------|--------|--------|--------|--------|--------|
A|--------|--------|--------|--------|--------|--------|
E|--------|--------|--------|--------|--------|--------|





Track 2: Organ

E|--------|--------|--------|--------|--------|--------|--------|--------|--------|
B|--------|--------|--------|--------|--------|--------|--------|--------|--------|
G|--------|--------|--------|--------|--------|--------|--------|--------|--------|
D|--------|--------|--------|--------|--------|--------|--------|--------|--------|
A|--------|--------|--------|--------|--------|--------|--------|--------|--------|
E|--------|--------|--------|--------|--------|--------|--------|--------|--------|


E|--------|--------|--------|--------|--------|--------|--------|--------|--------|
B|--------|--------|--------|--------|--------|--------|--------|--------|--------|
G|--------|--------|--------|--------|--------|--------|--------|--------|--------|
D|--------|--------|--------|--------|--------|--------|--------|--------|--------|
A|--------|--------|--------|--------|--------|--------|--------|--------|--------|
E|--------|--------|--------|--------|--------|--------|--------|--------|--------|


E|--------|--------|--------|--------|--------|--------|--------|--------|--------|
B|--------|--------|--------|--------|--------|--------|--------|--------|--------|
G|--------|--------|--------|--------|--------|--------|--------|--------|--------|
D|--------|--------|--------|--------|--------|--------|--------|--------|--------|
A|--------|--------|--------|--------|--------|--------|--------|--------|--------|
E|--------|--------|--------|--------|--------|--------|--------|--------|--------|


E|--------|--------|--------|--------|--------|--------|--------|--------|--------|
B|--------|--------|--------|--------|--------|--------|--------|--------|--------|
G|--------|--------|--------|--------|--------|--------|--------|--------|--------|
D|--------|--------|--------|--------|--------|--------|--------|--------|--------|
A|--------|--------|--------|--------|--------|--------|--------|--------|--------|
E|--------|--------|--------|--------|--------|--------|--------|--------|--------|


E|--------|--------|--------|--------|--------|--------|--------|--------|--------|
B|--------|--------|--------|--------|--------|--------|--------|--------|--------|
G|--------|--------|--------|--------|--------|--------|--------|--------|--------|
D|--------|--------|--------|--------|--------|--------|--------|--------|--------|
A|--------|--------|--------|--------|--------|--------|--------|--------|--------|
E|--------|--------|--------|--------|--------|--------|--------|--------|--------|


E|--------|--------|--------|--------|--------|--------|--------|--------|--------|
B|--------|--------|--------|--------|--------|--------|--------|--------|--------|
G|--------|--------|--------|--------|--------|--------|--------|--------|--------|
D|--------|--------|--------|--------|--------|--------|--------|--------|--------|
A|--------|--------|--------|--------|--------|--------|--------|--------|--------|
E|--------|--------|--------|--------|--------|--------|--------|--------|--------|


E|--------|--------|--------|--------|--------|--------|--------|--------|--------|
B|--------|--------|--------|--------|--------|--------|--------|--------|--------|
G|--------|--------|--------|--------|--------|--------|--------|--------|--------|
D|--------|--------|--------|--------|--------|--------|--------|--------|--------|
A|--------|--------|--------|--------|--------|--------|--------|--------|--------|
E|--------|--------|--------|--------|--------|--------|--------|--------|--------|


E|--------|--------|--------|--------|--------|--------|--------|--------|--------|
B|--------|--------|--------|--------|--------|--------|--------|--------|--------|
G|--------|--------|--------|--------|--------|--------|--------|--------|--------|
D|--------|--------|--------|--------|--------|--------|--------|--------|--------|
A|--------|--------|--------|--------|--------|--------|--------|--------|--------|
E|--------|--------|--------|--------|--------|--------|--------|--------|--------|


E|--------|--------|--------|--------|--------|--------|--------|---------------19---|
B|--------|--------|--------|--------|--------|--------|--------|-------17--17-------|
G|--------|--------|--------|--------|--------|--------|--------|--------------------|
D|--------|--------|--------|--------|--------|--------|--------|--------------------|
A|--------|--------|--------|--------|--------|--------|--------|--------------------|
E|--------|--------|--------|--------|--------|--------|--------|--------------------|


E|-17-----|-15---------------------------|----------------|------------------------------|
B|--------|------18--17--17--15--15--18--|-18--17--17-----|-17---15------------------15--|
G|--------|------------------------------|----------------|----------17--17--16--16------|
D|--------|------------------------------|----------------|------------------------------|
A|--------|------------------------------|----------------|------------------------------|
E|--------|------------------------------|----------------|------------------------------|


E|----------------|---------------------------------|----------------|-------------------19---|
B|-15-------------|-----13--13--15--15--13--13------|----------------|-----------17--17-------|
G|-----17--17-----|-15--------------------------14--|-14-----14--13--|-13---------------------|
D|----------------|---------------------------------|----------------|------------------------|
A|----------------|---------------------------------|----------------|------------------------|
E|----------------|---------------------------------|----------------|------------------------|


E|-20-----|-20---19--22--22--19--19--20--|-20-----|-20---19--16--16--------------|
B|--------|------------------------------|--------|------------------18--18--17--|
G|--------|------------------------------|--------|------------------------------|
D|--------|------------------------------|--------|------------------------------|
A|--------|------------------------------|--------|------------------------------|
E|--------|------------------------------|--------|------------------------------|


E|--------|------------------------------|----------------|--------|--------|--------|
B|-17-----|-17---15--18--18--17--17------|----------------|--------|--------|--------|
G|--------|--------------------------17--|-17-----17--16--|-16-----|--------|--------|
D|--------|------------------------------|----------------|--------|--------|--------|
A|--------|------------------------------|----------------|--------|--------|--------|
E|--------|------------------------------|----------------|--------|--------|--------|


E|--------|--------|--------|--------|--------|--------|--------|--------|--------|
B|--------|--------|--------|--------|--------|--------|--------|--------|--------|
G|--------|--------|--------|--------|--------|--------|--------|--------|--------|
D|--------|--------|--------|--------|--------|--------|--------|--------|--------|
A|--------|--------|--------|--------|--------|--------|--------|--------|--------|
E|--------|--------|--------|--------|--------|--------|--------|--------|--------|


E|--------|--------|--------|--------|--------|--------|--------|--------|--------|
B|--------|--------|--------|--------|--------|--------|--------|--------|--------|
G|--------|--------|--------|--------|--------|--------|--------|--------|--------|
D|--------|--------|--------|--------|--------|--------|--------|--------|--------|
A|--------|--------|--------|--------|--------|--------|--------|--------|--------|
E|--------|--------|--------|--------|--------|--------|--------|--------|--------|


E|--------|--------|--------|--------|--------|--------|--------|--------|
B|--------|--------|--------|--------|--------|--------|--------|--------|
G|--------|--------|--------|--------|--------|--------|--------|--------|
D|--------|--------|--------|--------|--------|--------|--------|--------|
A|--------|--------|--------|--------|--------|--------|--------|--------|
E|--------|--------|--------|--------|--------|--------|--------|--------|





Track 3: Bass

G|--------|--------|--------|--------|--------|--------|--------|--------|--------|
D|--------|--------|--------|--------|--------|--------|--------|--------|--------|
A|--------|--------|--------|--------|--------|--------|--------|--------|--------|
E|--------|--------|--------|--------|--------|--------|--------|--------|--------|


G|--------|--------|--------|--------|--------|--------|--------|--------|-------------|
D|--------|--------|--------|--------|--------|--------|--------|--------|-------------|
A|--------|--------|--------|--------|--------|--------|--------|--------|-------------|
E|--------|--------|--------|--------|--------|--------|--------|--------|-------0-----|


G|-------------------------------|-------------------------------|-------------------------------|
D|-------------------------------|-------------------------------|-------------------------------|
A|-0----0-----0---0----0-----0---|-------------------------------|-3----3-----3---3----3-----3---|
E|-------------------------------|-1----1-----1---3----3-----3---|-------------------------------|


G|-------------------------------|-------------------------------|-------------------------------|
D|-------------------------------|-------------------------------|-------------------------------|
A|-5----5-----5------------------|-0----0-----0---0----0-----0---|----------------3----3-----3---|
E|----------------0----0-----0---|-------------------------------|-3----3-----3------------------|


G|-------------------------------|--------------------------|-------------------------------|
D|-------------------------------|--------------------------|-------------------------------|
A|-------------------------------|--------------------------|-0----0-----0---0----0-----0---|
E|-1----1-----1---1----1-----1---|-0----0-----0---0----4----|-------------------------------|


G|-------------------------------|-------------------------------|-------------------------------|
D|-------------------------------|-------------------------------|-------------------------------|
A|-------------------------------|-3----3-----3---3----3-----3---|-5----5-----5------------------|
E|-1----1-----1---3----3-----3---|-------------------------------|----------------0----0-----0---|


G|-------------------------------|-------------------------------|-------------------------------|
D|-------------------------------|-------------------------------|-------------------------------|
A|-0----0-----0---0----0-----0---|----------------3----3-----3---|-------------------------------|
E|-------------------------------|-3----3-----3------------------|-1----1-----1---1----1-----1---|


G|--------------------------|------------------------|------------------------|------------------------|
D|--------------------------|------------------------|------------------------|------------------------|
A|--------------------------|-2--------2---2---------|------------------------|-0--------0---0---------|
E|-0----0-----0---0----4----|------------------------|-0--------0---0---------|------------------------|


G|------------------------|------------------------|------------------------|------------------------|
D|-0--------0---0---------|-0--------0---0---------|------------------------|------------------------|
A|------------------------|------------------------|------------------------|-3--------3---3---------|
E|------------------------|------------------------|-3--------3---3---------|------------------------|


G|------------------------|------------------------|------------------------|------------------------|
D|------------------------|------------------------|------------------------|------------------------|
A|------------------------|-2--------2---2---------|------------------------|-0--------0---0---------|
E|-1--------1---1---------|------------------------|-0--------0---0---------|------------------------|


G|------------------------|------------------------|------------------------|------------------------|
D|-0--------0---0---------|-0--------0---0---------|------------------------|------------------------|
A|------------------------|------------------------|------------------------|-3--------3---3---------|
E|------------------------|------------------------|-3--------3---3---------|------------------------|


G|------------------------|---------------------------------|---------------------------------|
D|------------------------|---------------------------------|---------------------------------|
A|------------------------|-2-------2-------2-------2-------|---------------------------------|
E|-1--------1---1---------|---------------------------------|-----0-------0-------0-------4---|


G|-------------------------------|-------------------------------|-------------------------------|
D|-------------------------------|-------------------------------|-------------------------------|
A|-0----0-----0---0----0-----0---|-------------------------------|-3----3-----3---3----3-----3---|
E|-------------------------------|-1----1-----1---3----3-----3---|-------------------------------|


G|-------------------------------|-------------------------------|-------------------------------|
D|-------------------------------|-------------------------------|-------------------------------|
A|-5----5-----5------------------|-0----0-----0---0----0-----0---|----------------3----3-----3---|
E|----------------0----0-----0---|-------------------------------|-3----3-----3------------------|


G|-------------------------------|--------------------------|-------------------------------|
D|-------------------------------|--------------------------|-------------------------------|
A|-------------------------------|--------------------------|-0----0-----0---0----0-----0---|
E|-1----1-----1---1----1-----1---|-0----0-----0---0----4----|-------------------------------|


G|-------------------------------|-------------------------------|-------------------------------|
D|-------------------------------|-------------------------------|-------------------------------|
A|-------------------------------|-3----3-----3---3----3-----3---|-5----5-----5------------------|
E|-1----1-----1---3----3-----3---|-------------------------------|----------------0----0-----0---|


G|-------------------------------|-------------------------------|-------------------------------|
D|-------------------------------|-------------------------------|-------------------------------|
A|-0----0-----0---0----0-----0---|----------------3----3-----3---|-------------------------------|
E|-------------------------------|-3----3-----3------------------|-1----1-----1---1----1-----1---|


G|--------------------------|---------------------------|---------------------------------|
D|--------------------------|---------------------------|---------------------------------|
A|--------------------------|-0----3---0---5----3---0---|-5---3---0-----------------------|
E|-0----0-----0---0----4----|---------------------------|-------------0---0---0---3---4---|


G|------------------------------|---------------------------|---------------------------|
D|------------------------------|---------------------------|---------------------------|
A|-0----3---0---5---3---0---5---|---------------------------|-0----3---0---5----3---0---|
E|------------------------------|-----0---0-----0---3---4---|---------------------------|


G|---------------------------------|------------------------------|----------------|
D|---------------------------------|------------------------------|----------------|
A|-5---3---0-----------------------|-0----3---0---5---3---0---5---|----------------|
E|-------------0---0---0---3---4---|------------------------------|-----0---0------|


G|---------------------------------|---------------------------------|---------------------------------|
D|---------------------------------|---------------------------------|---------------------------------|
A|---------------------------------|---------------------------------|---------------------------------|
E|-3---3---3---3---3---3---3---3---|-2---2---2---2---2---2---2---2---|-1---1---1---1---1---1---1---1---|


G|---------------------------------|-------------------------------|-------------------------------|
D|---------------------------------|-------------------------------|-------------------------------|
A|---------------------------------|-0----0-----0---0----0-----0---|-------------------------------|
E|-----0-------0-------3-------4---|-------------------------------|-1----1-----1---3----3-----3---|


G|-------------------------------|-------------------------------|-------------------------------|
D|-------------------------------|-------------------------------|-------------------------------|
A|-3----3-----3---3----3-----3---|-5----5-----5------------------|-0----0-----0---0----0-----0---|
E|-------------------------------|----------------0----0-----0---|-------------------------------|


G|-------------------------------|-------------------------------|--------------------------|
D|-------------------------------|-------------------------------|--------------------------|
A|----------------3----3-----3---|-------------------------------|--------------------------|
E|-3----3-----3------------------|-1----1-----1---1----1-----1---|-0----0-----0---0----4----|


G|-------------------------------|-------------------------------|-------------------------------|
D|-------------------------------|-------------------------------|-------------------------------|
A|-0----0-----0---0----0-----0---|-------------------------------|-3----3-----3---3----3-----3---|
E|-------------------------------|-1----1-----1---3----3-----3---|-------------------------------|


G|-------------------------------|-------------------------------|-------------------------------|
D|-------------------------------|-------------------------------|-------------------------------|
A|-5----5-----5------------------|-0----0-----0---0----0-----0---|----------------3----3-----3---|
E|----------------0----0-----0---|-------------------------------|-3----3-----3------------------|


G|-------------------------------|--------------------------|-------------------------------|
D|-------------------------------|--------------------------|-------------------------------|
A|-------------------------------|--------------------------|-0----0-----0---0----0-----0---|
E|-1----1-----1---1----1-----1---|-0----0-----0---0----4----|-------------------------------|


G|-------------------------------|-------------------------------|-------------------------------|
D|-------------------------------|-------------------------------|-------------------------------|
A|-------------------------------|-3----3-----3---3----3-----3---|-5----5-----5------------------|
E|-1----1-----1---3----3-----3---|-------------------------------|----------------0----0-----0---|


G|-------------------------------|-------------------------------|-------------------------------|
D|-------------------------------|-------------------------------|-------------------------------|
A|-0----0-----0---0----0-----0---|----------------3----3-----3---|-------------------------------|
E|-------------------------------|-3----3-----3------------------|-1----1-----1---1----1-----1---|


G|--------------------------|-------------------------------|-------------------------------|
D|--------------------------|-------------------------------|-------------------------------|
A|--------------------------|-0----0-----0---0----0-----0---|-------------------------------|
E|-0----0-----0---0----4----|-------------------------------|-1----1-----1---3----3-----3---|


G|-------------------------------|-------------------------------|-------------------------------|
D|-------------------------------|-------------------------------|-------------------------------|
A|-3----3-----3---3----3-----3---|-5----5-----5------------------|-0----0-----0---0----0-----0---|
E|-------------------------------|----------------0----0-----0---|-------------------------------|


G|-------------------------------|-------------------------------|--------------------------|
D|-------------------------------|-------------------------------|--------------------------|
A|----------------3----3-----3---|-------------------------------|--------------------------|
E|-3----3-----3------------------|-1----1-----1---1----1-----1---|-0----0-----0---0----4----|


G|--------|--------|--------|--------|--------|--------|--------|--------|--------|
D|--------|--------|--------|--------|--------|--------|--------|--------|--------|
A|--------|--------|--------|--------|--------|--------|--------|--------|--------|
E|--------|--------|--------|--------|--------|--------|--------|--------|--------|


G|--------|--------|--------|
D|--------|--------|--------|
A|--------|--------|--------|
E|--------|--------|--------|