Site menu:

    

Browse: 0-9 A B C D E F G H I J K L N O P Q R S T U V W X Y Z

zakk wylde - white christmas:



Title: White Christmas
Artist: 
Album: Merry Axemas Volume 2... More Guitars For Christmas
Author: 


Track 1: Gtr 1 (Lead acous)

E|-----11--8---10----8--10-8--11-10-108----------|-5-------------------------------------------------|
B|---0------------10----------10--------10-8--5--|----5--8--8-3-1-----3-----1------------------------|
G|-0---------------------------------------------|-----------------2-----2-----2--0-----0------------|
D|-----------------------------------------------|-----------------------------------2-----2--5--5-2-|
A|-----------------------------------------------|---------------------------------------------------|
E|-----------------------------------------------|---------------------------------------------------|


E|---------------------------------------------|---------------------0---0---0---|
B|---------------------------------------------|-----------------0---0---0---0---|
G|---------------------------------------------|-------------1---1---1---1---1---|
D|-0--------0----------------------------------|---------2---2---2---2---2---2---|
A|----3--3-----0---3---5---0---3---5---0-------|-----2---2---2---2---2---2---2---|
E|-----------------------------------------3---|-0---0---0---0---0---0---0---0---|


E|-0------|----------------|-------------------------|-------------|-----------------|
B|-0------|----------------|-------------------------|-------------|-----------------|
G|-1------|----------------|-------------------------|-------------|-----------------|
D|-2------|----------------|-------------------------|-0-----------|-4----2-----2----|
A|-2------|----4----4------|-4--5--5---4-----2---4---|-0-----------|-5---------------|
E|-0------|-5--------------|-------------------------|-------------|-----------------|


E|------------------------|---------------------|--------------------|----------------|
B|------------------------|---------------------|--------------------|----------------|
G|--------------------4---|-4-------------------|--------------------|----------------|
D|-4----4----6----7-------|------7----6----4----|-2-----2------------|----------------|
A|------------------------|---------------------|-----------4---5----|-4------0---2---|
E|------------------------|---------------------|--------------------|----------------|


E|-------------|--------------------|-----------------|--------------------|-------------|
B|-------------|--------------------|-----------------|--------------------|-------------|
G|-------------|--------------------|-----------------|--------------------|-------------|
D|-------------|-2---4---2-----2----|-0---------------|--------------------|-------------|
A|-4-----4-----|--------------------|------3-----3----|-5---7---5-----5----|-4------4----|
E|-------5-----|--------------------|-----------------|--------------------|-------------|


E|-----------------------------|-----------------------|--------|------------------------------|
B|-----------------------------|-----------------------|--------|------2---------------2-------|
G|-----------------------------|-----------------------|--------|----------2-------2-------2---|
D|-----------------------------|-----------------------|--------|--------------2---------------|
A|-4--5--5---4----2----0-------|-----------0---0-------|--------|-4----------------------------|
E|-------------------------4---|-0-----0---------------|-4------|-5----------------------------|


E|---------------------------|-------------5----------------------|-2----0----0---------------|
B|--------------2-------0----|-3---3-----------3------------------|-3-------------3---2---2---|
G|------------------2--------|-2-------------------2--------------|-2-------------------------|
D|---------------------------|-4-------4---------------4--------4-|------2--------2-----------|
A|-4--5----4------------2----|-5---------------------------0--5---|------0----------------4---|
E|---------------------------|------------------------------------|---------------------------|


E|-----------------4-------5---7---|-7-------------------------------|---------------------------------|
B|-------------------------7-------|---------------------------------|---------3---------------3-------|
G|-----------------4-------7-------|---------------------------------|-----2-------2---------------2---|
D|-----4---6---4---6---4---7---9---|-9---7---6---4---6---4---2---0---|-2---------------2---4-----------|
A|-5-------------------------------|-------------------------0-------|-0---------------4---5-----------|
E|---------------------------------|---------------------------------|---------------------------------|


E|----------------------------------|------------------------------|--------------------------------|
B|------2-------------5---------0---|------2---------------2-------|----------------2-------2-------|
G|-2--------2---4--6------6--4--4---|----------2-------2-------2---|--------------------2-----------|
D|-2--------------------------------|--------------2---------------|-3--4--4---2--------------------|
A|-4--------------------------------|-4----------------------------|-4--5--5---0------------0-------|
E|----------------------------------|------------------------------|--------------------------------|


E|-----------------0-----------------|----------------------------------------|---------------------------|
B|---------1-----------1--3----------|-3---1---1--3--1---3--------------------|--------------2------------|
G|-----2-------2-------------2-------|-------------------2---0--2--0----------|------2-----------2--------|
D|-3---------------------------------|---------0----------------------3---2---|-2--------2----------------|
A|-------------------------------3---|----------------------------------------|-4--------------------4----|
E|-----------------------------------|----------------------------------------|---------------------------|


E|--------------------------|------0-------0---------------|---------0-----------------------|
B|-2--3--3---2--------------|------------------0-----------|-----0-------0-------0-----------|
G|---------------------2----|-1--------1-----------2---0---|-1---------------1---1-----------|
D|--------------------------|----------2-------------------|-------------------------2---2---|
A|-4--5--5---4----2----0----|------------------------------|---------------------------------|
E|--------------------------|-4----------------------------|---------------------------------|


E|------5---4---2---4---2----|-5----2---4---4----2--4--2---|-----------------------|
B|--------------3------------|-------------------3---------|-2-----2---2---3-------|
G|---------------------------|-----------------------------|-2-----2-----------2---|
D|-0------------0------------|-0-----------------0---------|---------------0-------|
A|---------------------------|-----------------------------|-0-----0---------------|
E|---------------------------|-----------------------------|-----------------------|


E|---------0-----------0-----------|------------------4---4-------|-5---5---7---5---4---5---4----|
B|-3-----------------------3-------|-5---7----7---5-----------5---|------------------------------|
G|-4---6-------6---4-----------4---|------------------------------|------------------------------|
D|---------------------------------|-0----------------------------|------------------------------|
A|---------------------------------|------------------------------|------------------------------|
E|---------------------------------|------------------------------|------------------------------|


E|--------------0---------------|-----0---0---0---0-----|---------7-----------------------|
B|----------2-------0---2---0---|-3---------------------|-----7-------7-------------------|
G|-2----2-------------------1---|-1-------1-------------|-----------------7---6-----------|
D|------------------------------|-----------------------|-0-----------------------4-------|
A|-0----------------------------|-----------------------|-----------------5---4-------4---|
E|------------------------------|-----------------------|---------------------------------|


E|-----------------2---------------|------------------------------|------------------------------|
B|---------3-----------3-----------|------2-----------------------|--------------2---------------|
G|-4---2-------2-----------2-------|------2---2-----------2-------|------2-----------2-----------|
D|---------------------------------|--------------2---2-------2---|----------------------2---0---|
A|-2---0-----------------------0---|-0----------------0-----------|------------------------------|
E|---------------------------------|------------------------------|-2--------2-------------------|


E|--------------0---------------|---------------2-----------0-------|------------------------------------|
B|------------------0-----------|-------0-----------3-----------0---|-----------------3------------------|
G|------1---------------1-------|-0--1------------------------------|---------0-----------0--------------|
D|----------2---------------2---|-----------2-----------2-----------|-----4-------4-----------4--------4-|
A|------------------------------|-----------2-----------------------|-5------------------------------5-5-|
E|-0----------------------------|-----------------------------------|------------------------------------|


E|-0------|------------------------------|------------------------------|-------------------5------------------|
B|-3------|------2-----------2-----------|--------------2---------------|-----------3-----------3--------------|
G|-2------|----------2-----------2-------|------------------2-----------|---------------2-----------2----------|
D|-4------|--------------2-----------2---|-2---4---2------------2-------|------------------------------------4-|
A|-5------|-4----------------------------|-4---5---4----2---2---4---4---|-4--5--5--------------------------5---|
E|--------|------------------------------|------------------------------|--------------------------------------|


E|-2----0------|------2-----------4-----------|---------5---4---4-------2--4--2------|
B|-3-----------|----------3---------------5---|---------7-----------3------------3---|
G|-2-----------|----------------------7---4---|-4-------7----------------------------|
D|------2------|-4----4---4---6---6---7---6---|-----6-----------6-------4------------|
A|-------------|-5----------------------------|--------------------------------------|
E|-------------|------------------------------|--------------------------------------|


E|-----0--2--------0---0------------|----------------------------------|------------------------------|
B|-2--------------------------------|------2-------------5---5--3--3---|------2-----------2-----------|
G|-2--------------------------------|----------2---4--6------6--4--4---|----------2-----------2-------|
D|-------------------------2---4----|-2--------------------------------|--------------------------2---|
A|-0---0--0--0-------------0---0----|-0----------------------------2---|-4------------4---------------|
E|----------------------------------|----------------------------------|------------------------------|


E|-----------------------------|-----------------1---------------|-1-----1--------------------------------|
B|-2--3--3---2----2------------|---------1-----------1-----------|-1--3--1---3---1--------3---1-----------|
G|--------------------2--------|-----2-------2-----------0---2---|-----------2---0--2--0----------2---2---|
D|------------------------2----|---------------------------------|-0--0--0----------------3---3---0---0---|
A|-4--5--5---4-----------------|-------------------------3---3---|----------------------------------------|
E|-----------------------------|-1-------------------------------|----------------------------------------|


E|------------------------------|------------------------------|--------------0---------------|
B|------2-----------2-----------|-2--3---------2-----------3---|------------------0-----------|
G|----------2-----------2-------|------------------2-----------|------1---------------1---0---|
D|--------------------------2---|---------2------------2-------|----------2-------------------|
A|-4----------------------------|-4--5----4--------------------|------------------------------|
E|-5------------5---------------|------------------------------|-0----------------------------|


E|-------------0-------------------|-----------------0---------------|----------0-------------------|
B|-----0-----------0---------------|---------------------0-----------|--------------0---------------|
G|-1-------------------1-----------|---------2---------------2-------|------------------0-----------|
D|---------2---------------2-------|-----3-------3---------------3---|------------------------------|
A|---------------------------------|---------------------------------|-2----2-------------------2---|
E|-----------------------------0---|-1-------------------------------|-3----3---------------3-------|


E|-------------0-------------------|-------------0---------------0---|--------------0---------------|
B|-----2-----------0---2-----------|-2---------------2---------------|------0-----------0-----------|
G|-------------------------2-------|-----2---------------2-----------|----------2-----------2-------|
D|---------2-------------------2---|---------2---------------2-------|--------------------------3---|
A|-0-------------------------------|---------------------------------|------------------------------|
E|---------------------------------|---------------------------------|-1----------------------------|


E|----------0-------------------|-----------------------------5---|---------0-----------------------|
B|--------------0---------------|---------2-------0---2-----------|-2-----------0-------------------|
G|------------------0-----------|-------------2-----------2-------|---------------------------------|
D|------------------------------|-----2---------------------------|-----------------2---------------|
A|------2-------------------2---|-0-------------------------------|-----0---------------------------|
E|-3--------------------3-------|---------------------------------|---------------------5---4---3---|


E|--------------0---------------|-------------0----------------|--------------0---------------|
B|------0-----------0-----------|-----0-----------0------------|------2-----------2-----------|
G|----------2-----------2-------|---------0-----------0---0----|----------2-----------2-------|
D|--------------------------3---|------------------------------|--------------------------2---|
A|------------------------------|------------------------------|-0----------------------------|
E|-1----------------------------|-3----------------------------|------------------------------|


E|-0-------0-----------------------|--------------0---------------|--------------0------------|
B|-----2-------2-------------------|------0-----------0-----------|------0-----------0--------|
G|-----------------2---------------|----------2-----------2-------|----------0-----------0----|
D|---------------------------------|--------------------------3---|---------------------------|
A|---------------------------------|------------------------------|---------------------------|
E|---------------------5---4---3---|-1----------------------------|-3-------------------------|


E|------5------|-5------|
B|------5------|-5------|
G|-0----2------|-2------|
D|------2------|-2------|
A|------0------|-0------|
E|-------------|--------|





Track 2: Gtr 2 (acous)

E|--------|--------|--------|--------|--------|------------------------------|-----------------------------------|
B|--------|--------|--------|--------|--------|------------------2-----------|-------3---2-----------2-----------|
G|--------|--------|--------|--------|--------|------2-------2-------2-------|---------------2-----------2-------|
D|--------|--------|--------|--------|--------|----------2---------------2---|-------------------2---------------|
A|--------|--------|--------|--------|--------|-0----------------------------|-4--5------4-------------------4---|
E|--------|--------|--------|--------|--------|------------------------------|-----------------------------------|


E|--------------5------------------|-2----0-----0---0-------|------2-----------4-----------|
B|------3-----------3--------------|-3------------------2---|----------3---------------5---|
G|----------------------2---2------|-2----------------------|----------------------7---4---|
D|----------4--------------------4-|------2---------2-------|-4----4-------6-------7---6---|
A|-5---------------------------5---|------------------------|-5----------------------------|
E|---------------------------------|------------------------|------------------------------|


E|---------5---4-----------2--4--2------|------------------------------|----------------------------------|
B|---------7-----------3------------3---|------3-----------2-------3---|------2-------------5-------------|
G|-4-------7----------------------------|----------2-------2-----------|-2--------2---4--6------6--4--4---|
D|-----6---7-------6-------4------------|-2------------2---2---4-------|-2--------------------------------|
A|--------------------------------------|-0----------------4---5-------|-4----------------------------2---|
E|--------------------------------------|------------------------------|----------------------------------|


E|---------------------------------|-0---------------------------------|--------------1---------------|
B|---------2-----------2-----------|------2--3--2--0-------------------|------------------1---1-------|
G|-----2-------2-----------2-------|-------------------2-------2-------|----------2-----------2---0---|
D|-----------------2-----------2---|-2---------------------4-------4---|-3----3-----------------------|
A|-4---------------4---------------|-----------------------------------|------------------------------|
E|---------------------------------|-----------------------------------|------------------------------|


E|----------------------------------------|------------------------------|---------0---------------0-------|
B|-3---5---6-----6------------------------|--------------2---3---2-------|-------------5---------------2---|
G|-2---4---5--7--5---7---5----------------|----------2-----------2---2---|-4---6---6-------6---4---2-------|
D|---------0---------7---5--7--5--3---2---|------------------------------|---------------------------------|
A|----------------------------------------|-4----4-----------------------|---------------------------------|
E|----------------------------------------|------------------------------|---------------------------------|


E|--------------0---------------|---------2-----------0-----------|-7---9---9-----9-------|
B|------------------0-----------|-----0-------0-------0---0-------|-----------------------|
G|------1---------------1---0---|-1---------------------------1---|-----------------------|
D|----------2-------------------|-----------------2---------------|-----------------------|
A|-2--------2-------------------|---------------------------------|-----------------------|
E|-0----------------------------|---------------------------------|-----------------------|


E|-9--10---9---------7----9--|-10---9--10---10--------12-|-14---12----10---9---|-10--9-------9-----------------------------------|
B|---------------------------|------------------------13-|-15------------------|---------10------10------------------------------|
G|-6--7----6-----------------|---------------------------|---------------------|---------------------9---9---7---7---7---6---7---|
D|---------------------------|---------------------------|---------------------|-------------------------------------------------|
A|---------------------------|---------------------------|---------------------|-------------------------------------------------|
E|---------------------------|---------------------------|---------------------|-------------------------------------------------|


E|-10--9-------9-----------------------------------|-------------------------------------|
B|---------10------10--10--------------------------|-5---5--7--------5---5-------0-------|
G|-7-----------------------9---7---7---7---6---6---|-6------------6----------------------|
D|-------------------------------------------------|-------------------------7-------7---|
A|-------------------------------------------------|-------------------------------------|
E|-------------------------------------------------|-------------------------------------|


E|-----------------------|-------------|-12-14-14--12--------12------|-------12---10---9----|
B|-5---7---5-------------|-14----14----|---------------------9-------|----------------------|
G|-6---------------------|-------------|-9--11-11--9---------9-------|-------9----7----6----|
D|---------------7---9---|-11----11----|-----------------------------|----------------------|
A|-----------------------|-------------|-----------------------------|----------------------|
E|-----------------------|-------------|-----------------------------|----------------------|


E|-10--------10--12------|-----------9---10--9----|-------------------------------|
B|-------------------12--|-14---------------------|---------------------10-12-12--|
G|-7---------------------|------------------------|-------------------------------|
D|-----------------------|-11---------------------|------9--11-11--9--------------|
A|-----------------------|------------------------|-------------------------------|
E|-----------------------|------------------------|-------------------------------|


E|---------------------|-------------|-10-9--7--7--------------------------------------------------------------|
B|-9-------------------|-------------|-------------10-9--10-9--7--9--7-----------------------------------------|
G|-9-------------11----|-9-----------|----------------------------------9--9--7--6--9--7--6--------------------|
D|---------------------|-------------|-------------------------------------------------------9--7--6--9--7--6--|
A|---------------------|-------------|-------------------------------------------------------------------------|
E|---------------------|-------------|-------------------------------------------------------------------------|


E|-10--9--7--------------------------------------------------------------|---------9---10--12------12---|
B|-----------10-9--10-9--7--9--7-----------------------------------------|-10--12-----------------------|
G|--------------------------------9--9--7--9--7--11-9--11-9--------------|------------------------------|
D|-----------------------------------------------------------11-9--------|------------------------------|
A|-----------------------------------------------------------------12-9--|------------------------------|
E|-----------------------------------------------------------------------|------------------------------|


E|------10--9---7---------|--------12----------12-----------------------|--------------------0-----0---------|
B|------------------------|-----15----12-14-15----14-15-12-14-12-10-10--|------------------------------------|
G|------------------------|---------------------------------------------|-9---11---11--4-6---1-2---1--2--4---|
D|------------------------|---------------------------------------------|------------------------------------|
A|------------------------|---------------------------------------------|------------------------------------|
E|------------------------|---------------------------------------------|------------------------------------|


E|---------------------------------|---------------------------------|-----------7--------------------|
B|-2---3---5---7---5---------------|---------------------------------|-------7-------7---7------------|
G|-2-------------------6---7---7---|-7---6---6---4---4---2---2---4---|-7-9---------------7------------|
D|-------------------------7-------|---------------------------------|-7-9----------------------------|
A|---------------------------------|---------------------------------|-----------------------4---4----|
E|---------------------------------|---------------------------------|--------------------------------|


E|------------------------------|---------------------------------|---------------------------|
B|----------------------2---3---|-3---5---5---7---7---5---5---3---|-3---2---2-----2---0-------|
G|--------------2---4-----------|---------------------------------|-------------------2---2---|
D|------------------------------|-----------------7-------7-------|---------------------------|
A|-2---0---0--------------------|-0-------------------------------|---------------------------|
E|------------------------------|---------------------------------|---------------------------|


E|-------------|--------|-5----5----------|-12---12------------|-----------------|
B|-------------|--------|-7----7----------|-10---10------------|-12---12---------|
G|-4-----------|--------|-7----7----------|-11---11------------|-----------------|
D|-2-----------|--------|-----------------|-12---12---------7--|-----------------|
A|-------------|--------|-----------------|--------------------|-----------------|
E|-------------|--------|-----------------|--------------------|-----------------|


E|-9--10---9---------7---9---|-10---10-------------12-|-14---12--------10---9--|------------------------|
B|---------------------------|-10---10-------------13-|-15---14----------------|-10---------------------|
G|-6--7----6-----------------|-7----7-----------------|------------------------|-7----9---7---7---------|
D|---------------------------|------------------------|------------------------|------------------------|
A|---------------------------|------------------------|------------------------|------------------------|
E|---------------------------|------------------------|------------------------|------------------------|


E|-------10-9-----9----------------|-------------------------|----------------------------------------|
B|-------------10----10-7--7-------|-------------------------|-------10-12-14-10-12-14-12-14-15-14-15-|
G|-----------------------------9---|-9---7--7--7---6---------|----------------------------------------|
D|---------------------------------|-------------------------|----------------------------------------|
A|---------------------------------|-------------------------|----------------------------------------|
E|---------------------------------|-------------------------|----------------------------------------|


E|-------------|------12---------|------10----10---8----7----|-8---7--------------|
B|-14----14----|-14---14----14---|---------------------------|---------10----10---|
G|-------------|-----------------|---------------------------|--------------------|
D|-------------|-----------------|---------------------------|--------------------|
A|-------------|-----------------|---------------------------|--------------------|
E|-------------|-----------------|---------------------------|--------------------|


E|-----------------------|----------------------9---10--|------------------------|
B|-10--12--12--14--14----|-14-15---14---14--12----------|-12---12-------10--10---|
G|-----------------------|------------------------------|-9----------------------|
D|-----------------------|-11-12---11---11--------------|-9----9-----------------|
A|-----------------------|------------------------------|------------------------|
E|-----------------------|------------------------------|------------------------|


E|--------|---------------------|------------------------------|---------------------------|
B|-9------|---------------------|------------------------------|---------------------------|
G|--------|---------------------|------------------------------|---------------------------|
D|--------|-------3---5----7----|-9----9---9---10--9-------7---|-7----5---5---5----3---2---|
A|--------|---------------------|----------------------10------|---------------------------|
E|--------|---------------------|------------------------------|---------------------------|


E|------------------------------------------|------------------------------------------|
B|------0--1--0--0--------------------------|------0--1--0--0--------------------------|
G|------------------------------------------|------------------------------------------|
D|-2----------------5--7--3--5--2--3--0--2--|------------------5--7--3--5--2--3--0--2--|
A|------------------------------------------|------------------------------------------|
E|------------------------------------------|-1----------------------------------------|


E|-------------------------------------------------|------------------------------|
B|-0--1--0--0--------------------------------------|------------------------------|
G|-------------------------------------------------|------------------------------|
D|-------------5--7--3--5--3--5--2--3--0--2--------|------------------------------|
A|-------------------------------------------3--5--|-5---7---7---8-------5---5----|
E|-------------------------------------------------|------------------------------|


E|-----------------|----------------9--12---12--10--|-8-----------------------------|
B|-----------------|-------------10-----------------|------12---10---8----10---12---|
G|-----------------|----------11--------------------|-------------------------------|
D|-----------------|--------------------------------|-------------------------------|
A|-4----4----------|--------------------------------|-------------------------------|
E|-----------------|--------------------------------|-------------------------------|


E|------------------------------|-------------------------------------------------|
B|-12--13--12--10--10---10------|-12-13-12-13-------------------------------------|
G|--------------------------14--|-------------12-14-10-12-10-10-7--9-----7--7--7--|
D|------------------------------|-------------------------------------10----------|
A|------------------------------|-------------------------------------------------|
E|------------------------------|-------------------------------------------------|


E|-------------------------------------------------|---------------------------------------------|
B|-------------------------------------------------|-5--8--5-----8--5--5-------------------------|
G|-5--7--5-----7-----5-----------7-----------5--7--|----------7-----------8--7--5-----7-----5----|
D|----------7-----7-----7--5--7-----7--7--7--------|-------------------------------7-----7-------|
A|-------------------------------------------------|---------------------------------------------|
E|-------------------------------------------------|---------------------------------------------|


E|-------------|--------|
B|-------------|--------|
G|-------------|--------|
D|-5----7------|-7------|
A|-------------|--------|
E|-------------|--------|





Track 3: Untitled

G|--------|--------|--------|--------|--------|--------|--------|--------|--------|
D|--------|--------|--------|--------|--------|--------|--------|--------|--------|
A|--------|--------|--------|--------|--------|--------|--------|--------|--------|
E|--------|--------|--------|--------|--------|--------|--------|--------|--------|


G|--------|--------|--------|--------|--------|--------|--------|--------|--------|
D|--------|--------|--------|--------|--------|--------|--------|--------|--------|
A|--------|--------|--------|--------|--------|--------|--------|--------|--------|
E|--------|--------|--------|--------|--------|--------|--------|--------|--------|


G|--------|--------|--------|--------|--------|--------|--------|--------|--------|
D|--------|--------|--------|--------|--------|--------|--------|--------|--------|
A|--------|--------|--------|--------|--------|--------|--------|--------|--------|
E|--------|--------|--------|--------|--------|--------|--------|--------|--------|


G|--------|--------|--------|--------|--------|--------|--------|--------|--------|
D|--------|--------|--------|--------|--------|--------|--------|--------|--------|
A|--------|--------|--------|--------|--------|--------|--------|--------|--------|
E|--------|--------|--------|--------|--------|--------|--------|--------|--------|


G|--------|--------|--------|--------|--------|--------|--------|--------|--------|
D|--------|--------|--------|--------|--------|--------|--------|--------|--------|
A|--------|--------|--------|--------|--------|--------|--------|--------|--------|
E|--------|--------|--------|--------|--------|--------|--------|--------|--------|


G|--------|--------|--------|--------|--------|--------|--------|--------|--------|
D|--------|--------|--------|--------|--------|--------|--------|--------|--------|
A|--------|--------|--------|--------|--------|--------|--------|--------|--------|
E|--------|--------|--------|--------|--------|--------|--------|--------|--------|


G|--------|--------|--------|--------|--------|--------|--------|--------|--------|
D|--------|--------|--------|--------|--------|--------|--------|--------|--------|
A|--------|--------|--------|--------|--------|--------|--------|--------|--------|
E|--------|--------|--------|--------|--------|--------|--------|--------|--------|


G|--------|--------|--------|--------|--------|--------|--------|--------|--------|
D|--------|--------|--------|--------|--------|--------|--------|--------|--------|
A|--------|--------|--------|--------|--------|--------|--------|--------|--------|
E|--------|--------|--------|--------|--------|--------|--------|--------|--------|


G|--------|--------|--------|--------|--------|--------|--------|--------|--------|
D|--------|--------|--------|--------|--------|--------|--------|--------|--------|
A|--------|--------|--------|--------|--------|--------|--------|--------|--------|
E|--------|--------|--------|--------|--------|--------|--------|--------|--------|


G|--------|--------|--------|--------|
D|--------|--------|--------|--------|
A|--------|--------|--------|--------|
E|--------|--------|--------|--------|