Site menu:

    

Browse: 0-9 A B C D E F G H I J K L N O P Q R S T U V W X Y Z

zakk wylde - the color green:



#----------------------------------PLEASE NOTE---------------------------------#
#This file is the author's own work and represents their interpretation of the #
#song. You may only use this file for private study, scholarship, or research. #
#------------------------------------------------------------------------------#

  Visit MetalTabs.com for more metal tablature
  
The Color Green
By: Zakk Wylde
Album: Book of Shadows
Tabbed by: Brewtality

From: www.BlackLabelSociety.net


Standard tuning

Intro                                                           slide
e-------5----------------------------------------------------------------0---------------0------------------------
b----------7------8----------7----------5----------------------------0--------------0----------------0----------0-
g-------------7-------7---------7------------7---------7---------4/5-----------4-----------------4----------0-----
d----0-------------------0----------0------------0----------0--------------------------------5----------4---------
a-----------------------------------------------------------------------------------------------------------------
e-----------------------------------------------------------------------------------------------------------------

    hammer on and slide   verse2x  (strum)                   (strum)   hammer on  (strum)
                                                                       and strum
e----------------------|--------0-2-2-2-3-2--------------------3-------3-3---------3---------0-2-2-2-3-2-2-2-0-2-|
b----------------------|--------3-3-3-3-3-3--------------------3-------3-3---------3---------3-3-3-3-3-3-3-3-3-3-|
g----------------------|--------2-2-2-2-2-2-----------0-----0--0-------0-0---------0---------2-2-2-2-2-2-2-2-2-2-|
d-----------0-2/4---0--|---0-0--0-0-0-0-0-0---------2-----0----0-------0-2---------0---------0-0-0-0-0-0-0-0-0-0-|
a----0-2/3-------------|----------------------0-2-3-----2------2-------0-3---------2-----------------------------|
e----------------------|---------------------------------------3-------------------3-----------------------------|


  And your so called friends......   And they ain't what they was.....
   (strum)
e---0---------0-2-2-2-3-2-2-2-0-2--|-----------0--------------------0---------------------------0-2-------3-2--
b---0---------3-3-3-3-3-3-3-3-3-3--|-----3---------3---------3----------3------3--------3-------3-3-3-----3-3--
g---2---------2-2-2-2-2-2-2-2-2-2--|--------0--------------------0----------0---------------2----------2-------
d---3---------0-0-0-0-0-0-0-0-0-0--|------------------------------------------------0--------------------------
a----------------------------------|--1---------------0--------------------------------------------------------
e----------------------------------|---------------------------------------------------------------------------


e---------0-2--|
b---3-----3-3--|
g------2-------|
d--------------|
a--------------|
e--------------|

Thats pretty much all the parts, listen to the song to get the right arrangement.

  Visit MetalTabs.com for more metal tablature