Site menu:

    

Browse: 0-9 A B C D E F G H I J K L N O P Q R S T U V W X Y Z

zakk wylde - the chosen one:



#----------------------------------PLEASE NOTE---------------------------------#
#This file is the author's own work and represents their interpretation of the #
#song. You may only use this file for private study, scholarship, or research. #
#------------------------------------------------------------------------------#

  Visit MetalTabs.com for more metal tablature
  
Artist: Pride & Glory
Album: Pride & Glory
Title: The Chosen One
From: www.BlackLabelSociety.net
Tabbed By: Matt Thompson
Tuning: Standard (E, A, D, G, B, E)

Intro bass x4
Intro x4 fig.1
|--------------------------------------------------------------|
|--------------------------------------------------------------|
|--------------------------------------------------------------|
|------9---8---7-----------------------------------------------|
|-2----7---6---5---9--8---8--7--5--2---------------------------|
|-0----------------7--6---6--5--3--0---------------------------|
fig.2
ph 1/2
|--------------------------------------------------------------|
|--------------------------------------------------------------|
|--------------------------------------------------------------|
|-----9--8--7--------------------------------------------------|
|-2---7--6--5----------------5^--------------------------------|
|-0--------------3-5-5--3-5------------------------------------|

verse play 2x's
|--------------------------------------------------------------|
|----------3--------------------3-2----------------------------|
|----0--------0-----------0----------2-------------------------|
|-------2--------2-----------2----------2----------------------|
|----------------------3---------------------------------------|
|-0------------------------------------------------------------|


|-------------3-----------0------------------------------------|
|---------------3---------2------------------------------------|
|------0-----------5------2------------------------------------|
|---------4---------------2------------------------------------|
|--5----------------------0------------------------------------|
|--------------------------------------------------------------|




|--------------------------------------------------------------|
|--------------------------------------------------------------|
|--------------------------------------------------------------|
|-----9--8--7--------------------------------------------------|
|-2---7--6--5---9--8---7--5------------------------------------|
|-0-------------7--6---5--3------------------------------------|
repeat verse, fig.1
pre-chorus
|--0----------------0------------------------------------------|
|--1--------1----------1-----1--------1------------------------|
|--0-----------0----------0-----0--------0---------------------|
|--2---2----------2----------------2--------2------------------|
|--3-----3-----------------------------------------------------|
|--------------------------------------------------------------|


|-2---------2-------2---------3-------2------------------------|
|-3---3--------3-------3--------3--------3---------------------|
|-4------4--------4-------4--------4--------4------------------|
|-2------------------------------------------------------------|
|--------------------------------------------------------------|
|--------------------------------------------------------------|


|-0----2----2-----3-------------0------------------------------|
|-1----3----4-----0------3------1------------------------------|
|-0----2----3-----4------0------0------------------------------|
|-2----0----------5------4------2--------4---------------------|
|-3----------------------5------3--------2---------------------|
|--------------------------------------------------------------|


ph chorus
|---------------------!----------------------------------------|
|---------------------!----------------------------------------|
|---------------------!----------------------------------------|
|---------------------!-------9--8--7--------5------5----------|
|---------------------!---2---7--6--5-----3--3--3-3-3----------|
|-5--0--5--6--5-3^----!---0------------------------------------|
pm .................................

|--------------------------------------------------------------|
|--------------------------------------------------------------|
|--------------------------------------------------------------|
|-----9--8--7-------5-------5----------------------------------|
|-2---7--6--5----3--3---3-3-3----------------------------------|
|-0------------------------------------------------------------|


|--------------------------------------------------------------|
|--------------------------------------------------------------|
|--------------------------------------------------------------|
|-----9--8--7-------5--------5---------------------------------|
|-2---7--6--5----3--3----3-3-3---------------------------------|
|-0------------------------------------------------------------|

|------------------------0-------------------------------------|
|------------------------0-------------------------------------|
|------------------------4-------------------------------------|
|-4/--7------------------5-------------------------------------|
|-2/--5-------2------------------------------------------------|
|----------0--0--0--0------------------------------------------|
pm..............................
bridge
wah/chorus/rotovibe n.h n.h n.h
|--0------------------12---------------------------------------|
|--0------------------12-----------5---------------------------|
|--4-------------------------------5------5--------------------|
|--5--------------------------------------5--------------------|
|--------------------------------------------------------------|
|------------------------------------------------/15//---------|

|--------------------------------------------------------------|
|--------------------------------------------------------------|
|--------------------------------------------------------------|
|--------------------------------------------------------------|
|-------------5------------------------------------------------|
|-5--0--5--6--3------------------------------------------------|

repeat verse 2x's,
pre-chorus,
chorus, bridge

solo
~~ ^^ ^full ~~
|-----------------------------------------------------------------|
|-----------------12------------------8--10--8--10--8-------------|
|------7---7h9----12---9--7-------7h9------------------9-7h9------|
|-7/9-------------------------9-----------------------------------|
|-----------------------------------------------------------------|
|-----------------------------------------------------------------|

|-----------------------------------------------------------------|
|----------3-------------------3----------------------------------|
|------0-----0----0------0--------0-------------------------------|
|-2h4----4-----4------4-----4--------4------9--8--7---------------|
|----------------------------------------2--7--6--5---9-8--7-5----|
|----------------------------------------0------------7-6--5-3----|




~~
^ grad. Bend to full
|-----------------------------------------------------------------|
|--------------------------------------------------------2--------|
|-7-------------7------12h14p12-13h11p13-9h11p9-7h9p7----0--------|
|-7-------5-7/9---------------------------------------------------|
|-----------------------------------------------------------------|
|-----------------------------------------------------------------|



|--------------------------------------------------------------|
|--------------------------------------------------------------|
|--------------------------------------------------------------|
|----9--8--7--------------------------9-8-7--------------------|
|-2--7--6--5-----9-8---8-7--5-2----2--7-6-5-----9-8--7-5-------|
|-0--------------7-6---6-5--3-0----0------------7-6--5-3-------|


^full ~~ ^full ~~
|--------------------------------------------------------------|
|-15-----15-----------15-----12-15-12----12--------------------|
|-14-----14-14-13-14------------------15----15-14-12--15-12-14-|
|--------------------------------------------------------------|
|--------------------------------------------------------------|
|--------------------------------------------------------------|

~~ ~~ ~~ ~~ ~~
|-15---14h15---14-14h15----14----14h15----14-14h15----14-------|
|------------15---------15-------------15----------15----------|
|--------------------------------------------------------------|
|--------------------------------------------------------------|
|--------------------------------------------------------------|
|--------------------------------------------------------------|

^full ^full
|-15-14h15p14--------------------------------------------------|
|--------------15-----12-15----12-15-----12-15-----12-15-------|
|---------------------------14-------14--------14--------14----|
|--------------------------------------------------------------|
|--------------------------------------------------------------|
|--------------------------------------------------------------|
~~ ~~ ~~ ~~ ~~ ~~ ~~ ^full ^1\2^ ^full
|--------------------------------------------------17----------|
|------------15--------12---15-----15--15------15--------------|
|--------12---------12---------------------14------------------|
|-----12---------12--------------------------------------------|
|-14-----------------------------------------------------------|
|--------------------------------------------------------------|


|15-10---15-10----15-10---15-10---15-10---15-10--15-10---15-10--|
|-----12-------12------12------12------12------12-----12------12|
|---------------------------------------------------------------|
|---------------------------------------------------------------|
|---------------------------------------------------------------|
|---------------------------------------------------------------|
~~
^full
|--------------------------------------------------------------|
|-------4--7--9-11--12--14-------------------------------------|
|-14-----------------------------------------------------------|
|-------2--5--7--9--10--12-------------------------------------|
|--------------------------------------------------------------|
|--------------------------------------------------------------|

chorus 2x

repeat intro 3x's
4th time
|------------------------------------------------------------------|
|------------------------------------------------------------------|
|------------------------------------------------------------------|
|---9-8-7----------------------------------------------------------|
|-2-7-6-5--9-8--8-7--7-6--6-5--5-4--4-3---2------------------------|
|-0--------7-6--6-5--5-4--4-3--3-2--2-1---0------------------------|

This is my first tab, so bare with me. If ya got any corrections
go ahead an' fix em'.

  Visit MetalTabs.com for more metal tablature