Site menu:

    

Browse: 0-9 A B C D E F G H I J K L N O P Q R S T U V W X Y Z

zakk wylde - harvester of pain:



#----------------------------------PLEASE NOTE---------------------------------#
#This file is the author's own work and represents their interpretation of the #
#song. You may only use this file for private study, scholarship, or research. #
#------------------------------------------------------------------------------#

  Visit MetalTabs.com for more metal tablature
  
Author/Artist: Zakk Wylde / Pride And Glory
Title: Harvester Of Pain
Album: Pride And Glory
Transcribed by: James Rae
Email: jbrae@uwaterloo.ca

webpage - http://www.student.math.uwaterloo.ca/~jbrae

-the solo isn't exact, but the part with the wah you can just wing it.
-comments and corrections are always welcom

LEGEND

h - hammer
p - pull off
b - bend up
r - release bend
/ - slide up
\ - slide down
v - vibrato
* - trill
t - tap
x - mute/rake
^ - harmonic
. - palm mute
! - pinch harmonic


INTRO (x3)

------------------------------------------------------------------------------
------------------------------------------------------------------------------
----2-2-----2----2------------------------------------------------------------
----2-2-----2----2------------------------------------------------------------
----0-0-----0----0------------------------------------------------------------
--3-------3----3----3vv-------------------------------------------------------
  .       .    .    !


INTRO (last time)

------------------------------------------------------------------------------
------------------------------------------------------------------------------
------2-2-----2----2----------------------------------------------------------
------2-2-----2----2----------------------------------------------------------
------0-0-----0----0----------------------------------------------------------
--3-3-------3----3----3b5-----------------------------------------------------
  . .       .    .    slow


MAIN RIFF

-----3----3---3---------------------------------------------------------------
-----2----2---2---------------------------------------------------------------
--2----2----2-----------------------------------------------------------------
--2----2----2-----------------------------------------------------------------
--0----0----0-----------------------------------------------------------------
-----------------0-3-0-2-0----------------------------------------------------
                 . . . . .

-----0--------3---------------------------------------------------------------
-------1--------0-------------------------------------------------------------
--0------0--------0-----------------------------------------------------------
--2---------0-----------------------------------------------------------------
--3---------2-----------------------------------------------------------------
------------3-----------------------------------------------------------------
  tomorrow will I....


PRECHORUS

--------0-------0-------0-------0---------------------------------------------
--------------3---------------3---1-------------------------------------------
------0-----2---------0-----2-------0----9--7--5--9--7--5---------------------
----2-----0---------2-----0-----------2--9--7--5--9--7--5---------------------
--3---------------3----------------------7--5--3--7--5--3---------------------
------------------------------------------------------------------------------
  sometimes I feel so alone...


CHORUS

-----0---------3-------2--5---------------------------------------------------
--1----1-----1---1-----3----3-------------------------------------------------
--2------2---0-----0---2------2--7--5--7--5--2--------------------------------
--2----------2---------0---------7--5--7--5--2--------------------------------
--0----------3-------------------5--3--5--3--0--------------------------------
------------------------------------------------------------------------------
  haaaarvester of pain...


PRE-SOLO

------0---------3-------0---------3-------0---------3-----0--1--3-------------
------1------1--0-------1------1--0-------1------1--0-----1--1--0-------------
------2------2--0-------2------2--0-------2------2--0-----2--2--0-------------
----2--------3--0-----2--------3--0-----2--------3--0-----2--3--0-------------
--0--------3----2---0--------3----2---0--------3----2-----0--3--2-------------
---------1------3----------1------3----------1------3--------1--3-------------
  clean                                                   distortion

------------------------------------------------------------------------------
--5---------------------------------------------------------------------------
--7b9---------7-5-4-------5---------5---------5---------5---------------------
------lots------------5h7---7---5h7---7---5/7---7---5h7---7-------------------
------------------------------------------------------------------------------
------------------------------------------------------------------------------


-----------------------------------5h8---------5-8----------------------------
--5-----------------------8b10---------8-5-----5-8----------------------------
--7b9--------5-5-7-5---------------------------5-7----------------------------
--------------------------big------------------5-7----------------------------
--------------------------wah------------------5-7----------------------------
-----------------------------------------------5-8----------------------------
 wah on                                        mess around this scale w/wah

------------------------------------------------------------------------------
------------------------------------------------------------------------------
--17/16/14-14----19-19/17-17-17/16-16-16-16/12-12-----------------------------
------------------------------------------------------------------------------
--15/14/12-12----17-17/15-15-15/14-14-14-14/10-10-----------------------------
------------------------------------------------------------------------------
  wah off


LAST PRECHOUS / POST SOLO (extra beefy)

--0--0--0--0--0---------------------------------------------------------------
--1--3--1--3--1---------------------------------------------------------------
--0--2--0--2--0---9--7--5---9-7-5---9--7--5---9-7-5---------------------------
--2--0--2--0--2---9--7--5---9-7-5---9--7--5---9-7-5---------------------------
--3-----3-----3---7--5--3---7-5-3---7--5--3---7-5-3---------------------------
------------------------------------------------------------------------------
  #  #

ENDING ARPEGGIOS

----5-------------------------------------------------------------------------
------8---8-----8-------------------------------------------------------------
--------6---6-----6-----------------------------------------------------------
--------------7-----7---------------------------------------------------------
--0---------------------------------------------------------------------------
------------------------------------------------------------------------------

LAST CHORD (let ring)

--0---------------------------------------------------------------------------
--1---------------------------------------------------------------------------
--2---------------------------------------------------------------------------
--2---------------------------------------------------------------------------
--0---------------------------------------------------------------------------
------------------------------------------------------------------------------

  Visit MetalTabs.com for more metal tablature