Site menu:

    

Browse: 0-9 A B C D E F G H I J K L N O P Q R S T U V W X Y Z

zakk wylde - found a friend:



#----------------------------------PLEASE NOTE---------------------------------#
#This file is the author's own work and represents their interpretation of the #
#song. You may only use this file for private study, scholarship, or research. #
#------------------------------------------------------------------------------#

  Visit MetalTabs.com for more metal tablature
  
Author/Artist: Pride & Glory
Title: Found A Friend
Album: Pride & Glory
Transcribed by: Rik Knight
Email: rik.knight@talk21.com

From: www.BlackLabelSociety.net


Zakk uses a rotovibe for this song, but a normal chorus pedal could do the job.

The chorus isn't spot on so if anyone can come up with a more accurate version
let me know and I will amend this.

The second melody is similar to the first so I've left it out.

 Zakk's intonation with the slide isn't perfect so the solo is more of a guide
than a note for noe transcription.

The outro uses the chords; C, Dm, Em and F

-|---------0-------|-------0---------|---------1---------|-----------||-------
-|-------3---3-----|---------1-------|-----------1-------|-----------||-------
-|-----0-----------|-----2-----2-----|-----0h2-----2---2-|---------0-||-------
-|---2-------------|---2-------------|---------------3---|---2-0h2---||-------
-|-3-----------3-2-|-0-----------0---|---3---------------|-3---------||-------
-|-----------------|---------------3-|-1-----------------|-----------||-------
  Intro and verse chords.

-|--------------------------|---------------------------------||--------------
-|-8------------------------|---------------------------------||--------------
-|-7b9v--9r7-5-7-7b9-5------|-5-7b9r-5--------------------5vv-||--------------
-|---------------------5/7v-|----------7v-5h7-5-7\5-3-5/7-----||--------------
-|--------------------------|---------------------------------||--------------
-|--------------------------|---------------------------------||--------------
  Intro melody

-|-0---|-0---|-0---|-------------8------------||------------------------------
-|-0-5-|-0-5-|-0-5-|-5-------------8------5---||------------------------------
-|-0-5-|-0-5-|-0-5-|-5---2-----------b9r7-5---||------------------------------
-|-2-5-|-2-5-|-2-5-|-5---2-----2----------5---||------------------------------
-|-2-3-|-2-3-|-2-3-|-3-2-0-2-3-2----------3---||------------------------------
-|-0---|-0---|-0---|-----------0--------------||------------------------------
  Chorus, not quite right NE1 do better?

-|-/8v-8/10-10\8-8/10-------|-8/10-10\8-------------------------|-------------
-|--------------------8/10v-|-----------8/10-10/11\10\8-8-------|-------------
-|--------------------------|-----------------------------9\\\\-|-------------
-|--------------------------|-------------------------------5\\-|-------------
-|--------------------------|-----------------------------------|-------------
-|--------------------------|-----------------------------------|-------------
  Solo with slide.

------13/15-15-12/13\12------15-12/13\12------15-12/13\12-----|---------------
-/13v-------------------13v--------------13v--------------13v-|---------------
--------------------------------------------------------------|---------------
--------------------------------------------------------------|---------------
--------------------------------------------------------------|---------------
--------------------------------------------------------------|---------------


------------------------||----------------------------------------------------
-13\10-10\8-8/10\8------||----------------------------------------------------
-------------------9\\\-||----------------------------------------------------
------------------------||----------------------------------------------------
------------------------||----------------------------------------------------
------------------------||----------------------------------------------------

  Visit MetalTabs.com for more metal tablature