Site menu:

    

Browse: 0-9 A B C D E F G H I J K L N O P Q R S T U V W X Y Z

youth noise - sara:



Title: Sara
Artist: 
Album: Youth Noise Demo
Author: Youth Noise


Track 1: Overdrive

E|---------------------------|---------------------------|---------------------------|
B|---------------------------|---------------------------|---------------------------|
G|-----------------------4---|-4----4---4---4---4---4----|-6----6----6---6---4---2---|
D|-2----2----2---2-------4---|-4----4---4---4---4---4----|-6----6----6---6---4---2---|
A|-2----2----2---2-------2---|-2----2---2---2---2---2----|-4----4----4---4---2---0---|
E|-0----0----0---0-----------|---------------------------|---------------------------|


E|---------------------------|---------------------------|---------------------------|
B|---------------------------|---------------------------|---------------------------|
G|-2----2---2---2---2---2----|-----------------------4---|-4----4---4---4---4---4----|
D|-2----2---2---2---2---2----|-2----2----2---2-------4---|-4----4---4---4---4---4----|
A|-0----0---0---0---0---0----|-2----2----2---2-------2---|-2----2---2---2---2---2----|
E|---------------------------|-0----0----0---0-----------|---------------------------|


E|---------------------------|---------------------------|---------------------------|
B|---------------------------|---------------------------|------9----9---7---7---9---|
G|-6----6----6---6---4---2---|-2----2---2---2---2---2----|-9-------------------------|
D|-6----6----6---6---4---2---|-2----2---2---2---2---2----|---------------------------|
A|-4----4----4---4---2---0---|-0----0---0---0---0---0----|---------------------------|
E|---------------------------|---------------------------|---------------------------|


E|---------------------------|---------------------------|------------------------------|
B|-9----9---7---9---9---7----|---------------------------|------------------------------|
G|---------------------------|-9-------------------------|------------------------------|
D|---------------------------|------9----7---7---6---7---|-7----7---7-------------------|
A|---------------------------|---------------------------|--------------7---7---6---7---|
E|---------------------------|---------------------------|------------------------------|


E|---------------------------|---------------------------|---------------------------|
B|------9----9---7---7---9---|-9----9---7---9---9---7----|---------------------------|
G|-9-------------------------|---------------------------|-9-------------------------|
D|---------------------------|---------------------------|------9----7---7---6---7---|
A|---------------------------|---------------------------|---------------------------|
E|---------------------------|---------------------------|---------------------------|


E|------------------------------|-----------7-----|-7------------------|------4--------------|
B|------------------------------|-9----7----------|-------7---9---7----|-5---------7-----5---|
G|------------------------------|-----------------|--------------------|---------------------|
D|-7----7---7-------------------|-----------------|--------------------|---------------------|
A|--------------7---7---6---7---|-----------------|--------------------|---------------------|
E|------------------------------|-----------------|--------------------|---------------------|


E|---------------------------------|-----------------|---------------------------|
B|-7---7---5---5---4---4---5---7---|-9----5----7-----|-7----5---7---7---5---7----|
G|---------------------------------|-----------------|---------------------------|
D|---------------------------------|-----------------|---------------------------|
A|---------------------------------|-----------------|---------------------------|
E|---------------------------------|-----------------|---------------------------|


E|---------------------------------|---------------------------------|--------|--------|
B|-7---7---5---5---7---5---7---7---|-7---5---5---7---5---7---5---0---|-5------|-5------|
G|---------------------------------|---------------------------------|--------|--------|
D|---------------------------------|---------------------------------|--------|--------|
A|---------------------------------|---------------------------------|--------|--------|
E|---------------------------------|---------------------------------|--------|--------|


E|--------|--------|--------|--------|--------|--------|-------------|--------------------|
B|-5------|-5------|--------|--------|--------|--------|------9------|-9-----9---9--------|
G|--------|--------|--------|--------|--------|--------|-9-----------|---------------9----|
D|--------|--------|--------|--------|--------|--------|-------------|--------------------|
A|--------|--------|--------|--------|--------|--------|-------------|--------------------|
E|--------|--------|--------|--------|--------|--------|-------------|--------------------|


E|---------------------------|---------------------------------|------7------|-7---------7---7-----------|
B|------7---5---7---9---7----|-7---5---7---9---7---5---7---5---|-------------|-------------------7---5---|
G|-9-------------------------|---------------------------------|-9-----------|------9--------------------|
D|---------------------------|---------------------------------|-------------|---------------------------|
A|---------------------------|---------------------------------|-------------|---------------------------|
E|---------------------------|---------------------------------|-------------|---------------------------|


E|------------------------------|---------------------------------|---------------------------|
B|-7---7---5---5---7---7---7----|-7---9---7---5---7---5---7---5---|---------------------------|
G|------------------------------|---------------------------------|-9----9----9---9---9-------|
D|------------------------------|---------------------------------|-9----9----9---9---9---9---|
A|------------------------------|---------------------------------|-7----7----7---7---7---9---|
E|------------------------------|---------------------------------|-----------------------7---|


E|------------------------------|---------------------------|------------------------------|
B|------------------------------|---------------------------|------------------------------|
G|------------------------------|-11---11---11--11--11------|------------------------------|
D|-9----9---9---9---9---9---9---|-11---11---11--11--11--7---|-7----7---7---7---7---7---7---|
A|-9----9---9---9---9---9---9---|-9----9----9---9---9---7---|-7----7---7---7---7---7---7---|
E|-7----7---7---7---7---7---7---|-----------------------5---|-5----5---5---5---5---5---5---|


E|---------------------------|------------------------------|---------------------------|
B|---------------------------|------------------------------|---------------------------|
G|-9----9----9---9---9-------|------------------------------|-11---11---11--11--11------|
D|-9----9----9---9---9---9---|-9----9---9---9---9---9---9---|-11---11---11--11--11--7---|
A|-7----7----7---7---7---9---|-9----9---9---9---9---9---9---|-9----9----9---9---9---7---|
E|-----------------------7---|-7----7---7---7---7---7---7---|-----------------------5---|


E|------------------------------|--------|---------------------------------|------------------|
B|------------------------------|-9------|-7---7---9---9---5---5---7---7---|-5-----7-----5----|
G|------------------------------|--------|---------------------------------|------------------|
D|-7----7---7---7---7---7---7---|--------|---------------------------------|------------------|
A|-7----7---7---7---7---7---7---|--------|---------------------------------|------------------|
E|-5----5---5---5---5---5---5---|--------|---------------------------------|------------------|


E|---------------------------------|------7------|-7---7---5---5---4---4-----------|
B|-7---7---7---5---5---5---5---5---|-9-----------|-------------------------7---7---|
G|---------------------------------|-------------|---------------------------------|
D|---------------------------------|-------------|---------------------------------|
A|---------------------------------|-------------|---------------------------------|
E|---------------------------------|-------------|---------------------------------|


E|------------------|------------------------------|--------|--------|--------|--------|
B|-5-----7-----5----|-7---7---5---5---7---5---5----|-5------|-5------|-5------|-5------|
G|------------------|------------------------------|--------|--------|--------|--------|
D|------------------|------------------------------|--------|--------|--------|--------|
A|------------------|------------------------------|--------|--------|--------|--------|
E|------------------|------------------------------|--------|--------|--------|--------|


E|--------|--------|--------|--------|---------------------------|------------------------------|
B|--------|--------|--------|--------|---------------------------|------------------------------|
G|--------|--------|--------|--------|-9----9----9---9---9-------|------------------------------|
D|--------|--------|--------|--------|-9----9----9---9---9---9---|-9----9---9---9---9---9---9---|
A|--------|--------|--------|--------|-7----7----7---7---7---9---|-9----9---9---9---9---9---9---|
E|--------|--------|--------|--------|-----------------------7---|-7----7---7---7---7---7---7---|


E|---------------------------|------------------------------|---------------------------|
B|---------------------------|------------------------------|---------------------------|
G|-11---11---11--11--11------|------------------------------|-9----9----9---9---9-------|
D|-11---11---11--11--11--7---|-7----7---7---7---7---7---7---|-9----9----9---9---9---9---|
A|-9----9----9---9---9---7---|-7----7---7---7---7---7---7---|-7----7----7---7---7---9---|
E|-----------------------5---|-5----5---5---5---5---5---5---|-----------------------7---|


E|------------------------------|---------------------------|------------------------------|
B|------------------------------|---------------------------|------------------------------|
G|------------------------------|-11---11---11--11--11------|------------------------------|
D|-9----9---9---9---9---9---9---|-11---11---11--11--11--7---|-7----7---7---7---7---7---7---|
A|-9----9---9---9---9---9---9---|-9----9----9---9---9---7---|-7----7---7---7---7---7---7---|
E|-7----7---7---7---7---7---7---|-----------------------5---|-5----5---5---5---5---5---5---|


E|---------------------------|---------------------------|---------------------------|
B|---------------------------|---------------------------|---------------------------|
G|-----------------------4---|-4----4---4---4---4---4----|-6----6----6---6---4---2---|
D|-2----2----2---2-------4---|-4----4---4---4---4---4----|-6----6----6---6---4---2---|
A|-2----2----2---2-------2---|-2----2---2---2---2---2----|-4----4----4---4---2---0---|
E|-0----0----0---0-----------|---------------------------|---------------------------|


E|---------------------------|---------------------------|---------------------------|
B|---------------------------|---------------------------|---------------------------|
G|-2----2---2---2---2---2----|-----------------------4---|-4----4---4---4---4---4----|
D|-2----2---2---2---2---2----|-2----2----2---2-------4---|-4----4---4---4---4---4----|
A|-0----0---0---0---0---0----|-2----2----2---2-------2---|-2----2---2---2---2---2----|
E|---------------------------|-0----0----0---0-----------|---------------------------|


E|---------------------------|---------------------------|---------------------------------|
B|---------------------------|---------------------------|-----------------9---9---9---7---|
G|-6----6----6---6---4---2---|-2----2---2---2---2---2----|-9---9---9---9-------------------|
D|-6----6----6---6---4---2---|-2----2---2---2---2---2----|---------------------------------|
A|-4----4----4---4---2---0---|-0----0---0---0---0---0----|---------------------------------|
E|---------------------------|---------------------------|---------------------------------|


E|---------------------------------|---------------------------------|---------------------------------|
B|-7---7---7---7-------------------|-----------------9---9---9---7---|-7---7---7---7-------------------|
G|-----------------9---9---9---9---|-9---9---9---9-------------------|-----------------9---9---9---9---|
D|---------------------------------|---------------------------------|---------------------------------|
A|---------------------------------|---------------------------------|---------------------------------|
E|---------------------------------|---------------------------------|---------------------------------|


E|------7-----7---5---|-5----5---5---5---5---5----|---------------------------|---------------------------|
B|-9------------------|---------------------------|-7----7----7---7---9---5---|-5----5---5---5---5---5----|
G|--------------------|---------------------------|---------------------------|---------------------------|
D|--------------------|---------------------------|---------------------------|---------------------------|
A|--------------------|---------------------------|---------------------------|---------------------------|
E|--------------------|---------------------------|---------------------------|---------------------------|


E|---------------------------|---------------------------|---------------------------|
B|-5----9----9---9---9---7---|-7----7---7---7---7---7----|-5----7----7---7---9---5---|
G|---------------------------|---------------------------|---------------------------|
D|---------------------------|---------------------------|---------------------------|
A|---------------------------|---------------------------|---------------------------|
E|---------------------------|---------------------------|---------------------------|


E|---------------------------|---------------------------|---------------------------|
B|-5----5---5---5---5---5----|-5----9----9---9---9---7---|-7----7---7---7---7---7----|
G|---------------------------|---------------------------|---------------------------|
D|---------------------------|---------------------------|---------------------------|
A|---------------------------|---------------------------|---------------------------|
E|---------------------------|---------------------------|---------------------------|


E|---------------------------|---------------------------|--------|--------|--------|
B|-5----7----7---7---9---5---|-5----5---5---5---5---5----|-5------|-5------|-5------|
G|---------------------------|---------------------------|--------|--------|--------|
D|---------------------------|---------------------------|--------|--------|--------|
A|---------------------------|---------------------------|--------|--------|--------|
E|---------------------------|---------------------------|--------|--------|--------|


E|--------|--------|--------|--------|--------|--------|--------|--------|--------|
B|-5------|-5------|-5------|-5------|-5------|--------|--------|--------|--------|
G|--------|--------|--------|--------|--------|--------|--------|--------|--------|
D|--------|--------|--------|--------|--------|--------|--------|--------|--------|
A|--------|--------|--------|--------|--------|--------|--------|--------|--------|
E|--------|--------|--------|--------|--------|--------|--------|--------|--------|


E|--------|--------|--------|--------|-----------------|--------------------|---------------------------|
B|--------|--------|--------|--------|-9---------7-----|-7-----7---7---7----|-5----7---7---7----9---5---|
G|--------|--------|--------|--------|------9----------|--------------------|---------------------------|
D|--------|--------|--------|--------|-----------------|--------------------|---------------------------|
A|--------|--------|--------|--------|-----------------|--------------------|---------------------------|
E|--------|--------|--------|--------|-----------------|--------------------|---------------------------|


E|--------|-----------------|--------------------|---------------------------|--------|
B|-5------|-9---------7-----|-7-----7---7---7----|-5----7---7---7----9---5---|-5------|
G|--------|------9----------|--------------------|---------------------------|--------|
D|--------|-----------------|--------------------|---------------------------|--------|
A|--------|-----------------|--------------------|---------------------------|--------|
E|--------|-----------------|--------------------|---------------------------|--------|


E|---------------------------|------------------------------|---------------------------|
B|---------------------------|------------------------------|---------------------------|
G|-9----9----9---9---9-------|------------------------------|-11---11---11--11--11------|
D|-9----9----9---9---9---9---|-9----9---9---9---9---9---9---|-11---11---11--11--11--7---|
A|-7----7----7---7---7---9---|-9----9---9---9---9---9---9---|-9----9----9---9---9---7---|
E|-----------------------7---|-7----7---7---7---7---7---7---|-----------------------5---|


E|------------------------------|---------------------------|------------------------------|
B|------------------------------|---------------------------|------------------------------|
G|------------------------------|-9----9----9---9---9-------|------------------------------|
D|-7----7---7---7---7---7---7---|-9----9----9---9---9---9---|-9----9---9---9---9---9---9---|
A|-7----7---7---7---7---7---7---|-7----7----7---7---7---9---|-9----9---9---9---9---9---9---|
E|-5----5---5---5---5---5---5---|-----------------------7---|-7----7---7---7---7---7---7---|


E|---------------------------|------------------------------|---------------------------|
B|---------------------------|------------------------------|---------------------------|
G|-11---11---11--11--11------|------------------------------|-9----9----9---9---9-------|
D|-11---11---11--11--11--7---|-7----7---7---7---7---7---7---|-9----9----9---9---9---9---|
A|-9----9----9---9---9---7---|-7----7---7---7---7---7---7---|-7----7----7---7---7---9---|
E|-----------------------5---|-5----5---5---5---5---5---5---|-----------------------7---|


E|------------------------------|---------------------------|------------------------------|
B|------------------------------|---------------------------|------------------------------|
G|------------------------------|-11---11---11--11--11------|------------------------------|
D|-9----9---9---9---9---9---9---|-11---11---11--11--11--7---|-7----7---7---7---7---7---7---|
A|-9----9---9---9---9---9---9---|-9----9----9---9---9---7---|-7----7---7---7---7---7---7---|
E|-7----7---7---7---7---7---7---|-----------------------5---|-5----5---5---5---5---5---5---|


E|---------------------------|------------------------------|---------------------------|
B|---------------------------|------------------------------|---------------------------|
G|-9----9----9---9---9-------|------------------------------|-11---11---11--11--11------|
D|-9----9----9---9---9---9---|-9----9---9---9---9---9---9---|-11---11---11--11--11--7---|
A|-7----7----7---7---7---9---|-9----9---9---9---9---9---9---|-9----9----9---9---9---7---|
E|-----------------------7---|-7----7---7---7---7---7---7---|-----------------------5---|


E|------------------------------|---------------------------|------------------------------|
B|------------------------------|---------------------------|------------------------------|
G|------------------------------|-9----9----9---9---9-------|------------------------------|
D|-7----7---7---7---7---7---7---|-9----9----9---9---9---9---|-9----9---9---9---9---9---9---|
A|-7----7---7---7---7---7---7---|-7----7----7---7---7---9---|-9----9---9---9---9---9---9---|
E|-5----5---5---5---5---5---5---|-----------------------7---|-7----7---7---7---7---7---7---|


E|---------------------------|------------------------------|---------------------------|
B|---------------------------|------------------------------|---------------------------|
G|-11---11---11--11--11------|------------------------------|-9----9----9---9---9-------|
D|-11---11---11--11--11--7---|-7----7---7---7---7---7---7---|-9----9----9---9---9---9---|
A|-9----9----9---9---9---7---|-7----7---7---7---7---7---7---|-7----7----7---7---7---9---|
E|-----------------------5---|-5----5---5---5---5---5---5---|-----------------------7---|


E|------------------------------|---------------------------|------------------------------|
B|------------------------------|---------------------------|------------------------------|
G|------------------------------|-11---11---11--11--11------|------------------------------|
D|-9----9---9---9---9---9---9---|-11---11---11--11--11--7---|-7----7---7---7---7---7---7---|
A|-9----9---9---9---9---9---9---|-9----9----9---9---9---7---|-7----7---7---7---7---7---7---|
E|-7----7---7---7---7---7---7---|-----------------------5---|-5----5---5---5---5---5---5---|


E|---------------------------|------------------------------|---------------------------|
B|---------------------------|------------------------------|---------------------------|
G|-9----9----9---9---9-------|------------------------------|-11---11---11--11--11------|
D|-9----9----9---9---9---9---|-9----9---9---9---9---9---9---|-11---11---11--11--11--7---|
A|-7----7----7---7---7---9---|-9----9---9---9---9---9---9---|-9----9----9---9---9---7---|
E|-----------------------7---|-7----7---7---7---7---7---7---|-----------------------5---|


E|------------------------------|---------------------------|------------------------------|
B|------------------------------|---------------------------|------------------------------|
G|------------------------------|-9----9----9---9---9-------|------------------------------|
D|-7----7---7---7---7---7---7---|-9----9----9---9---9---9---|-9----9---9---9---9---9---9---|
A|-7----7---7---7---7---7---7---|-7----7----7---7---7---9---|-9----9---9---9---9---9---9---|
E|-5----5---5---5---5---5---5---|-----------------------7---|-7----7---7---7---7---7---7---|


E|---------------------------|------------------------------|-------------|--------|
B|---------------------------|------------------------------|-------------|--------|
G|-11---11---11--11--11------|------------------------------|-------------|--------|
D|-11---11---11--11--11--7---|-7----7---7---7---7---7---7---|------2------|-2------|
A|-9----9----9---9---9---7---|-7----7---7---7---7---7---7---|------2------|-2------|
E|-----------------------5---|-5----5---5---5---5---5---5---|------0------|-0------|


E|--------|
B|--------|
G|--------|
D|-2------|
A|-2------|
E|-0------|





Track 2: Backup

E|--------|--------|--------|--------|--------|--------|--------|--------|--------|
B|--------|--------|--------|--------|--------|--------|--------|--------|--------|
G|--------|--------|--------|--------|--------|--------|--------|--------|--------|
D|--------|--------|--------|--------|--------|--------|--------|--------|--------|
A|--------|--------|--------|--------|--------|--------|--------|--------|--------|
E|--------|--------|--------|--------|--------|--------|--------|--------|--------|


E|--------|--------|--------|--------|--------|--------|--------|--------|--------|
B|--------|--------|--------|--------|--------|--------|--------|--------|--------|
G|--------|--------|--------|--------|--------|--------|--------|--------|--------|
D|--------|--------|--------|--------|--------|--------|--------|--------|--------|
A|--------|--------|--------|--------|--------|--------|--------|--------|--------|
E|--------|--------|--------|--------|--------|--------|--------|--------|--------|


E|--------|--------|--------|--------|--------|--------|--------|--------|--------|
B|--------|--------|--------|--------|--------|--------|--------|--------|--------|
G|--------|--------|--------|--------|--------|--------|--------|--------|--------|
D|--------|--------|--------|--------|--------|--------|--------|--------|--------|
A|--------|--------|--------|--------|--------|--------|--------|--------|--------|
E|--------|--------|--------|--------|--------|--------|--------|--------|--------|


E|--------|--------|--------|--------|--------|--------|--------|--------|--------|
B|--------|--------|--------|--------|--------|--------|--------|--------|--------|
G|--------|--------|--------|--------|--------|--------|--------|--------|--------|
D|--------|--------|--------|--------|--------|--------|--------|--------|--------|
A|--------|--------|--------|--------|--------|--------|--------|--------|--------|
E|--------|--------|--------|--------|--------|--------|--------|--------|--------|


E|--------|--------|--------|--------|--------|--------|--------|--------|--------|
B|--------|--------|--------|--------|--------|--------|--------|--------|--------|
G|--------|--------|--------|--------|--------|--------|--------|--------|--------|
D|--------|--------|--------|--------|--------|--------|--------|--------|--------|
A|--------|--------|--------|--------|--------|--------|--------|--------|--------|
E|--------|--------|--------|--------|--------|--------|--------|--------|--------|


E|--------|--------|--------|--------|--------|--------|--------|--------|--------|
B|--------|--------|--------|--------|--------|--------|--------|--------|--------|
G|--------|--------|--------|--------|--------|--------|--------|--------|--------|
D|--------|--------|--------|--------|--------|--------|--------|--------|--------|
A|--------|--------|--------|--------|--------|--------|--------|--------|--------|
E|--------|--------|--------|--------|--------|--------|--------|--------|--------|


E|--------|--------|--------|--------|--------|--------|--------|--------|--------|
B|--------|--------|--------|--------|--------|--------|--------|--------|--------|
G|--------|--------|--------|--------|--------|--------|--------|--------|--------|
D|--------|--------|--------|--------|--------|--------|--------|--------|--------|
A|--------|--------|--------|--------|--------|--------|--------|--------|--------|
E|--------|--------|--------|--------|--------|--------|--------|--------|--------|


E|--------|--------|--------|--------|--------|--------|--------|--------|--------|
B|--------|--------|--------|--------|--------|--------|--------|--------|--------|
G|--------|--------|--------|--------|--------|--------|--------|--------|--------|
D|--------|--------|--------|--------|--------|--------|--------|--------|--------|
A|--------|--------|--------|--------|--------|--------|--------|--------|--------|
E|--------|--------|--------|--------|--------|--------|--------|--------|--------|


E|--------|--------|--------|--------|--------|--------|--------|--------|--------|
B|--------|--------|--------|--------|--------|--------|--------|--------|--------|
G|--------|--------|--------|--------|--------|--------|--------|--------|--------|
D|--------|--------|--------|--------|--------|--------|--------|--------|--------|
A|--------|--------|--------|--------|--------|--------|--------|--------|--------|
E|--------|--------|--------|--------|--------|--------|--------|--------|--------|


E|--------|--------|--------|--------|--------|--------|--------|--------|--------|
B|--------|--------|--------|--------|--------|--------|--------|--------|--------|
G|--------|--------|--------|--------|--------|--------|--------|--------|--------|
D|--------|--------|--------|--------|--------|--------|--------|--------|--------|
A|--------|--------|--------|--------|--------|--------|--------|--------|--------|
E|--------|--------|--------|--------|--------|--------|--------|--------|--------|


E|--------|--------|--------|--------|--------|--------|--------|--------|--------|
B|--------|--------|--------|--------|--------|--------|--------|--------|--------|
G|--------|--------|--------|--------|--------|--------|--------|--------|--------|
D|--------|--------|--------|--------|--------|--------|--------|--------|--------|
A|--------|--------|--------|--------|--------|--------|--------|--------|--------|
E|--------|--------|--------|--------|--------|--------|--------|--------|--------|


E|--------|--------|--------|--------|--------|--------|--------|--------|--------|
B|--------|--------|--------|--------|--------|--------|--------|--------|--------|
G|--------|--------|--------|--------|--------|--------|--------|--------|--------|
D|--------|--------|--------|--------|--------|--------|--------|--------|--------|
A|--------|--------|--------|--------|--------|--------|--------|--------|--------|
E|--------|--------|--------|--------|--------|--------|--------|--------|--------|


E|--------|--------|--------|--------|--------|--------|--------|--------|--------|
B|--------|--------|--------|--------|--------|--------|--------|--------|--------|
G|--------|--------|--------|--------|--------|--------|--------|--------|--------|
D|--------|--------|--------|--------|--------|--------|--------|--------|--------|
A|--------|--------|--------|--------|--------|--------|--------|--------|--------|
E|--------|--------|--------|--------|--------|--------|--------|--------|--------|


E|--------|--------|--------|--------|--------|--------|--------|--------|--------|
B|--------|--------|--------|--------|--------|--------|--------|--------|--------|
G|--------|--------|--------|--------|--------|--------|--------|--------|--------|
D|--------|--------|--------|--------|--------|--------|--------|--------|--------|
A|--------|--------|--------|--------|--------|--------|--------|--------|--------|
E|--------|--------|--------|--------|--------|--------|--------|--------|--------|


E|--------|--------|--------|--------|--------|--------|--------|--------|--------|
B|--------|--------|--------|--------|--------|--------|--------|--------|--------|
G|--------|--------|--------|--------|--------|--------|--------|--------|--------|
D|--------|--------|--------|--------|--------|--------|--------|--------|--------|
A|--------|--------|--------|--------|--------|--------|--------|--------|--------|
E|--------|--------|--------|--------|--------|--------|--------|--------|--------|


E|--------|---------------------------------|---------------------------------|---------------------------------|
B|--------|-----------------7---7---7---9---|-9---9---9---7---7---5---5---5---|-7---7---7---7---9---9---7---5---|
G|--------|-9---9---9---9-------------------|---------------------------------|---------------------------------|
D|--------|---------------------------------|---------------------------------|---------------------------------|
A|--------|---------------------------------|---------------------------------|---------------------------------|
E|--------|---------------------------------|---------------------------------|---------------------------------|


E|---------------------------|---------------------------------|---------------------------------|
B|-5---5---5----7---7---5----|-----------------7---7---7---9---|-9---9---9---7---7---5---5---5---|
G|---------------------------|-9---9---9---9-------------------|---------------------------------|
D|---------------------------|---------------------------------|---------------------------------|
A|---------------------------|---------------------------------|---------------------------------|
E|---------------------------|---------------------------------|---------------------------------|


E|---------------------------------|---------------------------|---------------------------------|
B|-7---7---7---7---9---9---7---5---|-5---5---5----7---7---5----|-----------------7---7---7---9---|
G|---------------------------------|---------------------------|-9---9---9---9-------------------|
D|---------------------------------|---------------------------|---------------------------------|
A|---------------------------------|---------------------------|---------------------------------|
E|---------------------------------|---------------------------|---------------------------------|


E|---------------------------------|---------------------------------|---------------------------|
B|-9---9---9---7---7---5---5---5---|-7---7---7---7---9---9---7---5---|-5---5---5----7---7---5----|
G|---------------------------------|---------------------------------|---------------------------|
D|---------------------------------|---------------------------------|---------------------------|
A|---------------------------------|---------------------------------|---------------------------|
E|---------------------------------|---------------------------------|---------------------------|


E|---------------------------------|---------------------------------|---------------------------------|
B|-----------------7---7---7---9---|-9---9---9---7---7---5---5---5---|-7---7---7---7---9---9---7---5---|
G|-9---9---9---9-------------------|---------------------------------|---------------------------------|
D|---------------------------------|---------------------------------|---------------------------------|
A|---------------------------------|---------------------------------|---------------------------------|
E|---------------------------------|---------------------------------|---------------------------------|


E|---------------------------|-------------|--------|--------|
B|-5---5---5----7---7---5----|------5------|-5------|-5------|
G|---------------------------|-------------|--------|--------|
D|---------------------------|-------------|--------|--------|
A|---------------------------|-------------|--------|--------|
E|---------------------------|-------------|--------|--------|





Track 3: Bass

G|---------------------------|---------------------------|---------------------------|
D|---------------------------|---------------------------|---------------------------|
A|-7----7----7---7---0---2---|-2----2---2---2---2---2----|-4----4----4---4---2---0---|
E|---------------------------|---------------------------|---------------------------|


G|---------------------------|---------------------------|---------------------------|
D|---------------------------|---------------------------|---------------------------|
A|-0----0---0---0---0---0----|-7----7----7---7---0---2---|-2----2---2---2---2---2----|
E|---------------------------|---------------------------|---------------------------|


G|---------------------------|---------------------------|---------------------------|
D|---------------------------|---------------------------|---------------------------|
A|-4----4----4---4---2---0---|-0----0---0---0---0---0----|-7----7----7---7---0---2---|
E|---------------------------|---------------------------|---------------------------|


G|---------------------------|---------------------------|---------------------------|
D|---------------------------|---------------------------|---------------------------|
A|-2----2---2---2---2---2----|-4----4----4---4---2---0---|-0----0---0---0---0---0----|
E|---------------------------|---------------------------|---------------------------|


G|---------------------------|---------------------------|---------------------------|
D|---------------------------|---------------------------|---------------------------|
A|-7----7----7---7---0---2---|-2----2---2---2---2---2----|-4----4----4---4---2---0---|
E|---------------------------|---------------------------|---------------------------|


G|---------------------------|---------------------------|---------------------------|
D|---------------------------|---------------------------|---------------------------|
A|-0----0---0---0---0---0----|-7----7----7---7---0---2---|-2----2---2---2---2---2----|
E|---------------------------|---------------------------|---------------------------|


G|---------------------------|---------------------------|---------------------------|
D|---------------------------|---------------------------|---------------------------|
A|-4----4----4---4---2---0---|-0----0---0---0---0---0----|-7----7----7---7---0---2---|
E|---------------------------|---------------------------|---------------------------|


G|---------------------------|---------------------------|---------------------------|
D|---------------------------|---------------------------|---------------------------|
A|-2----2---2---2---2---2----|-4----4----4---4---2---0---|-0----0---0---0---0---0----|
E|---------------------------|---------------------------|---------------------------|


G|---------------------------|------------------------------|---------------------------|
D|---------------------------|------------------------------|---------------------------|
A|-------------------0---2---|-2----2---2---2---2---2---2---|-4----4----4---4---2---0---|
E|-0----0----0---0-----------|------------------------------|---------------------------|


G|------------------------------|---------------------------|------------------------------|
D|------------------------------|---------------------------|------------------------------|
A|-0----0---0---0---0---0---0---|-------------------0---2---|-2----2---2---2---2---2---2---|
E|------------------------------|-0----0----0---0-----------|------------------------------|


G|---------------------------|------------------------------|---------------------------|
D|---------------------------|------------------------------|---------------------------|
A|-4----4----4---4---2---0---|-0----0---0---0---0---0---0---|-------------------0---2---|
E|---------------------------|------------------------------|-0----0----0---0-----------|


G|------------------------------|---------------------------|------------------------------|
D|------------------------------|---------------------------|------------------------------|
A|-2----2---2---2---2---2---2---|-4----4----4---4---2---0---|-0----0---0---0---0---0---0---|
E|------------------------------|---------------------------|------------------------------|


G|---------------------------|------------------------------|---------------------------|
D|---------------------------|------------------------------|---------------------------|
A|-------------------0---2---|-2----2---2---2---2---2---2---|-4----4----4---4---2---0---|
E|-0----0----0---0-----------|------------------------------|---------------------------|


G|------------------------------|---------------------------|------------------------------|
D|------------------------------|---------------------------|------------------------------|
A|-0----0---0---0---0---0---0---|-----------------------2---|-2----2---2---2---2---2---2---|
E|------------------------------|-0----0----0---0---0-------|------------------------------|


G|---------------------------|------------------------------|---------------------------|
D|---------------------------|------------------------------|---------------------------|
A|-----------------------0---|-0----0---0---0---0---0---0---|-----------------------2---|
E|-2----2----2---2---2-------|------------------------------|-0----0----0---0---0-------|


G|------------------------------|---------------------------|------------------------------|
D|------------------------------|---------------------------|------------------------------|
A|-2----2---2---2---2---2---2---|-----------------------0---|-0----0---0---0---0---0---0---|
E|------------------------------|-2----2----2---2---2-------|------------------------------|


G|---------------------------|---------------------------|---------------------------|
D|---------------------------|---------------------------|---------------------------|
A|-7----7----7---7---0---2---|-2----2---2---2---2---2----|-4----4----4---4---2---0---|
E|---------------------------|---------------------------|---------------------------|


G|---------------------------|---------------------------|---------------------------|
D|---------------------------|---------------------------|---------------------------|
A|-0----0---0---0---0---0----|-7----7----7---7---0---2---|-2----2---2---2---2---2----|
E|---------------------------|---------------------------|---------------------------|


G|---------------------------|---------------------------|---------------------------|
D|---------------------------|---------------------------|---------------------------|
A|-4----4----4---4---2---0---|-0----0---0---0---0---0----|-------------------0---2---|
E|---------------------------|---------------------------|-0----0----0---0-----------|


G|------------------------------|---------------------------|------------------------------|
D|------------------------------|---------------------------|------------------------------|
A|-2----2---2---2---2---2---2---|-4----4----4---4---2---0---|-0----0---0---0---0---0---0---|
E|------------------------------|---------------------------|------------------------------|


G|---------------------------|------------------------------|---------------------------|
D|---------------------------|------------------------------|---------------------------|
A|-------------------0---2---|-2----2---2---2---2---2---2---|-4----4----4---4---2---0---|
E|-0----0----0---0-----------|------------------------------|---------------------------|


G|------------------------------|---------------------------|------------------------------|
D|------------------------------|---------------------------|------------------------------|
A|-0----0---0---0---0---0---0---|-----------------------2---|-2----2---2---2---2---2---2---|
E|------------------------------|-0----0----0---0---0-------|------------------------------|


G|---------------------------|------------------------------|---------------------------|
D|---------------------------|------------------------------|---------------------------|
A|-----------------------0---|-0----0---0---0---0---0---0---|-----------------------2---|
E|-2----2----2---2---2-------|------------------------------|-0----0----0---0---0-------|


G|------------------------------|---------------------------|------------------------------|
D|------------------------------|---------------------------|------------------------------|
A|-2----2---2---2---2---2---2---|-----------------------0---|-0----0---0---0---0---0---0---|
E|------------------------------|-2----2----2---2---2-------|------------------------------|


G|---------------------------|---------------------------|---------------------------|
D|---------------------------|---------------------------|---------------------------|
A|-7----7----7---7---0---2---|-2----2---2---2---2---2----|-4----4----4---4---2---0---|
E|---------------------------|---------------------------|---------------------------|


G|---------------------------|---------------------------|---------------------------|
D|---------------------------|---------------------------|---------------------------|
A|-0----0---0---0---0---0----|-7----7----7---7---0---2---|-2----2---2---2---2---2----|
E|---------------------------|---------------------------|---------------------------|


G|---------------------------|---------------------------|---------------------------|
D|---------------------------|---------------------------|---------------------------|
A|-4----4----4---4---2---0---|-0----0---0---0---0---0----|-7----7----7---7---0---2---|
E|---------------------------|---------------------------|---------------------------|


G|---------------------------|---------------------------|---------------------------|
D|---------------------------|---------------------------|---------------------------|
A|-2----2---2---2---2---2----|-4----4----4---4---2---0---|-0----0---0---0---0---0----|
E|---------------------------|---------------------------|---------------------------|


G|---------------------------|---------------------------|---------------------------|
D|---------------------------|---------------------------|---------------------------|
A|-7----7----7---7---0---2---|-2----2---2---2---2---2----|-4----4----4---4---2---0---|
E|---------------------------|---------------------------|---------------------------|


G|---------------------------|---------------------------|---------------------------|
D|---------------------------|---------------------------|---------------------------|
A|-0----0---0---0---0---0----|-7----7----7---7---0---2---|-2----2---2---2---2---2----|
E|---------------------------|---------------------------|---------------------------|


G|---------------------------|---------------------------|---------------------------|
D|---------------------------|---------------------------|---------------------------|
A|-4----4----4---4---2---0---|-0----0---0---0---0---0----|-7----7----7---7---0---2---|
E|---------------------------|---------------------------|---------------------------|


G|---------------------------|---------------------------|---------------------------|
D|---------------------------|---------------------------|---------------------------|
A|-2----2---2---2---2---2----|-4----4----4---4---2---0---|-0----0---0---0---0---0----|
E|---------------------------|---------------------------|---------------------------|


G|---------------------------------|---------------------------------|---------------------------------|
D|---------------------------------|---------------------------------|---------------------------------|
A|---------------------------------|---------------------------------|-4---4---4---4---4---4---2---0---|
E|-0---0---0---0---0---0---0---0---|-0---0---0---0---0---0---0---0---|---------------------------------|


G|------------------------------|---------------------------------|---------------------------------|
D|------------------------------|---------------------------------|---------------------------------|
A|-0----0---0---0---0---0---0---|---------------------------------|---------------------------------|
E|------------------------------|-0---0---0---0---0---0---0---0---|-0---0---0---0---0---0---0---0---|


G|---------------------------------|------------------------------|---------------------------------|
D|---------------------------------|------------------------------|---------------------------------|
A|-4---4---4---4---4---4---2---0---|-0----0---0---0---0---0---0---|---------------------------------|
E|---------------------------------|------------------------------|-0---0---0---0---0---0---0---0---|


G|---------------------------------|---------------------------------|------------------------------|
D|---------------------------------|---------------------------------|------------------------------|
A|---------------------------------|-4---4---4---4---4---4---2---0---|-0----0---0---0---0---0---0---|
E|-0---0---0---0---0---0---0---0---|---------------------------------|------------------------------|


G|---------------------------------|---------------------------------|---------------------------------|
D|---------------------------------|---------------------------------|---------------------------------|
A|---------------------------------|---------------------------------|-4---4---4---4---4---4---2---0---|
E|-0---0---0---0---0---0---0---0---|-0---0---0---0---0---0---0---0---|---------------------------------|


G|------------------------------|---------------------------------|---------------------------------|
D|------------------------------|---------------------------------|---------------------------------|
A|-0----0---0---0---0---0---0---|---------------------------------|---------------------------------|
E|------------------------------|-0---0---0---0---0---0---0---0---|-0---0---0---0---0---0---0---0---|


G|---------------------------------|------------------------------|---------------------------------|
D|---------------------------------|------------------------------|---------------------------------|
A|-4---4---4---4---4---4---2---0---|-0----0---0---0---0---0---0---|---------------------------------|
E|---------------------------------|------------------------------|-0---0---0---0---0---0---0---0---|


G|---------------------------------|---------------------------------|------------------------------|
D|---------------------------------|---------------------------------|------------------------------|
A|---------------------------------|-4---4---4---4---4---4---2---0---|-0----0---0---0---0---0---0---|
E|-0---0---0---0---0---0---0---0---|---------------------------------|------------------------------|


G|---------------------------|------------------------------|---------------------------|
D|---------------------------|------------------------------|---------------------------|
A|-----------------------2---|-2----2---2---2---2---2---2---|-----------------------0---|
E|-0----0----0---0---0-------|------------------------------|-2----2----2---2---2-------|


G|------------------------------|---------------------------|------------------------------|
D|------------------------------|---------------------------|------------------------------|
A|-0----0---0---0---0---0---0---|-----------------------2---|-2----2---2---2---2---2---2---|
E|------------------------------|-0----0----0---0---0-------|------------------------------|


G|---------------------------|------------------------------|---------------------------|
D|---------------------------|------------------------------|---------------------------|
A|-----------------------0---|-0----0---0---0---0---0---0---|-----------------------2---|
E|-2----2----2---2---2-------|------------------------------|-0----0----0---0---0-------|


G|------------------------------|---------------------------|------------------------------|
D|------------------------------|---------------------------|------------------------------|
A|-2----2---2---2---2---2---2---|-----------------------0---|-0----0---0---0---0---0---0---|
E|------------------------------|-2----2----2---2---2-------|------------------------------|


G|---------------------------|------------------------------|---------------------------|
D|---------------------------|------------------------------|---------------------------|
A|-----------------------2---|-2----2---2---2---2---2---2---|-----------------------0---|
E|-0----0----0---0---0-------|------------------------------|-2----2----2---2---2-------|


G|------------------------------|---------------------------|------------------------------|
D|------------------------------|---------------------------|------------------------------|
A|-0----0---0---0---0---0---0---|-----------------------2---|-2----2---2---2---2---2---2---|
E|------------------------------|-0----0----0---0---0-------|------------------------------|


G|---------------------------|------------------------------|---------------------------|
D|---------------------------|------------------------------|---------------------------|
A|-----------------------0---|-0----0---0---0---0---0---0---|-----------------------2---|
E|-2----2----2---2---2-------|------------------------------|-0----0----0---0---0-------|


G|------------------------------|---------------------------|------------------------------|
D|------------------------------|---------------------------|------------------------------|
A|-2----2---2---2---2---2---2---|-----------------------0---|-0----0---0---0---0---0---0---|
E|------------------------------|-2----2----2---2---2-------|------------------------------|


G|---------------------------|------------------------------|---------------------------|
D|---------------------------|------------------------------|---------------------------|
A|-----------------------2---|-2----2---2---2---2---2---2---|-----------------------0---|
E|-0----0----0---0---0-------|------------------------------|-2----2----2---2---2-------|


G|------------------------------|---------------------------|------------------------------|
D|------------------------------|---------------------------|------------------------------|
A|-0----0---0---0---0---0---0---|-----------------------2---|-2----2---2---2---2---2---2---|
E|------------------------------|-0----0----0---0---0-------|------------------------------|


G|---------------------------|------------------------------|-------------|--------|
D|---------------------------|------------------------------|-------------|--------|
A|-----------------------0---|-0----0---0---0---0---0---0---|------7------|-7------|
E|-2----2----2---2---2-------|------------------------------|-------------|--------|


G|--------|
D|--------|
A|-7------|
E|--------|