Site menu:

    

Browse: 0-9 A B C D E F G H I J K L N O P Q R S T U V W X Y Z

yesterdays rising - sidewalks remnants:



Title: Sidewalks Remnants
Artist: 
Album: Ship Of Relations
Author: Yesterdays Rising


Track 1: IntroGit

E|--------|--------|-------------------------------------------------|-------------------------------------------------|
B|--------|--------|-------------------------------------------------|-------------------------------------------------|
G|--------|--------|-------------------------------------------------|-------------------------------------------------|
D|--------|--------|-------------------------------------------------|-------------------------------------------------|
A|--------|--------|-9--9--9--11-11-11-12-12-12-9--9--9--11-11-12-12-|-9--9--9--11-11-11-12-12-12-9--9--9--11-11-12-12-|
D|--------|--------|-0--0--0--0--0--0--0--0--0--0--0--0--0--0--0--0--|-0--0--0--0--0--0--0--0--0--0--0--0--0--0--0--0--|


E|-------------------------------------------------|-------------------------------------------------|
B|-------------------------------------------------|-------------------------------------------------|
G|-------------------------------------------------|-------------------------------------------------|
D|-------------------------------------------------|-------------------------------------------------|
A|-9--9--9--11-11-11-12-12-12-9--9--9--11-11-12-12-|-9--9--9--11-11-11-12-12-12-9--9--9--11-11-12-12-|
D|-0--0--0--0--0--0--0--0--0--0--0--0--0--0--0--0--|-0--0--0--0--0--0--0--0--0--0--0--0--0--0--0--0--|


E|--------|--------|--------|--------|--------|--------|--------|--------|--------|
B|--------|--------|--------|--------|--------|--------|--------|--------|--------|
G|--------|--------|--------|--------|--------|--------|--------|--------|--------|
D|--------|--------|--------|--------|--------|--------|--------|--------|--------|
A|--------|--------|--------|--------|--------|--------|--------|--------|--------|
D|--------|--------|--------|--------|--------|--------|--------|--------|--------|


E|--------|--------|--------|--------|--------|--------|--------|--------|--------|
B|--------|--------|--------|--------|--------|--------|--------|--------|--------|
G|--------|--------|--------|--------|--------|--------|--------|--------|--------|
D|--------|--------|--------|--------|--------|--------|--------|--------|--------|
A|--------|--------|--------|--------|--------|--------|--------|--------|--------|
D|--------|--------|--------|--------|--------|--------|--------|--------|--------|


E|--------|--------|--------|--------|--------|--------|--------|--------|--------|
B|--------|--------|--------|--------|--------|--------|--------|--------|--------|
G|--------|--------|--------|--------|--------|--------|--------|--------|--------|
D|--------|--------|--------|--------|--------|--------|--------|--------|--------|
A|--------|--------|--------|--------|--------|--------|--------|--------|--------|
D|--------|--------|--------|--------|--------|--------|--------|--------|--------|


E|--------|--------|--------|--------|--------|--------|--------|--------|--------|
B|--------|--------|--------|--------|--------|--------|--------|--------|--------|
G|--------|--------|--------|--------|--------|--------|--------|--------|--------|
D|--------|--------|--------|--------|--------|--------|--------|--------|--------|
A|--------|--------|--------|--------|--------|--------|--------|--------|--------|
D|--------|--------|--------|--------|--------|--------|--------|--------|--------|


E|--------|--------|--------|--------|--------|--------|--------|--------|--------|
B|--------|--------|--------|--------|--------|--------|--------|--------|--------|
G|--------|--------|--------|--------|--------|--------|--------|--------|--------|
D|--------|--------|--------|--------|--------|--------|--------|--------|--------|
A|--------|--------|--------|--------|--------|--------|--------|--------|--------|
D|--------|--------|--------|--------|--------|--------|--------|--------|--------|


E|--------|--------|--------|--------|--------|--------|--------|--------|--------|
B|--------|--------|--------|--------|--------|--------|--------|--------|--------|
G|--------|--------|--------|--------|--------|--------|--------|--------|--------|
D|--------|--------|--------|--------|--------|--------|--------|--------|--------|
A|--------|--------|--------|--------|--------|--------|--------|--------|--------|
D|--------|--------|--------|--------|--------|--------|--------|--------|--------|


E|--------|--------|--------|--------|--------|--------|--------|--------|--------|
B|--------|--------|--------|--------|--------|--------|--------|--------|--------|
G|--------|--------|--------|--------|--------|--------|--------|--------|--------|
D|--------|--------|--------|--------|--------|--------|--------|--------|--------|
A|--------|--------|--------|--------|--------|--------|--------|--------|--------|
D|--------|--------|--------|--------|--------|--------|--------|--------|--------|


E|--------|--------|--------|--------|--------|--------|--------|--------|--------|
B|--------|--------|--------|--------|--------|--------|--------|--------|--------|
G|--------|--------|--------|--------|--------|--------|--------|--------|--------|
D|--------|--------|--------|--------|--------|--------|--------|--------|--------|
A|--------|--------|--------|--------|--------|--------|--------|--------|--------|
D|--------|--------|--------|--------|--------|--------|--------|--------|--------|


E|--------|--------|
B|--------|--------|
G|--------|--------|
D|--------|--------|
A|--------|--------|
D|--------|--------|





Track 2: Left (Overdriven)

E|--------|--------|--------|--------|--------|--------|--------|--------|--------|
B|--------|--------|--------|--------|--------|--------|--------|--------|--------|
G|--------|--------|--------|--------|--------|--------|--------|--------|--------|
D|--------|--------|--------|--------|--------|--------|--------|--------|--------|
A|--------|--------|--------|--------|--------|--------|--------|--------|--------|
D|--------|--------|--------|--------|--------|--------|--------|--------|--------|


E|--------|--------|--------|--------|--------|--------|--------|--------|--------|
B|--------|--------|--------|--------|--------|--------|--------|--------|--------|
G|--------|--------|--------|--------|--------|--------|--------|--------|--------|
D|--------|--------|--------|--------|--------|--------|--------|--------|--------|
A|--------|--------|--------|--------|--------|--------|--------|--------|--------|
D|--------|--------|--------|--------|--------|--------|--------|--------|--------|


E|--------|--------|--------|--------|--------|--------|--------|--------|--------|
B|--------|--------|--------|--------|--------|--------|--------|--------|--------|
G|--------|--------|--------|--------|--------|--------|--------|--------|--------|
D|--------|--------|--------|--------|--------|--------|--------|--------|--------|
A|--------|--------|--------|--------|--------|--------|--------|--------|--------|
D|--------|--------|--------|--------|--------|--------|--------|--------|--------|


E|--------|--------|--------|--------|--------|--------|--------|--------|--------|
B|--------|--------|--------|--------|--------|--------|--------|--------|--------|
G|--------|--------|--------|--------|--------|--------|--------|--------|--------|
D|--------|--------|--------|--------|--------|--------|--------|--------|--------|
A|--------|--------|--------|--------|--------|--------|--------|--------|--------|
D|--------|--------|--------|--------|--------|--------|--------|--------|--------|


E|--------|--------|--------|--------|--------|--------|--------|--------|--------|
B|--------|--------|--------|--------|--------|--------|--------|--------|--------|
G|--------|--------|--------|--------|--------|--------|--------|--------|--------|
D|--------|--------|--------|--------|--------|--------|--------|--------|--------|
A|--------|--------|--------|--------|--------|--------|--------|--------|--------|
D|--------|--------|--------|--------|--------|--------|--------|--------|--------|


E|--------|--------|--------|--------|--------|--------|--------|--------|--------|
B|--------|--------|--------|--------|--------|--------|--------|--------|--------|
G|--------|--------|--------|--------|--------|--------|--------|--------|--------|
D|--------|--------|--------|--------|--------|--------|--------|--------|--------|
A|--------|--------|--------|--------|--------|--------|--------|--------|--------|
D|--------|--------|--------|--------|--------|--------|--------|--------|--------|


E|--------|--------|--------|--------|--------|--------|--------|--------|--------|
B|--------|--------|--------|--------|--------|--------|--------|--------|--------|
G|--------|--------|--------|--------|--------|--------|--------|--------|--------|
D|--------|--------|--------|--------|--------|--------|--------|--------|--------|
A|--------|--------|--------|--------|--------|--------|--------|--------|--------|
D|--------|--------|--------|--------|--------|--------|--------|--------|--------|


E|--------|--------|--------|--------|--------|--------|--------|--------|--------|
B|--------|--------|--------|--------|--------|--------|--------|--------|--------|
G|--------|--------|--------|--------|--------|--------|--------|--------|--------|
D|--------|--------|--------|--------|--------|--------|--------|--------|--------|
A|--------|--------|--------|--------|--------|--------|--------|--------|--------|
D|--------|--------|--------|--------|--------|--------|--------|--------|--------|


E|--------|--------|--------|--------|--------|--------|--------|--------|
B|--------|--------|--------|--------|--------|--------|--------|--------|
G|--------|--------|--------|--------|--------|--------|--------|--------|
D|--------|--------|--------|--------|--------|--------|--------|--------|
A|--------|--------|--------|--------|--------|--------|--------|--------|
D|--------|--------|--------|--------|--------|--------|--------|--------|





Track 3: Right (Overdriven)

E|--------|--------|--------|--------|--------|--------|-------------------------------------------------|
B|--------|--------|--------|--------|--------|--------|-------------------------------------------------|
G|--------|--------|--------|--------|--------|--------|-------------------------------------------------|
D|--------|--------|--------|--------|--------|--------|-------------------------------------------------|
A|--------|--------|--------|--------|--------|--------|-9--9--9--11-11-11-12-12-12-9--9--9--11-11-12-12-|
D|--------|--------|--------|--------|--------|--------|-0--0--0--0--0--0--0--0--0--0--0--0--0--0--0--0--|


E|-------------------------------------------------|-------------------------------------------------|
B|-------------------------------------------------|-------------------------------------------------|
G|-------------------------------------------------|-------------------------------------------------|
D|-------------------------------------------------|-------------------------------------------------|
A|-9--9--9--11-11-11-12-12-12-9--9--9--11-11-12-12-|-9--9--9--11-11-11-12-12-12-9--9--9--11-11-12-12-|
D|-0--0--0--0--0--0--0--0--0--0--0--0--0--0--0--0--|-0--0--0--0--0--0--0--0--0--0--0--0--0--0--0--0--|


E|---------------------------------------------|--------|--------|--------|--------|
B|---------------------------------------------|--------|--------|--------|--------|
G|---------------------------------------------|--------|--------|--------|--------|
D|---------------------------------------------|--------|--------|--------|--------|
A|-9--9--9--11-11-11-12-12-12-9--9--9--11------|--------|--------|--------|--------|
D|-0--0--0--0--0--0--0--0--0--0--0--0--0-------|--------|--------|--------|--------|


E|--------|--------|--------|--------|--------|--------|--------|--------|--------|
B|--------|--------|--------|--------|--------|--------|--------|--------|--------|
G|--------|--------|--------|--------|--------|--------|--------|--------|--------|
D|--------|--------|--------|--------|--------|--------|--------|--------|--------|
A|--------|--------|--------|--------|--------|--------|--------|--------|--------|
D|--------|--------|--------|--------|--------|--------|--------|--------|--------|


E|--------|--------|--------|--------|--------|--------|--------|--------|--------|
B|--------|--------|--------|--------|--------|--------|--------|--------|--------|
G|--------|--------|--------|--------|--------|--------|--------|--------|--------|
D|--------|--------|--------|--------|--------|--------|--------|--------|--------|
A|--------|--------|--------|--------|--------|--------|--------|--------|--------|
D|--------|--------|--------|--------|--------|--------|--------|--------|--------|


E|--------|--------|--------|--------|--------|--------|--------|--------|--------|
B|--------|--------|--------|--------|--------|--------|--------|--------|--------|
G|--------|--------|--------|--------|--------|--------|--------|--------|--------|
D|--------|--------|--------|--------|--------|--------|--------|--------|--------|
A|--------|--------|--------|--------|--------|--------|--------|--------|--------|
D|--------|--------|--------|--------|--------|--------|--------|--------|--------|


E|--------|--------|--------|--------|--------|--------|--------|--------|--------|
B|--------|--------|--------|--------|--------|--------|--------|--------|--------|
G|--------|--------|--------|--------|--------|--------|--------|--------|--------|
D|--------|--------|--------|--------|--------|--------|--------|--------|--------|
A|--------|--------|--------|--------|--------|--------|--------|--------|--------|
D|--------|--------|--------|--------|--------|--------|--------|--------|--------|


E|--------|--------|--------|--------|--------|--------|--------|--------|--------|
B|--------|--------|--------|--------|--------|--------|--------|--------|--------|
G|--------|--------|--------|--------|--------|--------|--------|--------|--------|
D|--------|--------|--------|--------|--------|--------|--------|--------|--------|
A|--------|--------|--------|--------|--------|--------|--------|--------|--------|
D|--------|--------|--------|--------|--------|--------|--------|--------|--------|


E|--------|--------|--------|--------|--------|--------|--------|--------|--------|
B|--------|--------|--------|--------|--------|--------|--------|--------|--------|
G|--------|--------|--------|--------|--------|--------|--------|--------|--------|
D|--------|--------|--------|--------|--------|--------|--------|--------|--------|
A|--------|--------|--------|--------|--------|--------|--------|--------|--------|
D|--------|--------|--------|--------|--------|--------|--------|--------|--------|


E|--------|--------|--------|--------|--------|--------|--------|--------|--------|
B|--------|--------|--------|--------|--------|--------|--------|--------|--------|
G|--------|--------|--------|--------|--------|--------|--------|--------|--------|
D|--------|--------|--------|--------|--------|--------|--------|--------|--------|
A|--------|--------|--------|--------|--------|--------|--------|--------|--------|
D|--------|--------|--------|--------|--------|--------|--------|--------|--------|


E|--------|--------|--------|
B|--------|--------|--------|
G|--------|--------|--------|
D|--------|--------|--------|
A|--------|--------|--------|
D|--------|--------|--------|





Track 4: IntroGit

E|--------|--------|--------|--------|--------|--------|-------------------------------------------------|
B|--------|--------|--------|--------|--------|--------|-------------------------------------------------|
G|--------|--------|--------|--------|--------|--------|-------------------------------------------------|
D|--------|--------|--------|--------|--------|--------|-------------------------------------------------|
A|--------|--------|--------|--------|--------|--------|-9--9--9--11-11-11-12-12-12-11-11-11-16-16-16-16-|
D|--------|--------|--------|--------|--------|--------|-------------------------------------------------|


E|-------------------------------------------------|-------------------------------------------------|
B|-------------------------------------------------|-------------------------------------------------|
G|-------------------------------------------------|-------------------------------------------------|
D|-------------------------------------------------|-------------------------------------------------|
A|-9--9--9--11-11-11-12-12-12-11-11-11-16-16-16-16-|-9--9--9--11-11-11-12-12-12-11-11-11-16-16-16-16-|
D|-------------------------------------------------|-------------------------------------------------|


E|---------------------------------------------|--------|--------|--------|--------|
B|---------------------------------------------|--------|--------|--------|--------|
G|---------------------------------------------|--------|--------|--------|--------|
D|---------------------------------------------|--------|--------|--------|--------|
A|-9--9--9--11-11-11-12-12-12-11-11-11-16------|--------|--------|--------|--------|
D|---------------------------------------------|--------|--------|--------|--------|


E|--------|--------|--------|--------|--------|--------|--------|--------|--------|
B|--------|--------|--------|--------|--------|--------|--------|--------|--------|
G|--------|--------|--------|--------|--------|--------|--------|--------|--------|
D|--------|--------|--------|--------|--------|--------|--------|--------|--------|
A|--------|--------|--------|--------|--------|--------|--------|--------|--------|
D|--------|--------|--------|--------|--------|--------|--------|--------|--------|


E|--------|--------|--------|--------|--------|--------|--------|--------|--------|
B|--------|--------|--------|--------|--------|--------|--------|--------|--------|
G|--------|--------|--------|--------|--------|--------|--------|--------|--------|
D|--------|--------|--------|--------|--------|--------|--------|--------|--------|
A|--------|--------|--------|--------|--------|--------|--------|--------|--------|
D|--------|--------|--------|--------|--------|--------|--------|--------|--------|


E|--------|--------|--------|--------|--------|--------|--------|--------|--------|
B|--------|--------|--------|--------|--------|--------|--------|--------|--------|
G|--------|--------|--------|--------|--------|--------|--------|--------|--------|
D|--------|--------|--------|--------|--------|--------|--------|--------|--------|
A|--------|--------|--------|--------|--------|--------|--------|--------|--------|
D|--------|--------|--------|--------|--------|--------|--------|--------|--------|


E|--------|--------|--------|--------|--------|--------|--------|--------|--------|
B|--------|--------|--------|--------|--------|--------|--------|--------|--------|
G|--------|--------|--------|--------|--------|--------|--------|--------|--------|
D|--------|--------|--------|--------|--------|--------|--------|--------|--------|
A|--------|--------|--------|--------|--------|--------|--------|--------|--------|
D|--------|--------|--------|--------|--------|--------|--------|--------|--------|


E|--------|--------|--------|--------|--------|--------|--------|--------|--------|
B|--------|--------|--------|--------|--------|--------|--------|--------|--------|
G|--------|--------|--------|--------|--------|--------|--------|--------|--------|
D|--------|--------|--------|--------|--------|--------|--------|--------|--------|
A|--------|--------|--------|--------|--------|--------|--------|--------|--------|
D|--------|--------|--------|--------|--------|--------|--------|--------|--------|


E|--------|--------|--------|--------|--------|--------|--------|--------|--------|
B|--------|--------|--------|--------|--------|--------|--------|--------|--------|
G|--------|--------|--------|--------|--------|--------|--------|--------|--------|
D|--------|--------|--------|--------|--------|--------|--------|--------|--------|
A|--------|--------|--------|--------|--------|--------|--------|--------|--------|
D|--------|--------|--------|--------|--------|--------|--------|--------|--------|


E|--------|--------|--------|--------|--------|--------|--------|--------|--------|
B|--------|--------|--------|--------|--------|--------|--------|--------|--------|
G|--------|--------|--------|--------|--------|--------|--------|--------|--------|
D|--------|--------|--------|--------|--------|--------|--------|--------|--------|
A|--------|--------|--------|--------|--------|--------|--------|--------|--------|
D|--------|--------|--------|--------|--------|--------|--------|--------|--------|


E|--------|--------|--------|
B|--------|--------|--------|
G|--------|--------|--------|
D|--------|--------|--------|
A|--------|--------|--------|
D|--------|--------|--------|





Track 5: Right (Dist)

E|--------|--------|--------|--------|--------|--------|--------|--------|--------|
B|--------|--------|--------|--------|--------|--------|--------|--------|--------|
G|--------|--------|--------|--------|--------|--------|--------|--------|--------|
D|--------|--------|--------|--------|--------|--------|--------|--------|--------|
A|--------|--------|--------|--------|--------|--------|--------|--------|--------|
D|--------|--------|--------|--------|--------|--------|--------|--------|--------|


E|--------|-------------------------------------------------|-------------------------------------------------|
B|--------|-------------------------------------------------|-------------------------------------------------|
G|--------|-------------------------------------------------|-------------------------------------------------|
D|--------|-4--4--4--6--6--6--7--7--7--4--4--4--6--6--7--7--|-4--4--4--6--6--6--7--7--7--4--4--4--6--6--7--7--|
A|--------|-------------------------------------------------|-------------------------------------------------|
D|--------|-------------------------------------------------|-------------------------------------------------|


E|-------------------------------------------------|-------------------------------------------------|
B|-------------------------------------------------|-------------------------------------------------|
G|-------------------------------------------------|-------------------------------------------------|
D|-4--0--0--6--0--0--7--0--0--9--0--0--11-0--11-0--|-4--0--0--6--0--0--7--0--0--9--0--0--11-0--11-0--|
A|-------------------------------------------------|-------------------------------------------------|
D|-------------------------------------------------|-------------------------------------------------|


E|-------------------------------------------------|-------------------------------------------------|
B|-------------------------------------------------|-------------------------------------------------|
G|-------------------------------------------------|-------------------------------------------------|
D|-4--4--4--6--6--6--7--7--7--4--4--4--6--6--7--7--|-4--4--4--6--6--6--7--7--7--4--4--4--6--6--7--7--|
A|-------------------------------------------------|-------------------------------------------------|
D|-------------------------------------------------|-------------------------------------------------|


E|-------------------------------------------------|-------------------------------------------------|
B|-------------------------------------------------|-------------------------------------------------|
G|-------------------------------------------------|-------------------------------------------------|
D|-4--0--0--6--0--0--7--0--0--9--0--0--11-0--11-0--|-4--0--0--6--0--0--7--0--0--9--0--0--11-0--11-0--|
A|-------------------------------------------------|-------------------------------------------------|
D|-------------------------------------------------|-------------------------------------------------|


E|-------------------------------------------------|-----------------------------------------------|
B|-------------------------------------------------|-----------------------------------------------|
G|-------------------------------------------------|-----------------------------------------------|
D|-------14----14-11-------14----14-11----11-14-11-|-------14----14-11-------14----14-11----11-14--|
A|-9--9-----9--------9--9-----9--------9-----------|-9--9-----9--------9--9-----9--------9---------|
D|-------------------------------------------------|-----------------------------------------------|


E|-----------------------------------------------|-----------------------------------------------|
B|-----------------------------------------------|-----------------------------------------------|
G|-----------------------------------------------|-----------------------------------------------|
D|-------11----11-11-------12----12-12-------11--|-------12----12-12-------11----11-11-------11--|
A|-----------------------------------------------|-----------------------------------------------|
D|-0--0-----0--------0--0-----0--------0--0------|-0--0-----0--------0--0-----0--------0--0------|


E|-----------------------------------------------|-----------------------------------------------|
B|-----------------------------------------------|-----------------------------------------------|
G|-------------------------------------------14--|-------------------------14----14-13-----------|
D|-------14----14-11-------14----14-11----11-----|-------14----14-11-------------------------14--|
A|-9--9-----9--------9--9-----9--------9---------|-9--9-----9--------9--9-----9--------9--9------|
D|-----------------------------------------------|-----------------------------------------------|


E|-----------------------------------------------|-----------------------------------------------|
B|-----------------------------------------------|-----------------------------------------------|
G|-----------------------------------------------|-----------------------------------------------|
D|-------11----11-11-------12----12-12-------11--|-------12----12-12-------11----11-11-------11--|
A|-----------------------------------------------|-----------------------------------------------|
D|-0--0-----0--------0--0-----0--------0--0------|-0--0-----0--------0--0-----0--------0--0------|


E|-----------------------------------------------|-----------------------------------------------|
B|-----------------------------------------------|-----------------------------------------------|
G|-------------------------------14----14-13-----|----------------------14-------14----14-13-----|
D|-11-11----11-11----11-11----11----11-------14--|-11-11----11-11----11-------11----11-------14--|
A|-----------------------------------------------|-----------------------------------------------|
D|-----------------------------------------------|-----------------------------------------------|


E|-----------------------------------------------|-----------------------------------------------|
B|-----------------------------------------------|-----------------------------------------------|
G|-----------------------------------------------|-----------------------------------------------|
D|-------11----11-11-------11----11----------11--|-------11----11-11-------11----11-11-------11--|
A|-----------------------------------------------|-----------------------------------------------|
D|-0--0-----0--------0--0-----0-----0--0--0------|-0--0-----0--------0--0-----0--------0--0------|


E|-----------------------------------------------|-----------------------------------------------|
B|-----------------------------------------------|-----------------------------------------------|
G|-------------------------------14----14-13-----|----------------------14-------14----14-13-----|
D|-11-11----11-11----11-11----11----11-------14--|-11-11----11-11----11-------11----11-----------|
A|-----------------------------------------------|-----------------------------------------------|
D|-----------------------------------------------|-----------------------------------------------|


E|-----------------------------------------------|-----------------------------------------------|
B|-----------------------------------------------|-----------------------------------------------|
G|-----------------------------------------------|-----------------------------------------------|
D|-------11----11-11-------11----11----------11--|-------11----11-11-------11----11-11-------11--|
A|-----------------------------------------------|-----------------------------------------------|
D|-0--0-----0--------0--0-----0-----0--0--0------|-0--0-----0--------0--0-----0--------0--0------|


E|-------------------------------------------------|-------------------------------------------------|
B|-------------------------------------------------|-------------------------------------------------|
G|-------------------------------------------------|-------------------------------------------------|
D|-4--4--4--4--4--4--4--4--6--6--6--6--7--7--7--7--|-6--6--6--6--6--6--6--6--7--7--7--7--9--9--9--9--|
A|-------------------------------------------------|-------------------------------------------------|
D|-------------------------------------------------|-------------------------------------------------|


E|-------------------------------------------------|-------------------------------------------------|
B|-------------------------------------------------|-------------------------------------------------|
G|-------------------------------------------------|-------------------------------------------------|
D|-7--7--7--7--7--7--7--7--9--9--9--9--11-11-11-11-|-9--9--9--9--9--9--9--9--11-11-11-11-12-12-12-12-|
A|-------------------------------------------------|-------------------------------------------------|
D|-------------------------------------------------|-------------------------------------------------|


E|-------------------------------------------------|-------------------------------------------------|
B|-------------------------------------------------|-------------------------------------------------|
G|-------------------------------------------------|-------------------------------------------------|
D|-4--4--4--4--4--4--4--4--6--6--6--6--7--7--7--7--|-6--6--6--6--6--6--6--6--7--7--7--7--9--9--9--9--|
A|-------------------------------------------------|-------------------------------------------------|
D|-------------------------------------------------|-------------------------------------------------|


E|-------------------------------------------------|---------------------------------------------|
B|-------------------------------------------------|---------------------------------------------|
G|-------------------------------------------------|---------------------------------------------|
D|-7--7--7--7--7--7--7--7--9--9--9--9--11-11-11-11-|-9--9--9--9--9--9--9--9--11--11--11--12--12--|
A|-------------------------------------------------|---------------------------------------------|
D|-------------------------------------------------|---------------------------------------------|


E|-------------------------------------------------|-------------------------------------------------|
B|-------------------------------------------------|-------------------------------------------------|
G|-11-11-11-11-11-11-11-11-11-14-14-14-14-14-14-14-|-9--11-11-11-11-11-11-11-11-14-14-14-14-14-14-14-|
D|-------------------------------------------------|-------------------------------------------------|
A|-9--9--9--9--9--9--9--9--9--12-12-12-12-12-12-12-|-7--9--9--9--9--9--9--9--9--12-12-12-12-12-12-12-|
D|-------------------------------------------------|-------------------------------------------------|


E|-------------------------------------------------|-------------------------------------------------|
B|-------------------------------------------------|-------------------------------------------------|
G|-9--11-11-11-11-11-11-11-11-14-14-14-14-14-14-14-|-9--11-11-11-11-11-11-11-11-14-14-14-14-14-14-14-|
D|-------------------------------------------------|-------------------------------------------------|
A|-7--9--9--9--9--9--9--9--9--12-12-12-12-12-12-12-|-7--9--9--9--9--9--9--9--9--12-12-12-12-12-12-12-|
D|-------------------------------------------------|-------------------------------------------------|


E|-------------------------------------------------|-------------------------------------------------|
B|-------------------------------------------------|-------------------------------------------------|
G|-11-11-11-11-11-11-11-11-11-14-14-14-14-14-14-14-|-9--11-11-11-11-11-11-11-11-14-14-14-14-14-14-14-|
D|-------------------------------------------------|-------------------------------------------------|
A|-9--9--9--9--9--9--9--9--9--12-12-12-12-12-12-12-|-7--9--9--9--9--9--9--9--9--12-12-12-12-12-12-12-|
D|-------------------------------------------------|-------------------------------------------------|


E|-------------------------------------------------|-------------------------------------------------|
B|-------------------------------------------------|-------------------------------------------------|
G|-9--11-11-11-11-11-11-11-11-14-14-14-14-14-14-14-|-9--11-11-11-9--9--9--11-11-11-9--9--9--9--------|
D|-------------------------------------------------|-------------------------------------------0--0--|
A|-7--9--9--9--9--9--9--9--9--12-12-12-12-12-12-12-|-7--9--9--9--7--7--7--9--9--9--7--7--7--7--0--0--|
D|-------------------------------------------------|-------------------------------------------0--0--|


E|--------|--------|--------|-------------|-----------------------------------------------|
B|--------|--------|--------|-------------|-----------------------------------------------|
G|-11-----|-11-----|-11-----|-11----------|-----------------------------------------------|
D|--------|--------|--------|-------------|--------------7--0--6----------------7--0--6---|
A|-9------|-9------|-9------|-9-----------|-0--0--0-0-0------------0--0--0-0-0------------|
D|--------|--------|--------|-------------|-0--0--0-0-0------------0--0--0-0-0------------|


E|-----------------------------------------------|-----------------------------------------------|
B|-----------------------------------------------|-----------------------------------------------|
G|-----------------------------------------------|-----------------------------------------------|
D|--------------7--0--6----------------7--0--6---|--------------7--0--6----------------7--0--6---|
A|-0--0--0-0-0------------0--0--0-0-0------------|-4--4--4-4-4------------4--4--4-4-4------------|
D|-0--0--0-0-0------------0--0--0-0-0------------|-4--4--4-4-4------------4--4--4-4-4------------|


E|-----------------------------------------------|-----------------------------------------------|
B|-----------------------------------------------|-----------------------------------------------|
G|-----------------------------------------------|-----------------------------------------------|
D|--------------7--0--6----------------7--0--6---|--------------7--0--6----------------7--0--6---|
A|-4--4--4-4-4------------4--4--4-4-4------------|-0--0--0-0-0------------0--0--0-0-0------------|
D|-4--4--4-4-4------------4--4--4-4-4------------|-0--0--0-0-0------------0--0--0-0-0------------|


E|-----------------------------------------------|-----------------------------------------------|
B|-----------------------------------------------|-----------------------------------------------|
G|-----------------------------------------------|-----------------------------------------------|
D|--------------7--0--6----------------7--0--6---|--------------7--0--6----------------7--0--6---|
A|-0--0--0-0-0------------0--0--0-0-0------------|-4--4--4-4-4------------4--4--4-4-4------------|
D|-0--0--0-0-0------------0--0--0-0-0------------|-4--4--4-4-4------------4--4--4-4-4------------|


E|-----------------------------------------------|-----------------------------------------|
B|-----------------------------------------------|-----------------------------------------|
G|-----------------------------------------------|-----------------6-------------------7---|
D|--------------7--0--6----------------7--0--6---|-----------7--0----------------7--0------|
A|-4--4--4-4-4------------4--4--4-4-4------------|-0---0--0------------0---0--0------------|
D|-4--4--4-4-4------------4--4--4-4-4------------|-0---0--0------------0---0--0------------|


E|-----------------------------------------|-----------------------------------------|
B|-----------------------------------------|-----------------------------------------|
G|-----------------9-------------------7---|-----------------6-------------------7---|
D|-----------7--0----------------7--0------|-----------7--0----------------7--0------|
A|-0---0--0------------0---0--0------------|-4---4--4------------4---4--4------------|
D|-0---0--0------------0---0--0------------|-4---4--4------------4---4--4------------|


E|-----------------------------------------|-------------------------------------------------|
B|-----------------------------------------|-------------------------------------------------|
G|-----------------9-------------------7---|-------------------------------------------------|
D|-----------7--0----------------7--0------|-------------------------------------------------|
A|-4---4--4------------4---4--4------------|-9--9--9--11-11-11-12-12-12-9--9--9--11-11-12-12-|
D|-4---4--4------------4---4--4------------|-0--0--0--0--0--0--0--0--0--0--0--0--0--0--0--0--|


E|-------------------------------------------------|-------------------------------------------------|
B|-------------------------------------------------|-------------------------------------------------|
G|-------------------------------------------------|-------------------------------------------------|
D|-------------------------------------------------|-------------------------------------------------|
A|-9--9--9--11-11-11-12-12-12-9--9--9--11-11-12-12-|-9--9--9--11-11-11-12-12-12-9--9--9--11-11-12-12-|
D|-0--0--0--0--0--0--0--0--0--0--0--0--0--0--0--0--|-0--0--0--0--0--0--0--0--0--0--0--0--0--0--0--0--|


E|---------------------------------------------|-------------------------------------------------|
B|---------------------------------------------|-------------------------------------------------|
G|---------------------------------------------|-------------------------------------------------|
D|---------------------------------------------|-4--4--4--6--6--6--7--7--7--4--4--4--6--6--7--7--|
A|-9--9--9--11-11-11-12-12-12-9--9--9--12--11--|-------------------------------------------------|
D|-0--0--0--0--0--0--0--0--0--0--0--0----------|-------------------------------------------------|


E|-------------------------------------------------|-------------------------------------------------|
B|-------------------------------------------------|-------------------------------------------------|
G|-------------------------------------------------|----------------------------4--------6-----6-----|
D|-4--4--4--6--6--6--7--7--7--4--4--4--6--6--7--7--|-4--------6--------7-----------------------------|
A|-------------------------------------------------|----4--4-----4--4-----4--4-----4--4-----4-----4--|
D|-------------------------------------------------|-------------------------------------------------|


E|-----------------------------------------------|-------------------------------------------------|
B|-----------------------------------------------|-------------------------------------------------|
G|----------------------------4--------6-----6---|-------------------------------------------------|
D|-4--------6--------7---------------------------|-4--4--4--6--6--6--7--7--7--4--4--4--6--6--7--7--|
A|----4--4-----4--4-----4--4-----4--4-----4------|-------------------------------------------------|
D|-----------------------------------------------|-------------------------------------------------|


E|-------------------------------------------------|-------------------------------------------------|
B|-------------------------------------------------|-------------------------------------------------|
G|-------------------------------------------------|----------------------------4--------6-----6-----|
D|-4--4--4--6--6--6--7--7--7--4--4--4--6--6--7--7--|-4--------6--------7-----------------------------|
A|-------------------------------------------------|----4--4-----4--4-----4--4-----4--4-----4-----4--|
D|-------------------------------------------------|-------------------------------------------------|


E|-----------------------------------------------|--------|--------|
B|-----------------------------------------------|--------|--------|
G|----------------------------4--------6-----6---|-14-----|--------|
D|-4--------6--------7---------------------------|--------|--------|
A|----4--4-----4--4-----4--4-----4--4-----4------|--------|--------|
D|-----------------------------------------------|--------|--------|





Track 6: Left (Dist)

E|--------|--------|--------|--------|--------|--------|--------|--------|--------|
B|--------|--------|--------|--------|--------|--------|--------|--------|--------|
G|--------|--------|--------|--------|--------|--------|--------|--------|--------|
D|--------|--------|--------|--------|--------|--------|--------|--------|--------|
A|--------|--------|--------|--------|--------|--------|--------|--------|--------|
D|--------|--------|--------|--------|--------|--------|--------|--------|--------|


E|--------|-------------------------------------------|-------------------------------------------|
B|--------|-------------------------------------------|-------------------------------------------|
G|--------|-------------------------------------------|-------------------------------------------|
D|--------|-4--4--4--4---4--4----4--4--4--4--4--4--4--|-4--4--4--4---4--4----4--4--4--4--4--4--4--|
A|--------|-4--4--4--4---4--4----4--4--4--4--4--4--4--|-4--4--4--4---4--4----4--4--4--4--4--4--4--|
D|--------|-4--4--4--4---4--4----4--4--4--4--4--4--4--|-4--4--4--4---4--4----4--4--4--4--4--4--4--|


E|-------------------------------------------|-------------------------------------------|
B|-------------------------------------------|-------------------------------------------|
G|-------------------------------------------|-------------------------------------------|
D|-0--0--0--0---0--0----0--0--0--0--0--0--0--|-0--0--0--0---0--0----0--0--0--0--0--0--0--|
A|-0--0--0--0---0--0----0--0--0--0--0--0--0--|-0--0--0--0---0--0----0--0--0--0--0--0--0--|
D|-0--0--0--0---0--0----0--0--0--0--0--0--0--|-0--0--0--0---0--0----0--0--0--0--0--0--0--|


E|-------------------------------------------|-------------------------------------------|
B|-------------------------------------------|-------------------------------------------|
G|-------------------------------------------|-------------------------------------------|
D|-4--4--4--4---4--4----4--4--4--4--4--4--4--|-4--4--4--4---4--4----4--4--4--4--4--4--4--|
A|-4--4--4--4---4--4----4--4--4--4--4--4--4--|-4--4--4--4---4--4----4--4--4--4--4--4--4--|
D|-4--4--4--4---4--4----4--4--4--4--4--4--4--|-4--4--4--4---4--4----4--4--4--4--4--4--4--|


E|-------------------------------------------|-------------------------------------------|
B|-------------------------------------------|-------------------------------------------|
G|-------------------------------------------|-------------------------------------------|
D|-0--0--0--0---0--0----0--0--0--0--0--0--0--|-0--0--0--0---0--0----0--0--0--0--0--0--0--|
A|-0--0--0--0---0--0----0--0--0--0--0--0--0--|-0--0--0--0---0--0----0--0--0--0--0--0--0--|
D|-0--0--0--0---0--0----0--0--0--0--0--0--0--|-0--0--0--0---0--0----0--0--0--0--0--0--0--|


E|--------|--------|-------------------------------------------------|-------------------------------------------------|
B|--------|--------|-------------------------------------------------|-------------------------------------------------|
G|--------|--------|-------------------------------------------------|-------------------------------------------------|
D|--------|--------|-0--------0--------0--------0--------0-----0-----|-0--------0--------0--------0--------0-----0-----|
A|--------|--------|-0--0--0--0--0--0--0--0--0--0--0--0--0--0--0--0--|-0--0--0--0--0--0--0--0--0--0--0--0--0--0--0--0--|
D|--------|--------|-0--0--0--0--0--0--0--0--0--0--0--0--0--0--0--0--|-0--0--0--0--0--0--0--0--0--0--0--0--0--0--0--0--|


E|--------|--------|-------------------------------------------------|-------------------------------------------------|
B|--------|--------|-------------------------------------------------|-------------------------------------------------|
G|--------|--------|-------------------------------------------------|-------------------------------------------------|
D|--------|--------|-0--------0--------0--------0--------0-----0-----|-0--------0--------0--------0--------0-----0-----|
A|--------|--------|-0--0--0--0--0--0--0--0--0--0--0--0--0--0--0--0--|-0--0--0--0--0--0--0--0--0--0--0--0--0--0--0--0--|
D|--------|--------|-0--0--0--0--0--0--0--0--0--0--0--0--0--0--0--0--|-0--0--0--0--0--0--0--0--0--0--0--0--0--0--0--0--|


E|-------------------------------------------------|-------------------------------------------------|
B|-------------------------------------------------|-------------------------------------------------|
G|-------------------------------------------------|-------------------------------------------------|
D|-4--4-----4--4-----4--4-----4--4-----4-----4-----|-4--4-----4--4-----4--4-----4--4-----4-----4-----|
A|-4--4-----4--4-----4--4-----4--4-----4-----4-----|-4--4-----4--4-----4--4-----4--4-----4-----4-----|
D|-4--4-----4--4-----4--4-----4--4-----4-----4-----|-4--4-----4--4-----4--4-----4--4-----4-----4-----|


E|-------------------|-------------------|-------------------------------------------------|
B|-------------------|-------------------|-------------------------------------------------|
G|-------------6-----|-------------6-----|-------------------------------------------------|
D|-0-----------6-----|-0-----------6-----|-4--4-----4--4-----4--4-----4--4-----4-----4-----|
A|-0-----0--0--4-----|-0-----0--0--4-----|-4--4-----4--4-----4--4-----4--4-----4-----4-----|
D|-0-----0--0--------|-0-----0--0--------|-4--4-----4--4-----4--4-----4--4-----4-----4-----|


E|-------------------------------------------------|-------------------------|-------------------|
B|-------------------------------------------------|-------------------------|-------------------|
G|-------------------------------------------------|-------6---6---6--7--6---|-------------6-----|
D|-4--4-----4--4-----4--4-----4--4-----4-----4-----|-0-----------------------|-0-----------6-----|
A|-4--4-----4--4-----4--4-----4--4-----4-----4-----|-0-----------------------|-0-----0--0--4-----|
D|-4--4-----4--4-----4--4-----4--4-----4-----4-----|-0-----------------------|-0-----0--0--------|


E|-------------------------------------------------|-------------------------------------------------|
B|-------------------------------------------------|-------------------------------------------------|
G|-------------------------------------------------|-------------------------------------------------|
D|-------------------------------------------------|-------------------------------------------------|
A|-0--0--0--0--0--0--0--0--0--0--0--0--0--0--0--0--|-2--2--2--2--2--2--2--2--2--2--2--2--2--2--2--2--|
D|-0--0--0--0--0--0--0--0--0--0--0--0--0--0--0--0--|-2--2--2--2--2--2--2--2--2--2--2--2--2--2--2--2--|


E|-------------------------------------------------|-------------------------------------------------|
B|-------------------------------------------------|-------------------------------------------------|
G|-------------------------------------------------|-------------------------------------------------|
D|-------------------------------------------------|-------------------------------------------------|
A|-4--4--4--4--4--4--4--4--4--4--4--4--4--4--4--4--|-7--7--7--7--7--7--7--7--7--7--7--7--7--7--7--7--|
D|-4--4--4--4--4--4--4--4--4--4--4--4--4--4--4--4--|-7--7--7--7--7--7--7--7--7--7--7--7--7--7--7--7--|


E|-------------------------------------------------|-------------------------------------------------|
B|-------------------------------------------------|-------------------------------------------------|
G|-------------------------------------------------|-------------------------------------------------|
D|-------------------------------------------------|-------------------------------------------------|
A|-0--0--0--0--0--0--0--0--0--0--0--0--0--0--0--0--|-2--2--2--2--2--2--2--2--2--2--2--2--2--2--2--2--|
D|-0--0--0--0--0--0--0--0--0--0--0--0--0--0--0--0--|-2--2--2--2--2--2--2--2--2--2--2--2--2--2--2--2--|


E|--------|--------|-------------------------------------------------|-------------------------------------------------|
B|--------|--------|-------------------------------------------------|-------------------------------------------------|
G|--------|--------|-------------------------------------------------|-------------------------------------------------|
D|-4------|-7------|-0--0--0--0--0--0--0--0--0--0--0--0--0--0--0--0--|-2--2--2--2--2--2--2--2--2--2--2--2--2--2--2--2--|
A|-4------|-7------|-0--0--0--0--0--0--0--0--0--0--0--0--0--0--0--0--|-2--2--2--2--2--2--2--2--2--2--2--2--2--2--2--2--|
D|-4------|-7------|-0--0--0--0--0--0--0--0--0--0--0--0--0--0--0--0--|-2--2--2--2--2--2--2--2--2--2--2--2--2--2--2--2--|


E|-------------------------------------------------|-------------------------------------------------|
B|-------------------------------------------------|-------------------------------------------------|
G|-------------------------------------------------|-------------------------------------------------|
D|-4--4--4--4--4--4--4--4--4--4--4--4--4--4--4--4--|-7--7--7--7--7--7--7--7--7--7--7--7--7--7--7--7--|
A|-4--4--4--4--4--4--4--4--4--4--4--4--4--4--4--4--|-7--7--7--7--7--7--7--7--7--7--7--7--7--7--7--7--|
D|-4--4--4--4--4--4--4--4--4--4--4--4--4--4--4--4--|-7--7--7--7--7--7--7--7--7--7--7--7--7--7--7--7--|


E|-------------------------------------------------|-------------------------------------------------|
B|-------------------------------------------------|-------------------------------------------------|
G|-------------------------------------------------|-------------------------------------------------|
D|-0--0--0--0--0--0--0--0--0--0--0--0--0--0--0--0--|-2--2--2--2--2--2--2--2--2--2--2--2--2--2--2--2--|
A|-0--0--0--0--0--0--0--0--0--0--0--0--0--0--0--0--|-2--2--2--2--2--2--2--2--2--2--2--2--2--2--2--2--|
D|-0--0--0--0--0--0--0--0--0--0--0--0--0--0--0--0--|-2--2--2--2--2--2--2--2--2--2--2--2--2--2--2--2--|


E|-------------------------------------------------|-------------------------------------------------|
B|-------------------------------------------------|-------------------------------------------------|
G|-------------------------------------------------|-------------------------------------------------|
D|-4--4--4--4--4--4--4--4--4--4--4--4--4--4--4--4--|-7--7--7--7--7--7--7--7--7--7--7--7--7--7--------|
A|-4--4--4--4--4--4--4--4--4--4--4--4--4--4--4--4--|-7--7--7--7--7--7--7--7--7--7--7--7--7--7--7--7--|
D|-4--4--4--4--4--4--4--4--4--4--4--4--4--4--4--4--|-7--7--7--7--7--7--7--7--7--7--7--7--7--7--7--7--|


E|--------|--------|--------|-------------|-------------------------------------------|
B|--------|--------|--------|-------------|-------------------------------------------|
G|--------|--------|--------|-------------|-------------------------------------------|
D|-0------|-0------|-0------|-0-----------|-------------------------------------------|
A|-0------|-0------|-0------|-0-----------|-0--0--0-0-0----------0--0--0-0-0----------|
D|-0------|-0------|-0------|-0-----------|-0--0--0-0-0----------0--0--0-0-0----------|


E|-------------------------------------------|-------------------------------------------|
B|-------------------------------------------|-------------------------------------------|
G|-------------------------------------------|-------------------------------------------|
D|-------------------------------------------|-------------------------------------------|
A|-0--0--0-0-0----------0--0--0-0-0----------|-4--4--4-4-4----------4--4--4-4-4----------|
D|-0--0--0-0-0----------0--0--0-0-0----------|-4--4--4-4-4----------4--4--4-4-4----------|


E|-------------------------------------------|-------------------------------------------|
B|-------------------------------------------|-------------------------------------------|
G|-------------------------------------------|-------------------------------------------|
D|-------------------------------------------|-------------------------------------------|
A|-4--4--4-4-4----------4--4--4-4-4----------|-0--0--0-0-0----------0--0--0-0-0----------|
D|-4--4--4-4-4----------4--4--4-4-4----------|-0--0--0-0-0----------0--0--0-0-0----------|


E|-------------------------------------------|-------------------------------------------|
B|-------------------------------------------|-------------------------------------------|
G|-------------------------------------------|-------------------------------------------|
D|-------------------------------------------|-------------------------------------------|
A|-0--0--0-0-0----------0--0--0-0-0----------|-4--4--4-4-4----------4--4--4-4-4----------|
D|-0--0--0-0-0----------0--0--0-0-0----------|-4--4--4-4-4----------4--4--4-4-4----------|


E|-------------------------------------------|-------------------------------------|
B|-------------------------------------------|-------------------------------------|
G|-------------------------------------------|-------------------------------------|
D|-------------------------------------------|-------------------------------------|
A|-4--4--4-4-4----------4--4--4-4-4----------|-0---0--0----------0---0--0----------|
D|-4--4--4-4-4----------4--4--4-4-4----------|-0---0--0----------0---0--0----------|


E|-------------------------------------|-------------------------------------|-------------------------------------|
B|-------------------------------------|-------------------------------------|-------------------------------------|
G|-------------------------------------|-------------------------------------|-------------------------------------|
D|-------------------------------------|-------------------------------------|-------------------------------------|
A|-0---0--0----------0---0--0----------|-4---4--4----------4---4--4----------|-4---4--4----------4---4--4----------|
D|-0---0--0----------0---0--0----------|-4---4--4----------4---4--4----------|-4---4--4----------4---4--4----------|


E|-------------------------------------------------|-------------------------------------------------|
B|-------------------------------------------------|-------------------------------------------------|
G|-------------------------------------------------|-------------------------------------------------|
D|-------------------------------------------------|-------------------------------------------------|
A|-9--9--9--11-11-11-12-12-12-11-11-11-16-16-16-16-|-9--9--9--11-11-11-12-12-12-11-11-11-16-16-16-16-|
D|-------------------------------------------------|-------------------------------------------------|


E|-------------------------------------------------|------------------------------------------|
B|-------------------------------------------------|------------------------------------------|
G|-------------------------------------------------|------------------------------------------|
D|-------------------------------------------------|------------------------------------------|
A|-9--9--9--11-11-11-12-12-12-11-11-11-16-16-16-16-|-9--9--9--11-11-11-12-12-12-11-11-11-16---|
D|-------------------------------------------------|------------------------------------------|


E|-------------------------------------------------|-------------------------------------------------|
B|-------------------------------------------------|-------------------------------------------------|
G|-------------------------------------------------|-------------------------------------------------|
D|-0--0--0--0--0--0--0--0--0--0--0--0--0--0--0--0--|-2--2--2--2--2--2--2--2--2--2--2--2--2--2--2--2--|
A|-0--0--0--0--0--0--0--0--0--0--0--0--0--0--0--0--|-2--2--2--2--2--2--2--2--2--2--2--2--2--2--2--2--|
D|-0--0--0--0--0--0--0--0--0--0--0--0--0--0--0--0--|-2--2--2--2--2--2--2--2--2--2--2--2--2--2--2--2--|


E|-------------------------------------------------|-------------------------------------------------|
B|-------------------------------------------------|-------------------------------------------------|
G|-------------------------------------------------|-------------------------------------------------|
D|-4--4--4--4--4--4--4--4--4--4--4--4--4--4--4--4--|-4--4--4--4--4--4--4--4--4--4--4--4--7--7--7--7--|
A|-4--4--4--4--4--4--4--4--4--4--4--4--4--4--4--4--|-4--4--4--4--4--4--4--4--4--4--4--4--------------|
D|-4--4--4--4--4--4--4--4--4--4--4--4--4--4--4--4--|-4--4--4--4--4--4--4--4--4--4--4--4--------------|


E|-------------------------------------------------|-------------------------------------------------|
B|-------------------------------------------------|-------------------------------------------------|
G|-------------------------------------------------|-------------------------------------------------|
D|-0--0--0--0--0--0--0--0--0--0--0--0--0--0--0--0--|-0--0--0--0--0--0--0--0--0--0--0--0--0--2--2--2--|
A|-0--0--0--0--0--0--0--0--0--0--0--0--0--0--0--0--|-0--0--0--0--0--0--0--0--0--0--0--0--0--2--2--2--|
D|-0--0--0--0--0--0--0--0--0--0--0--0--0--0--0--0--|-0--0--0--0--0--0--0--0--0--0--0--0--0--2--2--2--|


E|-------------------------------------------------|-------------------------------------------------|
B|-------------------------------------------------|-------------------------------------------------|
G|-------------------------------------------------|-------------------------------------9--9--9--9--|
D|-4--4--4--4--4--4--4--4--4--4--4--4--4--4--4--4--|-4--4--4--4--4--4--4--4--4--4--4--4--7--7--7--7--|
A|-4--4--4--4--4--4--4--4--4--4--4--4--4--4--4--4--|-4--4--4--4--4--4--4--4--4--4--4--4--7--7--7--7--|
D|-4--4--4--4--4--4--4--4--4--4--4--4--4--4--4--4--|-4--4--4--4--4--4--4--4--4--4--4--4--7--7--7--7--|


E|--------|--------|
B|--------|--------|
G|--------|--------|
D|-7------|--------|
A|-7------|--------|
D|-7------|--------|





Track 7: Left (Clean)

E|--------|--------|--------|--------|--------|--------|--------|--------|--------|
B|--------|--------|--------|--------|--------|--------|--------|--------|--------|
G|--------|--------|--------|--------|--------|--------|--------|--------|--------|
D|--------|--------|--------|--------|--------|--------|--------|--------|--------|
A|--------|--------|--------|--------|--------|--------|--------|--------|--------|
D|--------|--------|--------|--------|--------|--------|--------|--------|--------|


E|--------|--------|--------|--------|--------|--------|--------|--------|--------|
B|--------|--------|--------|--------|--------|--------|--------|--------|--------|
G|--------|--------|--------|--------|--------|--------|--------|--------|--------|
D|--------|--------|--------|--------|--------|--------|--------|--------|--------|
A|--------|--------|--------|--------|--------|--------|--------|--------|--------|
D|--------|--------|--------|--------|--------|--------|--------|--------|--------|


E|-----------------------------|-----------------------------|--------|--------|-----------------------------|
B|-----------------------------|-----------------------------|--------|--------|-----------------------------|
G|-----------------------------|-----------------------------|--------|--------|-----------------------------|
D|-4--4--4--4---4--4-----4-----|-4--4--4--4---4--4-----4-----|--------|--------|-4--4--4--4---4--4-----4-----|
A|-4--4--4--4---4--4-----4-----|-4--4--4--4---4--4-----4-----|--------|--------|-4--4--4--4---4--4-----4-----|
D|-4--4--4--4---4--4-----4-----|-4--4--4--4---4--4-----4-----|--------|--------|-4--4--4--4---4--4-----4-----|


E|-----------------------------|--------|--------|--------|--------|--------|--------|
B|-----------------------------|--------|--------|--------|--------|--------|--------|
G|-----------------------------|--------|--------|--------|--------|--------|--------|
D|-4--4--4--4---4--4-----4-----|--------|--------|--------|--------|--------|--------|
A|-4--4--4--4---4--4-----4-----|--------|--------|--------|--------|--------|--------|
D|-4--4--4--4---4--4-----4-----|--------|--------|--------|--------|--------|--------|


E|--------|--------|--------|--------|--------|--------|--------|--------|--------|
B|--------|--------|--------|--------|--------|--------|--------|--------|--------|
G|--------|--------|--------|--------|--------|--------|--------|--------|--------|
D|--------|--------|--------|--------|--------|--------|--------|--------|--------|
A|--------|--------|--------|--------|--------|--------|--------|--------|--------|
D|--------|--------|--------|--------|--------|--------|--------|--------|--------|


E|--------|--------|--------|--------|--------|--------|--------|--------|--------|
B|--------|--------|--------|--------|--------|--------|--------|--------|--------|
G|--------|--------|--------|--------|--------|--------|--------|--------|--------|
D|--------|--------|--------|--------|--------|--------|--------|--------|--------|
A|--------|--------|--------|--------|--------|--------|--------|--------|--------|
D|--------|--------|--------|--------|--------|--------|--------|--------|--------|


E|--------|--------|--------|--------|--------|--------|--------|--------|--------|
B|--------|--------|--------|--------|--------|--------|--------|--------|--------|
G|--------|--------|--------|--------|--------|--------|--------|--------|--------|
D|--------|--------|--------|--------|--------|--------|--------|--------|--------|
A|--------|--------|--------|--------|--------|--------|--------|--------|--------|
D|--------|--------|--------|--------|--------|--------|--------|--------|--------|


E|--------|--------|--------|--------|--------|--------|--------|--------|--------|
B|--------|--------|--------|--------|--------|--------|--------|--------|--------|
G|--------|--------|--------|--------|--------|--------|--------|--------|--------|
D|--------|--------|--------|--------|--------|--------|--------|--------|--------|
A|--------|--------|--------|--------|--------|--------|--------|--------|--------|
D|--------|--------|--------|--------|--------|--------|--------|--------|--------|


E|--------|--------|--------|--------|--------|--------|--------|--------|--------|
B|--------|--------|--------|--------|--------|--------|--------|--------|--------|
G|--------|--------|--------|--------|--------|--------|--------|--------|--------|
D|--------|--------|--------|--------|--------|--------|--------|--------|--------|
A|--------|--------|--------|--------|--------|--------|--------|--------|--------|
D|--------|--------|--------|--------|--------|--------|--------|--------|--------|


E|--------|--------|--------|--------|--------|
B|--------|--------|--------|--------|--------|
G|--------|--------|--------|--------|--------|
D|--------|--------|--------|--------|--------|
A|--------|--------|--------|--------|--------|
D|--------|--------|--------|--------|--------|





Track 8: Untitled

G|--------|--------|--------|--------|--------|--------|--------|--------|--------|
D|--------|--------|--------|--------|--------|--------|--------|--------|--------|
A|--------|--------|--------|--------|--------|--------|--------|--------|--------|
E|--------|--------|--------|--------|--------|--------|--------|--------|--------|


G|--------|--------|--------|--------|--------|--------|--------|--------|--------|
D|--------|--------|--------|--------|--------|--------|--------|--------|--------|
A|--------|--------|--------|--------|--------|--------|--------|--------|--------|
E|--------|--------|--------|--------|--------|--------|--------|--------|--------|


G|--------|--------|--------|--------|--------|--------|--------|--------|--------|
D|--------|--------|--------|--------|--------|--------|--------|--------|--------|
A|--------|--------|--------|--------|--------|--------|--------|--------|--------|
E|--------|--------|--------|--------|--------|--------|--------|--------|--------|


G|--------|--------|--------|--------|--------|--------|--------|--------|--------|
D|--------|--------|--------|--------|--------|--------|--------|--------|--------|
A|--------|--------|--------|--------|--------|--------|--------|--------|--------|
E|--------|--------|--------|--------|--------|--------|--------|--------|--------|


G|--------|--------|--------|--------|--------|--------|--------|--------|--------|
D|--------|--------|--------|--------|--------|--------|--------|--------|--------|
A|--------|--------|--------|--------|--------|--------|--------|--------|--------|
E|--------|--------|--------|--------|--------|--------|--------|--------|--------|


G|--------|--------|--------|--------|--------|--------|--------|--------|--------|
D|--------|--------|--------|--------|--------|--------|--------|--------|--------|
A|--------|--------|--------|--------|--------|--------|--------|--------|--------|
E|--------|--------|--------|--------|--------|--------|--------|--------|--------|


G|--------|--------|--------|--------|--------|--------|--------|--------|--------|
D|--------|--------|--------|--------|--------|--------|--------|--------|--------|
A|--------|--------|--------|--------|--------|--------|--------|--------|--------|
E|--------|--------|--------|--------|--------|--------|--------|--------|--------|


G|--------|--------|--------|--------|--------|--------|--------|--------|--------|
D|--------|--------|--------|--------|--------|--------|--------|--------|--------|
A|--------|--------|--------|--------|--------|--------|--------|--------|--------|
E|--------|--------|--------|--------|--------|--------|--------|--------|--------|


G|--------|--------|--------|--------|--------|--------|--------|--------|
D|--------|--------|--------|--------|--------|--------|--------|--------|
A|--------|--------|--------|--------|--------|--------|--------|--------|
E|--------|--------|--------|--------|--------|--------|--------|--------|