Site menu:

    

Browse: 0-9 A B C D E F G H I J K L N O P Q R S T U V W X Y Z

wolfgang amadeus mozart - figaro overture:



Title: Figero Overture
Artist: 
Album: 
Author: 


Track 1: Lead

E|-----------------------------------------------|---------------------------------------------|
B|-----------------------------------------------|---------------------------------------------|
G|-----------------------------------------------|-2--1--2--1--2-------2--1--2--3--4--2--0-----|
D|--------------------------------2--4--2--4--5--|------------------------------------------4--|
A|----5--4--5--4--5------5--4--5-----------------|---------------------------------------------|
E|-----------------------------------------------|---------------------------------------------|


E|-------------------------------------------------|---------------------|-----------------5---5---5---3---|
B|-------------------------------------------------|-----------7---------|-------------7---7---7---7---5---|
G|-------------------------------------------------|-----------7-----9---|-7-------7---7-------------------|
D|-2--1--2--4--5--4--2--0-----0--2--0--------------|-----------------7---|-4---7---7-----------------------|
A|-------------------------4-----------4--0--2--4--|-5-------------------|-5---9---------------------------|
E|-------------------------------------------------|---------------------|---------------------------------|


E|-2---2-----2---5---10----|-9-----7-------10--9---7---|-----10--9---7-----------------------|
B|-3---3--3--3---7---------|-----------10--------------|-10--------------10--10-10-8---8--8--|
G|-----2--2----------------|---------------------------|-------------------------------------|
D|-0-----------------------|---------------------------|-------------------------------------|
A|-------------------------|---------------------------|-------------------------------------|
E|-------------------------|---------------------------|-------------------------------------|


E|-----------------------------------------|---------------------------------------------|
B|-7---7--7--5---5--5----------------------|---------------------------------------------|
G|-----------------------------------------|---------------------------------------------|
D|-----------------------------------------|----------2--4--2--4--5--7--6--7--6--7-------|
A|---------------------5--4--5--4--5-------|-5--4--5-------------------------------------|
E|-----------------------------------------|---------------------------------------------|


E|-------------------------------------------------|-----------------------------------|
B|-------------------------------------------------|-----------------------------------|
G|-------------------------------------------------|-----------------------------------|
D|-7--6--7--8--9--7--------------------------------|----0--2--0------------------------|
A|-------------------10-9--7--6--7--9--10-9--7--5--|-4-----------4--0--2--4--5---------|
E|-------------------------------------------------|-----------------------------------|


E|-----------------------2---|-5---5---5---3---2---2-----2---5---|-10----9-----7---|
B|-7-----------------3---3---|-7---7---7---5---3---3--3--3---7---|-----------------|
G|-7-----9---7---2---2-------|---------------------2--2----------|-----------------|
D|-------7---4---4-----------|-----------------0-----------------|-----------------|
A|-----------5---------------|-----------------------------------|-----------------|
E|---------------------------|-----------------------------------|-----------------|


E|-----10--9---7-------10--9---7---|-----------------------------------------|-------------|
B|-10--------------10--------------|-10--10-10-8---8--8--7---7--7--5---5--5--|-------7-----|
G|---------------------------------|-----------------------------------------|-7-----------|
D|---------------------------------|-----------------------------------------|-------------|
A|---------------------------------|-----------------------------------------|-------------|
E|---------------------------------|-----------------------------------------|-------------|


E|-3------|-5------|-7-----8-----|--------|------------------------------|---------------------------------|
B|-5------|-7------|-8-----10----|--------|-3----------------------------|---------------------------------|
G|--------|--------|-------------|--------|-2--------2-------------------|-------------9---7---9---7---9---|
D|--------|--------|-------------|--------|-0------------4-----------7---|-4-----------7-------7-------7---|
A|--------|--------|-------------|--------|------------------5-----------|-----5-----------9-------9-------|
E|--------|--------|-------------|--------|------------------------------|---------------------------------|


E|------------------------------|--------------2--------2---|--------------2--------2---|
B|------------------------------|----------5---3--------3---|-5--------5---3--------3---|
G|-7----7-------7---------------|-2--------2----------------|-2--------2----------------|
D|----------7-------7-----------|-2-------------------------|---------------------------|
A|-9--------------------9-------|-0-------------------------|---------------------------|
E|--------------------------10--|---------------------------|---------------------------|


E|---------2---2-----------2---2---|-----------------------------|--------|--------|
B|-5---5---3---3---5---5---3---3---|-5---------------------------|--------|--------|
G|-2---2-----------2---2-----------|-2---2--2--2---2---2---------|--------|--------|
D|---------------------------------|-----------------------------|--------|--------|
A|---------------------------------|-----------------------------|--------|--------|
E|---------------------------------|-----------------------------|--------|--------|


E|--------|--------|--------|--------|--------|--------|------14---------|------12---------|
B|--------|--------|--------|--------|--------|--------|------14---------|------12---------|
G|--------|--------|--------|--------|--------|--------|-----------------|-----------------|
D|--------|--------|--------|--------|--------|--------|-----------------|-----------------|
A|--------|--------|--------|--------|--------|--------|-----------------|-----------------|
E|--------|--------|--------|--------|--------|--------|-----------------|-----------------|


E|------10---------|-7-----9-----|-10----9----10---|-9-------------------------|-9----------------------------|
B|------10---------|-9-----10----|-9-----10---9----|-10------------------------|-10---------------------------|
G|-----------------|-------------|-----------------|-------------------7---8---|-11---9---------------7---8---|
D|-----------------|-------------|-----------------|-------7---9---11----------|----------7---9---11----------|
A|-----------------|-------------|-----------------|---------------------------|------------------------------|
E|-----------------|-------------|-----------------|---------------------------|------------------------------|


E|-9----------------------------|---------------------|-12------10------9-------7-------|
B|-10---------------------------|-13---13---12---9----|-14------12------10------9-------|
G|-11---9---------------7---9---|-10---9----8----7----|-9---------------9---9-----------|
D|----------7---9---11----------|---------------------|-11--11--12--12------------------|
A|------------------------------|---------------------|-------------------------7---7---|
E|------------------------------|---------------------|---------------------------------|


E|-----------------|--------|--------|---------------------------|---------------------------------|
B|-10--------------|--------|--------|----------0---1---2---3----|-3---0---1-----------------------|
G|-----------------|--------|--------|---------------------------|-----------------2-------3-------|
D|-7---------------|--------|--------|---------------------------|-------------2-------3-------0---|
A|-----------------|--------|--------|---------------------------|---------------------------------|
E|-----------------|--------|--------|---------------------------|---------------------------------|


E|---------------------------------|------------------------|---------------------0-------0---|
B|-----0---------------------------|--------------------2---|-0---------------5-------5-------|
G|-1-------2-----------------------|-2---2---2----2-----2---|-----1---------------------------|
D|-------------3---0-------2-------|-2----------------------|---------4---2-------------------|
A|---------------------2-----------|-0----------------------|---------------------------------|
E|-----------------------------0---|------------------------|---------------------------------|


E|------------------------|---------2---2-------------------|---------------------------|
B|-5----2-------------2---|-0---3-----------3---0-----------|-----------------------2---|
G|-2----2---2---2---------|-------------------------1---1---|-2---------------2-----2---|
D|------------------------|---------------------------------|-----2---------------------|
A|------------------------|---------------------------------|---------4---4-------------|
E|------------------------|---------------------------------|---------------------------|


E|---------------------0-------0---|------------------------|---------2---2-------------------|
B|-0---------------5-------5-------|-5----2-------------2---|-0---3-----------3---0-----------|
G|-----1---------------------------|----------2---2---------|-------------------------1---1---|
D|---------4---2-------------------|------------------------|---------------------------------|
A|---------------------------------|------------------------|---------------------------------|
E|---------------------------------|------------------------|---------------------------------|


E|-0------|-7------|-3------|-2------|-9-----10----|-12-----|-12--------------|--------|
B|-2------|-9------|-5------|-3------|-8-----7-----|-14-----|-14--------------|--------|
G|-2------|-9------|-2------|-2------|-------------|--------|-----------------|--------|
D|--------|-7------|--------|--------|-7-----7-----|--------|-----------------|--------|
A|--------|--------|--------|--------|-------------|-12-----|-12--------------|--------|
E|--------|--------|--------|--------|-------------|--------|-----------------|--------|


E|-----------------------------------------------|---------------------------------------------|
B|-----------------------------------------------|---------------------------------------------|
G|-----------------------------------------------|-2--1--2--1--2-------2--1--2--3--4--2--0-----|
D|--------------------------------2--4--2--4--5--|------------------------------------------4--|
A|----5--4--5--4--5------5--4--5-----------------|---------------------------------------------|
E|-----------------------------------------------|---------------------------------------------|


E|-------------------------------------------------|---------------------|-----------------5---5---5---3---|
B|-------------------------------------------------|-----------7---------|-------------7---7---7---7---5---|
G|-------------------------------------------------|-----------7-----9---|-7-------7---7-------------------|
D|-2--1--2--4--5--4--2--0-----0--2--0--------------|-----------------7---|-4---7---7-----------------------|
A|-------------------------4-----------4--0--2--4--|-5-------------------|-5---9---------------------------|
E|-------------------------------------------------|---------------------|---------------------------------|


E|-2---2-----2---5---10----|-9-----7-------10--9---7---|-----10--9---7-----------------------|
B|-3---3--3--3---7---------|-----------10--------------|-10--------------10--10-10-8---8--8--|
G|-----2--2----------------|---------------------------|-------------------------------------|
D|-0-----------------------|---------------------------|-------------------------------------|
A|-------------------------|---------------------------|-------------------------------------|
E|-------------------------|---------------------------|-------------------------------------|


E|-----------------------------------------|------------------------------------------|
B|-7---7--7--5---5--5----------------------|------------------------------------------|
G|-----------------------------------------|----------------------1--2--1--2--1--2----|
D|-----------------------------------------|-0-----0--2--4--2--4----------------------|
A|---------------------5--4--5--4--5-------|----4-------------------------------------|
E|-----------------------------------------|------------------------------------------|


E|------------------------------------------|-------------------------------------------------|
B|------------------------------------------|-------------------------------------------------|
G|-------------------------0-----0-----0----|-------------------------------------------------|
D|-0-----0--2--4--2--4--0-----4-----4-------|-------------1-----1-----2--4--2--0--------------|
A|----4-------------------------------------|-2--1--2--4-----4-----2--------------4--2--4--0--|
E|------------------------------------------|-------------------------------------------------|


E|-------------------------------|--------|--------|--------|--------|--------|--------|
B|-------------------------------|--------|--------|--------|--------|--------|--------|
G|----------------------1--------|--------|--------|--------|--------|--------|--------|
D|-0-----0--2--4--2--4-----------|--------|--------|--------|--------|--------|--------|
A|----4--------------------------|--------|--------|--------|--------|--------|--------|
E|-------------------------------|--------|--------|--------|--------|--------|--------|


E|--------|-----------------|-2-----0-------------|---------------------|---------------------|
B|--------|-------7-----5---|-3-----2---3-----2---|-3-----2---0---------|-0-------------------|
G|--------|-------7-----6---|-----------4-----2---|-4-----2---0-----2---|-0-----2---0---------|
D|--------|-----------------|---------------------|-----------------4---|-------4---2---------|
A|--------|-----------------|---------------------|---------------------|---------------------|
E|--------|-----------------|---------------------|---------------------|---------------------|


E|-------0---------------------------|--------|--------|--------|--------|--------|
B|-2--3--2--3--2--0-------------3----|--------|--------|--------|--------|--------|
G|-2--4-----4--2--0--2--0------------|--------|--------|--------|--------|--------|
D|-------------------4--2--4---------|--------|--------|--------|--------|--------|
A|-------------------------5---------|--------|--------|--------|--------|--------|
E|-----------------------------------|--------|--------|--------|--------|--------|


E|--------|--------|--------|--------|--------|-----------------------|-----------3---2-------|
B|--------|--------|--------|--------|--------|-----------8---7-------|-----------5---3-------|
G|--------|--------|--------|--------|--------|-----------9---7-------|-----------------------|
D|--------|--------|--------|--------|--------|-----------5---4-------|-----------------------|
A|--------|--------|--------|--------|--------|-----------7---5-------|-----------------------|
E|--------|--------|--------|--------|--------|-----------------------|-----------------------|


E|----------------0---|-1---2---3----3---------------|---------------------------------|
B|--------------------|------------------5---6-------|---------------------------------|
G|--------------------|------------------------------|-7-------8-----------9---7-------|
D|--------------------|--------------------------7---|-----8-----------11----------8---|
A|--------------------|------------------------------|-------------10------------------|
E|--------------------|------------------------------|---------------------------------|


E|------------------------------|--------|--------|--------|-------------|---------------------------|
B|------------------------------|--------|--------|--------|-------------|-----------3---3---3---3---|
G|-----------------7---7---7----|-7------|-7------|--------|-------7-----|-7-----7-------------------|
D|---------7--------------------|--------|--------|--------|-------------|-------4---2---------------|
A|-10--7-------0---5------------|--------|--------|--------|-------------|-5-------------4---2---0---|
E|------------------------------|--------|--------|--------|-------------|---------------------------|


E|------------------------------|---------------------------|---------------------------|
B|-3---3---3---3---3----3---3---|-3-----------------0---0---|---------------------------|
G|-2---2---2---2---2------------|---------------0-----------|-0-------------------------|
D|----------------------4-------|-------4---2---------------|-----2---------------------|
A|------------------------------|---------------------------|---------4---4---5---------|
E|------------------------------|---------------------------|---------------------------|


E|--------|-------------|---------------------|------------------------|---------------------------------|
B|--------|-------------|----------------3----|------5----3---3---3----|-3---3---3---3---3---3---3---3---|
G|--------|-------------|------5----4----4----|-6----0----7------------|---------------------------------|
D|--------|-------7-----|-7----7----5---------|-2---------4------------|-0-------0-------0-------0-------|
A|--------|-------9-----|-9-------------------|------------------------|---------------------------------|
E|--------|-------------|---------------------|------------------------|---------------------------------|


E|---------------------------------|-----------------------|-------------|--------|
B|-3---3---3---3---3---3---3---3---|-3---3---3---3---3-----|-3-----------|--------|
G|---------------------------------|-----------------------|-------------|--------|
D|-0-------0-------0---0---0---0---|-0---0---0---0---------|-------------|--------|
A|---------------------------------|-----------------------|-------------|--------|
E|---------------------------------|-----------------------|-------------|--------|


E|--------|--------|--------|--------|-12-10-9--7------------------------|--------|
B|--------|--------|--------|--------|-------------10-8--7---------------|--------|
G|--------|--------|--------|--------|----------------------9--7---------|--------|
D|--------|--------|--------|--------|-----------------------------------|--------|
A|--------|--------|--------|--------|-----------------------------------|--------|
E|--------|--------|--------|--------|-----------------------------------|--------|


E|--------|--------|--------|--------|--------|-12-10-9---------------------------|
B|--------|--------|--------|--------|--------|----------12-10-8------------------|
G|--------|--------|--------|--------|--------|-------------------11-9--7---------|
D|--------|--------|--------|--------|--------|-----------------------------------|
A|--------|--------|--------|--------|--------|-----------------------------------|
E|--------|--------|--------|--------|--------|-----------------------------------|


E|--------|-12-10-9---------------------------|--------|--------|--------|--------|
B|--------|----------12-10-8------------------|--------|--------|--------|--------|
G|--------|-------------------11-9--7---------|--------|--------|--------|--------|
D|--------|-----------------------------------|--------|--------|--------|--------|
A|--------|-----------------------------------|--------|--------|--------|--------|
E|--------|-----------------------------------|--------|--------|--------|--------|


E|--------|--------|
B|--------|--------|
G|--------|--------|
D|--------|--------|
A|--------|--------|
E|--------|--------|





Track 2: Lead

E|-----------------------------------2-----2--3--|-5--4--5--4--5-------5--4--5--6--7--5--------|
B|----3--2--3--2--3------3--2--3--5-----5--------|---------------------------------------8--7--|
G|-----------------------------------------------|---------------------------------------------|
D|-----------------------------------------------|---------------------------------------------|
A|-----------------------------------------------|---------------------------------------------|
E|-----------------------------------------------|---------------------------------------------|


E|--------|--------|--------|--------|--------|--------|--------|--------|--------|
B|--------|--------|--------|--------|--------|--------|--------|--------|--------|
G|--------|--------|--------|--------|--------|--------|--------|--------|--------|
D|--------|--------|--------|--------|--------|--------|--------|--------|--------|
A|--------|--------|--------|--------|--------|--------|--------|--------|--------|
E|--------|--------|--------|--------|--------|--------|--------|--------|--------|


E|--------|--------|--------|-22----21----22-19-|-17-22---21--22-19-17--22--21--22-19-|
B|--------|--------|--------|-------------------|-------------------------------------|
G|--------|--------|--------|-------------------|-------------------------------------|
D|--------|--------|--------|-------------------|-------------------------------------|
A|--------|--------|--------|-------------------|-------------------------------------|
E|--------|--------|--------|-------------------|-------------------------------------|


E|---------------------|----------------------------------------|-12----15-14-12----------------------|
B|-22---20---19---17---|----------19-17-15----------------------|----------------15-14-12-------------|
G|---------------------|-19----------------18-16-14-------------|-------------------------14-12-11----|
D|---------------------|----------------------------17-16-14----|----------------------------------14-|
A|---------------------|-17----------------------------------17-|-------------------------------------|
E|---------------------|----------------------------------------|-------------------------------------|


E|-14----17-15-14----------------------|-------------------17-19-20----|-19---17---19---21---|
B|----------------17-15-14-------------|----------17-19-20-------------|---------------------|
G|-------------------------16-14-12----|-16-17-19----------------------|---------------------|
D|----------------------------------16-|-------------------------------|---------------------|
A|-------------------------------------|-------------------------------|---------------------|
E|-------------------------------------|-------------------------------|---------------------|


E|--------|--------|--------|----------21--22-----------|----------21--22-----------|
B|--------|--------|--------|-22--------------------19--|-22--------------------19--|
G|--------|--------|--------|---------------------------|---------------------------|
D|--------|--------|--------|---------------------------|---------------------------|
A|--------|--------|--------|---------------------------|---------------------------|
E|--------|--------|--------|---------------------------|---------------------------|


E|-----21--22--22--21--21--22--22--|-21--------------|-------------|---------------------|
B|-22------------------------------|-----------------|-------------|---------------------|
G|---------------------------------|-----------------|-------21----|-20----21--20----21--|
D|---------------------------------|-----------------|-------------|---------------------|
A|---------------------------------|-----------------|-------------|---------------------|
E|---------------------------------|-----------------|-------------|---------------------|


E|-17--17-17-17------16-17-17-17-17------|-------------|-----------------|---------------------|
B|---------------------------------------|-------------|-----------17----|-16----17--16----17--|
G|---------------------------------------|-------------|-----------------|---------------------|
D|---------------------------------------|-19----18----|-19--------------|---------------------|
A|---------------------------------------|-------------|-----------------|---------------------|
E|---------------------------------------|-------------|-----------------|---------------------|


E|-16-17-17-17-17------17-17-17-17-17------|-------------|------21-------------17------|
B|-----------------------------------------|-------------|-10---------------19-----19--|
G|-----------------------------------------|-------------|-----------------------------|
D|-----------------------------------------|-19----18----|-----------------------------|
A|-----------------------------------------|-------------|-----------------------------|
E|-----------------------------------------|-------------|-----------------------------|


E|---------19-----------15------|---------17-----------13------|-----16--------------17----------|
B|------------------17------17--|------------------15----------|---------------------------------|
G|-20---------------------------|-18-----------------------14--|-13----------13--14----------14--|
D|-----21-----------------------|-----19-----------------------|---------------------------------|
A|------------------------------|------------------------------|---------------------------------|
E|------------------------------|------------------------------|---------------------------------|


E|-----19--------------21------22--|-21-21-21-21-21-21-21-21-21-21-21-21-21-21-21-21-|
B|---------------------------------|-------------------------------------------------|
G|-16----------16--18------19------|-------------------------------------------------|
D|---------------------------------|-------------------------------------------------|
A|---------------------------------|-------------------------------------------------|
E|---------------------------------|-------------------------------------------------|


E|-21-21-21-21-21-21-21-21-21-21-21-21-21-21-21-21-|-21-21-21-21-21-21-21-21-21-21-21-21-21-21-21-21-|
B|-------------------------------------------------|-------------------------------------------------|
G|-------------------------------------------------|-------------------------------------------------|
D|-------------------------------------------------|-------------------------------------------------|
A|-------------------------------------------------|-------------------------------------------------|
E|-------------------------------------------------|-------------------------------------------------|


E|-20-20-20-20-20-20-20-20-19-19-19-19-19-19-19-19-|-21-21-21-21-19-19-19-19-17-17-17-17-16-16-16-16-|
B|-------------------------------------------------|-------------------------------------------------|
G|-------------------------------------------------|-------------------------------------------------|
D|-------------------------------------------------|-------------------------------------------------|
A|-------------------------------------------------|-------------------------------------------------|
E|-------------------------------------------------|-------------------------------------------------|


E|-17---------------------------|-14--12--------------------------|-14--12--------------------------|
B|------------------14--15--16--|---------------------14--15--16--|-------------------------15--17--|
G|----------14--16--------------|-------------14--16--------------|-------------14--16--17----------|
D|------------------------------|---------------------------------|---------------------------------|
A|------------------------------|---------------------------------|---------------------------------|
E|------------------------------|---------------------------------|---------------------------------|


E|--------|-----------------|-----------------|------------------------|-----------------12--12--12--12--|
B|-18-----|-18---17----15---|-----------------|--------------------14--|-12------------------------------|
G|--------|-----------------|-19---17---17----|-16-----------14--------|-----13--------------------------|
D|--------|-----------------|-----------------|------------------------|---------16--14------------------|
A|--------|-----------------|-----------------|------------------------|---------------------------------|
E|--------|-----------------|-----------------|------------------------|---------------------------------|


E|-12--14-12-10------17--------|---------14--14------------------|---------------------------|
B|-----------------------------|-----15----------15--------------|-----------------------14--|
G|-------------------------18--|-16------------------16----------|-14--------------14--------|
D|-----------------------------|-------------------------18--18--|-----14--------------------|
A|-----------------------------|---------------------------------|---------16--16------------|
E|-----------------------------|---------------------------------|---------------------------|


E|-----------------12--12--12--12--|-12--14-12-10------17--------|---------14--14------------------|
B|-12------------------------------|-----------------------------|-----15----------15--------------|
G|-----13--11--9-------------------|-------------------------18--|-16------------------16----------|
D|---------------------------------|-----------------------------|-------------------------18--18--|
A|---------------------------------|-----------------------------|---------------------------------|
E|---------------------------------|-----------------------------|---------------------------------|


E|----------------------------------------|----------------------------------------|
B|----------------------------------------|----------------------------------------|
G|-14---14--14-16-18-16-14-16-18-16-18-14-|-16-------16-18-19-18-16-18-19-18-19-16-|
D|----------------------------------------|----------------------------------------|
A|----------------------------------------|----------------------------------------|
E|----------------------------------------|----------------------------------------|


E|----------------------------------------|-------------12-14-12----12-14-12-14----|
B|----------------17-15-14-15-17-15-17-14-|-15-------15----------15-------------15-|
G|-18-------18-19-------------------------|----------------------------------------|
D|----------------------------------------|----------------------------------------|
A|----------------------------------------|----------------------------------------|
E|----------------------------------------|----------------------------------------|


E|-----------------------------------|---------------------------------|-----------------------------------------------|
B|-17------19-20----19------20-22-19-|-20--20--20--20--20--20--20--20--|--------19-20-19-20-19-20-19-20-19-20-19-20-19-|
G|---------------21------------------|---------------------------------|-24--------------------------------------------|
D|-----------------------------------|---------------------------------|-----------------------------------------------|
A|-----------------------------------|---------------------------------|-----------------------------------------------|
E|-----------------------------------|---------------------------------|-----------------------------------------------|


E|-------------------------------------------------|-----------------------------------2-----2--3--|
B|-20-19-17-19-17-15----15-------------------------|----3--2--3--2--3------3--2--3--5-----5--------|
G|-------------------18----18-16-14-16-14----------|-----------------------------------------------|
D|----------------------------------------17-16-14-|-----------------------------------------------|
A|-------------------------------------------------|-----------------------------------------------|
E|-------------------------------------------------|-----------------------------------------------|


E|-5--4--5--4--5-------5--4--5--6--7--5--------|--------|--------|--------|--------|
B|---------------------------------------8--7--|--------|--------|--------|--------|
G|---------------------------------------------|--------|--------|--------|--------|
D|---------------------------------------------|--------|--------|--------|--------|
A|---------------------------------------------|--------|--------|--------|--------|
E|---------------------------------------------|--------|--------|--------|--------|


E|--------|--------|--------|--------|--------|--------|----------0--2--0--2--4--5--------21--|
B|--------|--------|--------|--------|--------|--------|-3--2--3------------------------------|
G|--------|--------|--------|--------|--------|--------|--------------------------------------|
D|--------|--------|--------|--------|--------|--------|--------------------------------------|
A|--------|--------|--------|--------|--------|--------|--------------------------------------|
E|--------|--------|--------|--------|--------|--------|--------------------------------------|


E|-22--------------------21--|-22---------------21--22--22--|-21--21--22--22--21--------|
B|----------19--22-----------|----------19--22--------------|---------------------------|
G|---------------------------|------------------------------|---------------------------|
D|---------------------------|------------------------------|---------------------------|
A|---------------------------|------------------------------|---------------------------|
E|---------------------------|------------------------------|---------------------------|


E|--------|-----------------|-----------22--22-22-22------|--------|--------|--------|
B|--------|-22----21----22--|-21----22--------------------|--------|--------|--------|
G|--------|-----------------|-----------------------------|--------|--------|--------|
D|--------|-----------------|-----------------------------|--------|--------|--------|
A|--------|-----------------|-----------------------------|--------|--------|--------|
E|--------|-----------------|-----------------------------|--------|--------|--------|


E|--------|--------|--------|--------|--------|---------18------------------9---|-10----------10--12----------12--|
B|--------|--------|--------|--------|--------|-----20------20------------------|---------------------------------|
G|--------|--------|--------|--------|--------|-----------------18--2-----------|---------------------------------|
D|--------|--------|--------|--------|--------|---------------------------------|---------------------------------|
A|--------|--------|--------|--------|--------|---------------------------------|-----12--------------12----------|
E|--------|--------|--------|--------|--------|---------------------------------|---------------------------------|


E|-14------15------22-22-22-22-22-22-22-22-|-22-22-22-22-22-22-22-22-22-22-22-22-22-22-22-22-|
B|-----------------------------------------|-------------------------------------------------|
G|-----14------14--------------------------|-------------------------------------------------|
D|-----------------------------------------|-------------------------------------------------|
A|-----------------------------------------|-------------------------------------------------|
E|-----------------------------------------|-------------------------------------------------|


E|-22-22-22-22-22-22-22-22-22-22-22-22-22-22-22-22-|-22-22-22-22-22-22-22-22-22-22-22-22-22-22-22-22-|
B|-------------------------------------------------|-------------------------------------------------|
G|-------------------------------------------------|-------------------------------------------------|
D|-------------------------------------------------|-------------------------------------------------|
A|-------------------------------------------------|-------------------------------------------------|
E|-------------------------------------------------|-------------------------------------------------|


E|-22-22-22-22-21-21-21-21-22-22-22-22-19-19-19-19-|--------------------------------------|
B|-------------------------------------------------|-19-19-19-19-17-----------------------|
G|-------------------------------------------------|----------------21-21-21-19-------19--|
D|-------------------------------------------------|--------------------------------------|
A|-------------------------------------------------|--------------------------------------|
E|-------------------------------------------------|--------------------------------------|


E|-----------------19--17----------|-----------------19--17----------|-----------------18----|
B|-17--19--20--21--------------15--|-17--19--20--21--------------15--|-17--18--20--22--------|
G|---------------------------------|---------------------------------|-----------------------|
D|---------------------------------|---------------------------------|-----------------------|
A|---------------------------------|---------------------------------|-----------------------|
E|---------------------------------|---------------------------------|-----------------------|


E|-18----------|-----------------|----------------------------|-------14--12--------------|
B|--------22---|-22---20----18---|-18---17-18-17-17-15--------|-15------------14--12--10--|
G|-------------|-----------------|----------------------------|---------------------------|
D|-------------|-----------------|----------------------------|---------------------------|
A|-------------|-----------------|----------------------------|---------------------------|
E|-------------|-----------------|----------------------------|---------------------------|


E|-17--17--17--17--17--19-17-15------|-22----------------19--19--|---------------------------------|
B|-----------------------------------|-------19------20----------|-20------------------------------|
G|-----------------------------------|-----------21--------------|-----21--18--18--19--------------|
D|-----------------------------------|---------------------------|---------------------19----------|
A|-----------------------------------|---------------------------|-------------------------21--21--|
E|-----------------------------------|---------------------------|---------------------------------|


E|---------------------------|--------------------------------------|---------------------------|
B|---------------------------|-10--10--10--10--10--10-12-10---------|-15----------------12--12--|
G|-------11--9---------------|------------------------------12------|-------11--9---12----------|
D|-12------------11--9---7---|--------------------------------------|---------------------------|
A|---------------------------|--------------------------------------|---------------------------|
E|---------------------------|--------------------------------------|---------------------------|


E|-----------------------------------------|-------------------------------------------------|
B|-8---------------------------------------|----------------------8--------------------------|
G|-----9-----------------------------------|----------11-9-----9-----11-9-----------------9--|
D|---------11--11--12-11-9-----9-----9--11-|-12-11-12-------12-------------12-11-12-11-12----|
A|--------------------------12----12-------|-------------------------------------------------|
E|-----------------------------------------|-------------------------------------------------|


E|----------------------7--------------------------|-------------------------------------------10----|
B|----------10-8--7--8-----10-8--7-----------------|-10----------10-12-13-10-12-10----10-12-13----12-|
G|-11-9--11-------------------------9--11-9--11-12-|----12-11-12-------------------12----------------|
D|-------------------------------------------------|-------------------------------------------------|
A|-------------------------------------------------|-------------------------------------------------|
E|-------------------------------------------------|-------------------------------------------------|


E|----------------10-12----------------------------|----------14-12-10-12-15-14-12----------------12-|
B|-14-12-10-12-14-------14-15-14-12----12-10-12-14-|-15-14-15----------------------15-14-15-14-15----|
G|----------------------------------14-------------|-------------------------------------------------|
D|-------------------------------------------------|-------------------------------------------------|
A|-------------------------------------------------|-------------------------------------------------|
E|-------------------------------------------------|-------------------------------------------------|


E|-14-12-14-17-15-14-15-19-17-15-14-12-14-12-14-15-|-17-15-14-15-17-19-20-17-19-19-19-19-17-17-17-17-|
B|-------------------------------------------------|-------------------------------------------------|
G|-------------------------------------------------|-------------------------------------------------|
D|-------------------------------------------------|-------------------------------------------------|
A|-------------------------------------------------|-------------------------------------------------|
E|-------------------------------------------------|-------------------------------------------------|


E|-19-19-19-19-21-21-21-21-22-22-22-22-22-22-22-22-|-22-22-22-22-22-22-22-22-22-22-22-22-22-22-22-22-|
B|-------------------------------------------------|-------------------------------------------------|
G|-------------------------------------------------|-------------------------------------------------|
D|-------------------------------------------------|-------------------------------------------------|
A|-------------------------------------------------|-------------------------------------------------|
E|-------------------------------------------------|-------------------------------------------------|


E|-22-22-22-22-22-22-22-22-22----------------21----|-22----------------21----22----------------21----|
B|----------------------------22-22-22-22-22----22-|----22-22-22-22-22----22----22-22-22-22-22----22-|
G|-------------------------------------------------|-------------------------------------------------|
D|-------------------------------------------------|-------------------------------------------------|
A|-------------------------------------------------|-------------------------------------------------|
E|-------------------------------------------------|-------------------------------------------------|


E|-22----21----22----21----22-21-19----------------|-------------------------------|
B|----22----22----22----22----------22-20-19-------|-------------------------------|
G|-------------------------------------------21-19-|-18----------------------------|
D|-------------------------------------------------|----21-19-17-------------------|
A|-------------------------------------------------|-------------21-19-17----------|
E|-------------------------------------------------|----------------------21-19----|


E|------------------------------22---|-19--------22-22-22-22-22-22-22-22-|-22-22-22-22-22-22-22-22-22-22-22-22-22-22-22-22-|
B|-2--3--3--2--3--2-----2--3---------|------22---------------------------|-------------------------------------------------|
G|-------------------4---------------|-----------------------------------|-------------------------------------------------|
D|-----------------------------------|-----------------------------------|-------------------------------------------------|
A|-----------------------------------|-----------------------------------|-------------------------------------------------|
E|-----------------------------------|-----------------------------------|-------------------------------------------------|


E|-22-22-22-22-22-22-22-22-22----------------21----|-22----------------21----22----------------21----|
B|----------------------------22-22-22-22-22----22-|----22-22-22-22-22----22----22-22-22-22-22----22-|
G|-------------------------------------------------|-------------------------------------------------|
D|-------------------------------------------------|-------------------------------------------------|
A|-------------------------------------------------|-------------------------------------------------|
E|-------------------------------------------------|-------------------------------------------------|


E|-22----21----22----21----22-21-19----------------|-9--7--5-----------------------|
B|----22----22----22----22----------22-20-19-------|----------8--7--5--------------|
G|-------------------------------------------21-19-|-------------------7--6--4-----|
D|-------------------------------------------------|-------------------------------|
A|-------------------------------------------------|-------------------------------|
E|-------------------------------------------------|-------------------------------|


E|------------------------------22---|-19--------------|------------------------------22---|
B|-2--3--3--2--3--2-----2--3---------|------22---------|-------3--2--3--2-----2--3---------|
G|-------------------4---------------|-----------------|-6--7--------------4---------------|
D|-----------------------------------|-----------------|-----------------------------------|
A|-----------------------------------|-----------------|-----------------------------------|
E|-----------------------------------|-----------19----|-----------------------------------|


E|-19-----------------------|-------22-22-22----------|-------------------------|------------------22---|
B|------22---19-------22-22-|-22----------------19-19-|-19----22-22-22----------|-----------------------|
G|--------------------------|-------------------------|-------------------------|-------19-19-19--------|
D|--------------------------|-------------------------|-------------------19-19-|-19--------------------|
A|--------------------------|-------------------------|-------------------------|-----------------------|
E|--------------------------|-------------------------|-------------------------|-----------------------|


E|-22---22---22--------|-22--------22--------|
B|---------------------|---------------------|
G|---------------------|---------------------|
D|---------------------|---------------------|
A|---------------------|---------------------|
E|---------------------|---------------------|





Track 3: Bass

E|--------|--------|-------------------------------------------------|-----------------|
B|--------|--------|-5--4--5--7--8--7--5-----------5-----------------|-----------------|
G|--------|--------|----------------------7--6--7-----7--6--------6--|-7---------------|
D|--------|--------|----------------------------------------7--9-----|-----------------|
A|--------|--------|-------------------------------------------------|-----------------|
E|--------|--------|-------------------------------------------------|-----------------|


E|--------|-------22----|-21----22-19-17-22---21--22-19-|-17--22--21--22-19-17--------|
B|--------|-------------|-------------------------------|------------------------20---|
G|--------|-------------|-------------------------------|-----------------------------|
D|--------|-------------|-------------------------------|-----------------------------|
A|--------|-------------|-------------------------------|-----------------------------|
E|--------|-------------|-------------------------------|-----------------------------|


E|-------------------------------|-------------2-----2--3--5--4--5--4--5-------|-5--4--5--6--7--5--3--2--0-----0--2--3--2--0-----|
B|-19---17---3--2--3--2--3-------|-3--2--3--5-----5----------------------------|----------------------------4-----------------3--|
G|-------------------------------|---------------------------------------------|-------------------------------------------------|
D|-------------------------------|---------------------------------------------|-------------------------------------------------|
A|-------------------------------|---------------------------------------------|-------------------------------------------------|
E|-------------------------------|---------------------------------------------|-------------------------------------------------|


E|-------0---------------------------|-------------------------------------------------|
B|-2--3-----3--2-----0--2--3---------|-------------------------------------------------|
G|----------------2------------------|-------------------------------------------------|
D|-----------------------------------|-------------------------------------------------|
A|-----------------------------------|-5--5--5--5--5--5--5--5--5--5--5--5--5--5--5--5--|
E|-----------------------------------|-------------------------------------------------|


E|-------------------------------------------------|-------------------------------------------------|
B|-------------------------------------------------|-------------------------------------------------|
G|-------------------------------------------------|-------------------------------------------------|
D|-------------------------------------------------|-------------------------------------------------|
A|-5--5--5--5--5--5--5--5--5--5--5--5--5--5--5--5--|-5--5--5--5--5--5--5--5--5--5--5--5--5--5--5--5--|
E|-------------------------------------------------|-------------------------------------------------|


E|-------------------------------------------------|-----------5---------|-------------------------------------------------|
B|-------------------------------------------------|---------------------|-------------------------------------------------|
G|-------------------------------------------------|---------------------|-------------------------------------------------|
D|-------------------------------------------------|------5--------------|-------------------------------------------------|
A|-5--5--5--5--5--5--5--5--5--5--5--5--5--5--5--5--|-5-------------------|-5--5--5--5--5--5--5--5--5--5--5--5--5--5--5--5--|
E|-------------------------------------------------|----------------5----|-------------------------------------------------|


E|-------------------------------------------------|-------------------------------------------------|
B|-------------------------------------------------|-------------------------------------------------|
G|-------------------------------------------------|-------------------------------------------------|
D|-------------------------------------------------|-------------------------------------------------|
A|-5--5--5--5--5--5--5--5--5--5--5--5--5--5--5--5--|-5--5--5--5--5--5--5--5--5--5--5--5--5--5--5--5--|
E|-------------------------------------------------|-------------------------------------------------|


E|-------------------------------|-------------------------------------------------|
B|----------------------------3--|-------------------------------------------------|
G|----------------0--2--4--5-----|-------------------------------------------------|
D|-0-----0--2--4-----------------|-------------------------------------------------|
A|-------------------------------|-5--5--5--5--5--5--5--5--5--5--5--5--5--5--5--5--|
E|-------------------------------|-------------------------------------------------|


E|------------------------------|---------------------------------|------------------------------------------|
B|------------------------------|---------------------------------|------3--2--0-----3--2--0-----------------|
G|----------2---------------2---|-------------2-------2-------2---|---------------2-----------2--0-----------|
D|-0------------4---------------|-4---0-----------4-------4-------|-0-------------------------------4--2--0--|
A|------------------5-----------|---------------------------------|------------------------------------------|
E|------------------------------|---------------------------------|------------------------------------------|


E|-------------------------------------------------|-------------------------------------------------|
B|-------------------------------------------------|-------------------------------------------------|
G|-2--2--2--2--2--2--2--2--2--2--2--2--2--2--2--2--|-2--2--2--2--2--2--2--2--2--2--2--2--2--2--2--2--|
D|-------------------------------------------------|-------------------------------------------------|
A|-------------------------------------------------|-------------------------------------------------|
E|-------------------------------------------------|-------------------------------------------------|


E|-------------------------------------------------|-----------------------------|
B|-------------------------------------------------|-----------------------------|
G|-2--2--2--2--2--2--2--2--2--2--2--2--2--2--2--2--|-2---2--2--2---2---2---------|
D|-------------------------------------------------|-----------------------------|
A|-------------------------------------------------|-----------------------------|
E|-------------------------------------------------|-----------------------------|


E|--------|--------|--------|--------|--------|--------|--------|-------------|-----------------|
B|--------|--------|--------|--------|--------|--------|--------|-------------|-----------------|
G|--------|--------|--------|--------|--------|--------|--------|-------------|------2----------|
D|--------|--------|--------|--------|--------|--------|--------|-------2-----|-----------------|
A|--------|--------|--------|--------|--------|--------|--------|-------------|-0---------------|
E|--------|--------|--------|--------|--------|--------|--------|-------------|-----------------|


E|-----------------|-----------------|-------------------------------------------------|
B|-----------------|-----------------|-------------------------------------------------|
G|------0----------|-----------------|-------------------------------------------------|
D|-----------------|------3----------|-2--2--2--2--2--2--2--2--2--2--2--2--2--2--2--2--|
A|-----------------|-----------------|-------------------------------------------------|
E|-----------------|-----------------|-------------------------------------------------|


E|-------------------------------------------------|------------------------------|
B|-------------------------------------------------|--------------0---2---3---4---|
G|-------------------------------------------------|-2--------2-------------------|
D|-2--2--2--2--2--2--2--2--2--2--2--2--2--2--2--2--|------------------------------|
A|-------------------------------------------------|------------------------------|
E|-------------------------------------------------|------------------------------|


E|-2---0---------------------------|-2---0-----------------------0---|-1----0--------------|
B|-----------------0---2---3---4---|-----------------0---2---3-------|-----------4----3----|
G|-------------2-------------------|-------------2-------------------|---------------------|
D|---------------------------------|---------------------------------|---------------------|
A|---------------------------------|---------------------------------|---------------------|
E|---------------------------------|---------------------------------|---------------------|


E|-----------------0---0-----------|-----------------|-----------------------|-----------------------|
B|-2---2---3---3-------------------|-----------------|-----------------------|-----------------------|
G|---------------------------------|-2---------------|-----1---2-------------|-----1---2-------------|
D|-------------------------2---2---|-----------------|-----------------------|-----------------------|
A|---------------------------------|-----------------|-----------------------|-----------------------|
E|---------------------------------|-----------------|-----------------------|-----------------------|


E|------------------------------|-----------------|---------------------|--------|
B|--------------------------0---|-1---------------|---------------------|--------|
G|----------0---1---2---3-------|-----------------|---------------------|--------|
D|------------------------------|-----------0-----|-2----3----0----2----|--------|
A|------------------------------|------3----------|---------------------|-0------|
E|------------------------------|-----------------|---------------------|--------|


E|--------|-------------|--------|--------|--------|-------------|--------|-----------------|
B|--------|-------------|--------|--------|--------|-------------|--------|-----------------|
G|--------|-------------|--------|--------|--------|-------------|--------|-----------------|
D|--------|-------------|--------|--------|--------|-------------|--------|-----------------|
A|-0------|-0-----------|--------|-0------|-0------|-0-----------|--------|-0---------------|
E|--------|-------------|--------|--------|--------|-------------|--------|-----------------|


E|-----------------|-----------------|-----------------|---------------------|-------------------------------------------------|
B|-----------------|-----------------|-----------------|---------------------|-------------------------------------------------|
G|-----------------|-----------------|-----------------|---------------------|-------------------------------------------------|
D|-----------------|-----------------|-----------------|---------------------|-------------2--4--5--4--5--4--2--4--2-----------|
A|-0---------------|-0---------------|-0---------------|-0---------0---------|-0--2--4--5-----------------------------5--4--2--|
E|-----------------|-----------------|-----------------|---------------------|-------------------------------------------------|


E|-----------------|--------|--------|--------|-------------------------------------------------|
B|-----------------|--------|--------|--------|-5--4--5--7--8--7--5-----------5-----------------|
G|-----------------|--------|--------|--------|----------------------7--6--7-----7--6--------6--|
D|-----------------|--------|--------|--------|----------------------------------------7--9-----|
A|-0---------------|--------|--------|--------|-------------------------------------------------|
E|-----------------|--------|--------|--------|-------------------------------------------------|


E|-----------------|--------|-------22----|-21----22-19-17-22---21--22-19-|-17--22--21--22-19-17--------|
B|-----------------|--------|-------------|-------------------------------|------------------------20---|
G|-7---------------|--------|-------------|-------------------------------|-----------------------------|
D|-----------------|--------|-------------|-------------------------------|-----------------------------|
A|-----------------|--------|-------------|-------------------------------|-----------------------------|
E|-----------------|--------|-------------|-------------------------------|-----------------------------|


E|-------------------------------|----------0--2--0--2--4--5--4--5--4--5----|----------0--2--0--2-----3--2--3--2--3----|
B|-19---17---3--2--3--2--3-------|-3--2--3----------------------------------|-3--2--3--------------3-------------------|
G|-------------------------------|------------------------------------------|------------------------------------------|
D|-------------------------------|------------------------------------------|------------------------------------------|
A|-------------------------------|------------------------------------------|------------------------------------------|
E|-------------------------------|------------------------------------------|------------------------------------------|


E|-------------------------0--2--0-----------------|-------------------------------|
B|-------0--2--4--2--4--0-----------3--2--0--2-----|-------------------------------|
G|-4--3-----------------------------------------2--|-------2--2--2--2--2--2--2--2--|
D|-------------------------------------------------|-------------------------------|
A|-------------------------------------------------|-------------------------------|
E|-------------------------------------------------|-------------------------------|


E|-------------------------------------------------|-------------------------------------------------|
B|-------------------------------------------------|-------------------------------------------------|
G|-2--2--2--2--2--2--2--2--2--2--2--2--2--2--2--2--|-2--2--2--2--2--2--2--2--2--2--2--2--2--2--2--2--|
D|-------------------------------------------------|-------------------------------------------------|
A|-------------------------------------------------|-------------------------------------------------|
E|-------------------------------------------------|-------------------------------------------------|


E|-------------------------------------------|--------|--------|--------|-21-22-22-22-22------------|
B|-------------------------------------------|--------|--------|--------|---------------------------|
G|-2--2--2--2--2--2--2--2--2-----------------|--------|--------|--------|---------------------19----|
D|-------------------------------------------|--------|--------|--------|---------------------------|
A|-----------------------------0--0--0---0---|--------|--------|--------|---------------------------|
E|-------------------------------------------|--------|--------|--------|---------------------------|


E|-----------------|-----------------|-----------21-22-22-22------|-21-22-22-22-22------------|
B|-----------------|-22----21----22--|-21----22-------------------|---------------------------|
G|-18----19--------|-----------------|----------------------------|---------------------19----|
D|-----------------|-----------------|----------------------------|---------------------------|
A|-----------------|-----------------|----------------------------|---------------------------|
E|-----------------|-----------------|----------------------------|---------------------------|


E|------------------19---|-----19--22--19------------------|---------20-------------------|
B|-----------------------|-----------------21------22------|-----22------22--19------20---|
G|-18----19-19-----------|---------------------21----------|---------------------19-------|
D|-----------------------|---------------------------------|------------------------------|
A|-----------------------|---------------------------------|------------------------------|
E|-----------------------|---------------------------------|------------------------------|


E|-------------------------------|-------------------------------------------------|
B|-------------------------------|-------------------------------------------------|
G|-------------------------------|-------------------------------------------------|
D|-------7--7--7--7--7--7--7--7--|-7--7--7--7--7--7--7--7--7--7--7--7--7--7--7--7--|
A|-------------------------------|-------------------------------------------------|
E|-------------------------------|-------------------------------------------------|


E|--------------------------------------|---------------------------------|---------------------------------|
B|--------------------------------------|---------------------------------|---------------------------------|
G|--------------------------------------|---------------------------------|---------------------------------|
D|-7--7--7--7--7--7--7--7---------------|-----------------9---7-----------|-----------------9---7-----------|
A|-------------------------5--------5---|-7---9---10--11--------------5---|-7---9---10--11--------------5---|
E|--------------------------------------|---------------------------------|---------------------------------|


E|---------------------------|---------------------------|---------------------------|
B|---------------------------|---------------------------|---------------------------|
G|---------------------------|---------------------------|---------------------------|
D|---------------------------|---------------------------|---------------------------|
A|-7---9---10--12--13---12---|-11---10---9---9---10--10--|-12--12--0---0-------------|
E|---------------------------|---------------------------|-----------------10--------|


E|-----------------------|-----------------------|--------------------|-----------------------|
B|-----------------------|-----------------------|--------------------|-----------------------|
G|-----------------------|-----------------------|--------------------|-----------------------|
D|-----------11--12------|-----------11--12------|--------------------|-----0---1---2---3-----|
A|-----------------------|-----------------------|----------------3---|-4---------------------|
E|-----------------------|-----------------------|--------------------|-----------------------|


E|-----------------|-----------------|--------|--------|-------------|-------------|
B|-----------------|-----------------|--------|--------|-------------|-------------|
G|-------2----3----|-0----2----------|--------|--------|-------0-----|-2-----------|
D|-5---------------|-----------0-----|-0------|-0------|-4-----------|-------0-----|
A|-----------------|-----------------|--------|--------|-------------|-------------|
E|-----------------|-----------------|--------|--------|-------------|-------------|


E|--------|--------|-------------|-----------------|---------------------|---------------------|
B|--------|--------|-------------|-----------------|---------------------|---------------------|
G|--------|--------|-------------|-----------------|---------------------|---------------------|
D|-0------|-0------|-4-----5-----|-------0----0----|-0----0----0----0----|-0----0----0----0----|
A|--------|--------|-------------|-----------------|---------------------|---------------------|
E|--------|--------|-------------|-17--------------|---------------------|---------------------|


E|---------------------|---------------------|---------------------|---------------------------|
B|---------------------|---------------------|---------------------|---------------------------|
G|---------------------|---------------------|---------------------|---------------------------|
D|-0----0----0----0----|-0----0----0----0----|-0----0----0----0----|-0----0----0---0---0---0---|
A|---------------------|---------------------|---------------------|---------------------------|
E|---------------------|---------------------|---------------------|---------------------------|


E|---------------------------------|------------------------------|---------------------------------|
B|---------------------------------|------------------------------|---------------------------------|
G|---------------------------------|------------------------------|-------------0---------------0---|
D|-0---0---0---0---0---0---0---0---|-0---0---0---0---0--------5---|-4---0-----------4---0-----------|
A|---------------------------------|------------------------------|---------------------------------|
E|---------------------------------|------------------------------|---------------------------------|


E|---------------------------------|---------------------------------|-----------------------------|
B|---------------------------------|---------------------------------|--------------------------3--|
G|-------------0---------------2---|-------------2---------------2---|-----2-------2---------------|
D|-4---0---4-------4---0-----------|-4---0-----------4---0-----------|-4-------4-------0-----------|
A|---------------------------------|---------------------------------|-----------------------------|
E|---------------------------------|---------------------------------|-----------------------------|


E|-------------------------------|----------------------------|------------------------|
B|-2--0--------------------------|-----------------------3----|------------------------|
G|-------2--0--------------------|----------------------------|------------------------|
D|-------------4--2--0-----------|----------------------------|-5----7-------------5---|
A|----------------------4--2-----|-4--5--4--5--4----5---------|-----------5------------|
E|-------------------------------|----------------------------|------------------------|


E|---------------------------------|---------------------------------|---------------------------------|
B|---------------------------------|---------------------------------|---------------------------------|
G|---------------------------------|---------------------------------|-------------2---------------2---|
D|-4-----------5---4-----------5---|-4-------4---5---4-----------7---|-4---0-----------4---0-----------|
A|-----5---------------5-----------|-----5---------------5-----------|---------------------------------|
E|---------------------------------|---------------------------------|---------------------------------|


E|-----------------------------|-------------------------------|----------------------------|
B|--------------------------3--|-------------------------------|-----------------------3----|
G|-----2-------2---------------|-------------------------------|----------------------------|
D|-4-------4-------0-----------|-11-9--7-----------------------|----------------------------|
A|-----------------------------|----------10-9--7--------------|-4--5--4--5--5----5---------|
E|-----------------------------|-------------------10-9--7-----|----------------------------|


E|-----------------|----------------------------|-----------------------------------|
B|-----------------|-----------------------3----|-----------------------------------|
G|-----------------|----------------------------|-0----2----------------------------|
D|-5----7----------|------------------0---------|-----------------------------------|
A|-----------------|-4--5--4--5--4--------------|-----------5--5--5--5--5--5--5--5--|
E|-----------7-----|----------------------------|-----------------------------------|


E|-------------------------------------------------|-------------------------------------------------|
B|-------------------------------------------------|-------------------------------------------------|
G|-------------------------------------------------|-------------------------------------------------|
D|-------------------------------------------------|-------------------------------------------------|
A|-5--5--5--5--5--5--5--5--5--5--5--5--5--5--5--5--|-5--5--5--5--5--5--5--5--5--5--5--5--5--5--5--5--|
E|-------------------------------------------------|-------------------------------------------------|


E|-----------------------------------|---------------------|---------------------|
B|-----------------------------------|---------------------|---------------------|
G|-----------------------------------|-2-------------------|---------------------|
D|------------------------------4----|------4--------------|---------------------|
A|-5--5--5--5--5--5--5--5--5---------|-----------5---------|-5---------5---------|
E|-----------------------------------|---------------------|---------------------|





Track 4: Lead

E|--------|--------|-------------------------------------------------|-------------------------------------------------|
B|--------|--------|-------------------------------------------------|-------------------------------------------------|
G|--------|--------|-------------------------------------------------|-------------------------------------------------|
D|--------|--------|-2--1--2--4--5--4--2--0-----0--2--0--------------|-------------------------------------------------|
A|--------|--------|-------------------------4-----------4--0--2--4--|-5--5--5--5--5--5--5--5--5--5--5--5--5--5--5--5--|
E|--------|--------|-------------------------------------------------|-------------------------------------------------|


E|-------------------------------------------------|-------------------------------------------------|
B|-------------------------------------------------|-------------------------------------------------|
G|-------------------------------------------------|-------------------------------------------------|
D|-------------------------------------------------|-------------------------------------------------|
A|-5--5--5--5--5--5--5--5--5--5--5--5--5--5--5--5--|-5--5--5--5--5--5--5--5--5--5--5--5--5--5--5--5--|
E|-------------------------------------------------|-------------------------------------------------|


E|-------------------------------------------------|-----------------------------------|
B|-------------------------------------------------|-----------------------------------|
G|-------------------------------------------------|-----------------------------------|
D|-------------------------------------------------|------------------------------5----|
A|-5--5--5--5--5--5--5--5--5--5--5--5--5--5--5--5--|-5--5--5--5--5--5--5--5--5---------|
E|-------------------------------------------------|-----------------------------------|


E|-------------------------------|---------------------------------------------|-------------------------------------------------|
B|-10----------------------------|---------------------------------------------|-------------------------------------------------|
G|-------------------------------|---------------------------------------------|-2--1--2--3--4--2--0-----------------0-----------|
D|-------------------------------|----------2--4--2--4--5--7--6--7--6--7-------|----------------------4--2--1--2--4-----4--2--0--|
A|------0----5--4--5--4--5-------|-5--4--5-------------------------------------|-------------------------------------------------|
E|-------------------------------|---------------------------------------------|-------------------------------------------------|


E|-------------------------------------------------|--------|--------|--------|--------|
B|-------------------------------------------------|--------|--------|--------|--------|
G|-------------------------------------------------|--------|--------|--------|--------|
D|----0--2--0--------------------------------------|--------|--------|--------|--------|
A|-4-----------4--0--2--4--5--5--5--5--5--5--5--5--|--------|--------|--------|--------|
E|-------------------------------------------------|--------|--------|--------|--------|


E|--------|--------|--------|--------|--------|--------|--------|--------|--------|
B|--------|--------|--------|--------|--------|--------|--------|--------|--------|
G|--------|--------|--------|--------|--------|--------|--------|--------|--------|
D|--------|--------|--------|--------|--------|--------|--------|--------|--------|
A|--------|--------|--------|--------|--------|--------|--------|--------|--------|
E|--------|--------|--------|--------|--------|--------|--------|--------|--------|


E|--------|--------|--------|--------|--------|--------|--------|--------|--------|
B|--------|--------|--------|--------|--------|--------|--------|--------|--------|
G|--------|--------|--------|--------|--------|--------|--------|--------|--------|
D|--------|--------|--------|--------|--------|--------|--------|--------|--------|
A|--------|--------|--------|--------|--------|--------|--------|--------|--------|
E|--------|--------|--------|--------|--------|--------|--------|--------|--------|


E|--------|--------|--------|--------|--------|--------|--------|--------|--------|
B|--------|--------|--------|--------|--------|--------|--------|--------|--------|
G|--------|--------|--------|--------|--------|--------|--------|--------|--------|
D|--------|--------|--------|--------|--------|--------|--------|--------|--------|
A|--------|--------|--------|--------|--------|--------|--------|--------|--------|
E|--------|--------|--------|--------|--------|--------|--------|--------|--------|


E|--------|--------|--------|--------|--------|--------|--------|--------|--------|
B|--------|--------|--------|--------|--------|--------|--------|--------|--------|
G|--------|--------|--------|--------|--------|--------|--------|--------|--------|
D|--------|--------|--------|--------|--------|--------|--------|--------|--------|
A|--------|--------|--------|--------|--------|--------|--------|--------|--------|
E|--------|--------|--------|--------|--------|--------|--------|--------|--------|


E|--------|--------|--------|--------|--------|--------|--------|--------|--------|
B|--------|--------|--------|--------|--------|--------|--------|--------|--------|
G|--------|--------|--------|--------|--------|--------|--------|--------|--------|
D|--------|--------|--------|--------|--------|--------|--------|--------|--------|
A|--------|--------|--------|--------|--------|--------|--------|--------|--------|
E|--------|--------|--------|--------|--------|--------|--------|--------|--------|


E|--------|--------|--------|--------|--------|--------|--------|--------|--------|
B|--------|--------|--------|--------|--------|--------|--------|--------|--------|
G|--------|--------|--------|--------|--------|--------|--------|--------|--------|
D|--------|--------|--------|--------|--------|--------|--------|--------|--------|
A|--------|--------|--------|--------|--------|--------|--------|--------|--------|
E|--------|--------|--------|--------|--------|--------|--------|--------|--------|


E|--------|--------|--------|--------|--------|--------|--------|--------|--------|
B|--------|--------|--------|--------|--------|--------|--------|--------|--------|
G|--------|--------|--------|--------|--------|--------|--------|--------|--------|
D|--------|--------|--------|--------|--------|--------|--------|--------|--------|
A|--------|--------|--------|--------|--------|--------|--------|--------|--------|
E|--------|--------|--------|--------|--------|--------|--------|--------|--------|


E|--------|--------|--------|--------|--------|--------|--------|--------|--------|
B|--------|--------|--------|--------|--------|--------|--------|--------|--------|
G|--------|--------|--------|--------|--------|--------|--------|--------|--------|
D|--------|--------|--------|--------|--------|--------|--------|--------|--------|
A|--------|--------|--------|--------|--------|--------|--------|--------|--------|
E|--------|--------|--------|--------|--------|--------|--------|--------|--------|


E|--------|--------|--------|--------|--------|--------|--------|--------|--------|
B|--------|--------|--------|--------|--------|--------|--------|--------|--------|
G|--------|--------|--------|--------|--------|--------|--------|--------|--------|
D|--------|--------|--------|--------|--------|--------|--------|--------|--------|
A|--------|--------|--------|--------|--------|--------|--------|--------|--------|
E|--------|--------|--------|--------|--------|--------|--------|--------|--------|


E|--------|--------|--------|--------|--------|--------|--------|--------|--------|
B|--------|--------|--------|--------|--------|--------|--------|--------|--------|
G|--------|--------|--------|--------|--------|--------|--------|--------|--------|
D|--------|--------|--------|--------|--------|--------|--------|--------|--------|
A|--------|--------|--------|--------|--------|--------|--------|--------|--------|
E|--------|--------|--------|--------|--------|--------|--------|--------|--------|


E|--------|--------|--------|--------|--------|--------|--------|--------|--------|
B|--------|--------|--------|--------|--------|--------|--------|--------|--------|
G|--------|--------|--------|--------|--------|--------|--------|--------|--------|
D|--------|--------|--------|--------|--------|--------|--------|--------|--------|
A|--------|--------|--------|--------|--------|--------|--------|--------|--------|
E|--------|--------|--------|--------|--------|--------|--------|--------|--------|


E|--------|--------|--------|--------|--------|--------|--------|--------|--------|
B|--------|--------|--------|--------|--------|--------|--------|--------|--------|
G|--------|--------|--------|--------|--------|--------|--------|--------|--------|
D|--------|--------|--------|--------|--------|--------|--------|--------|--------|
A|--------|--------|--------|--------|--------|--------|--------|--------|--------|
E|--------|--------|--------|--------|--------|--------|--------|--------|--------|


E|--------|--------|--------|--------|--------|--------|--------|--------|--------|
B|--------|--------|--------|--------|--------|--------|--------|--------|--------|
G|--------|--------|--------|--------|--------|--------|--------|--------|--------|
D|--------|--------|--------|--------|--------|--------|--------|--------|--------|
A|--------|--------|--------|--------|--------|--------|--------|--------|--------|
E|--------|--------|--------|--------|--------|--------|--------|--------|--------|


E|--------|--------|--------|--------|--------|--------|--------|--------|--------|
B|--------|--------|--------|--------|--------|--------|--------|--------|--------|
G|--------|--------|--------|--------|--------|--------|--------|--------|--------|
D|--------|--------|--------|--------|--------|--------|--------|--------|--------|
A|--------|--------|--------|--------|--------|--------|--------|--------|--------|
E|--------|--------|--------|--------|--------|--------|--------|--------|--------|


E|--------|--------|--------|--------|--------|
B|--------|--------|--------|--------|--------|
G|--------|--------|--------|--------|--------|
D|--------|--------|--------|--------|--------|
A|--------|--------|--------|--------|--------|
E|--------|--------|--------|--------|--------|





Track 5: Lead

E|--------|--------|--------|--------|--------|--------|--------|--------|--------|
B|--------|--------|--------|--------|--------|--------|--------|--------|--------|
G|--------|--------|--------|--------|--------|--------|--------|--------|--------|
D|--------|--------|--------|--------|--------|--------|--------|--------|--------|
A|--------|--------|--------|--------|--------|--------|--------|--------|--------|
E|--------|--------|--------|--------|--------|--------|--------|--------|--------|


E|--------|--------|--------|--------|--------|--------|--------|--------|--------|
B|--------|--------|--------|--------|--------|--------|--------|--------|--------|
G|--------|--------|--------|--------|--------|--------|--------|--------|--------|
D|--------|--------|--------|--------|--------|--------|--------|--------|--------|
A|--------|--------|--------|--------|--------|--------|--------|--------|--------|
E|--------|--------|--------|--------|--------|--------|--------|--------|--------|


E|--------|--------|--------|--------|--------|--------|--------|--------|--------|
B|--------|--------|--------|--------|--------|--------|--------|--------|--------|
G|--------|--------|--------|--------|--------|--------|--------|--------|--------|
D|--------|--------|--------|--------|--------|--------|--------|--------|--------|
A|--------|--------|--------|--------|--------|--------|--------|--------|--------|
E|--------|--------|--------|--------|--------|--------|--------|--------|--------|


E|--------|--------|--------|--------|--------|--------|--------|--------|--------|
B|--------|--------|--------|--------|--------|--------|--------|--------|--------|
G|--------|--------|--------|--------|--------|--------|--------|--------|--------|
D|--------|--------|--------|--------|--------|--------|--------|--------|--------|
A|--------|--------|--------|--------|--------|--------|--------|--------|--------|
E|--------|--------|--------|--------|--------|--------|--------|--------|--------|


E|--------|--------|--------|--------|--------|--------|--------|--------|--------|
B|--------|--------|--------|--------|--------|--------|--------|--------|--------|
G|--------|--------|--------|--------|--------|--------|--------|--------|--------|
D|--------|--------|--------|--------|--------|--------|--------|--------|--------|
A|--------|--------|--------|--------|--------|--------|--------|--------|--------|
E|--------|--------|--------|--------|--------|--------|--------|--------|--------|


E|--------|--------|--------|--------|--------|--------|--------|--------|--------|
B|--------|--------|--------|--------|--------|--------|--------|--------|--------|
G|--------|--------|--------|--------|--------|--------|--------|--------|--------|
D|--------|--------|--------|--------|--------|--------|--------|--------|--------|
A|--------|--------|--------|--------|--------|--------|--------|--------|--------|
E|--------|--------|--------|--------|--------|--------|--------|--------|--------|


E|--------|--------|--------|--------|--------|--------|--------|--------|--------|
B|--------|--------|--------|--------|--------|--------|--------|--------|--------|
G|--------|--------|--------|--------|--------|--------|--------|--------|--------|
D|--------|--------|--------|--------|--------|--------|--------|--------|--------|
A|--------|--------|--------|--------|--------|--------|--------|--------|--------|
E|--------|--------|--------|--------|--------|--------|--------|--------|--------|


E|--------|--------|--------|--------|--------|--------|--------|--------|-------------------------------------------------|
B|--------|--------|--------|--------|--------|--------|--------|--------|-------------------------------------------------|
G|--------|--------|--------|--------|--------|--------|--------|--------|-------------------------------------------------|
D|--------|--------|--------|--------|--------|--------|--------|--------|-2--1--2--4--5--4--2--0-----0--2--0--------------|
A|--------|--------|--------|--------|--------|--------|--------|--------|-------------------------4-----------4--0--2--4--|
E|--------|--------|--------|--------|--------|--------|--------|--------|-------------------------------------------------|


E|-------------------------------------------------|-------------------------------------------------|
B|-------------------------------------------------|-------------------------------------------------|
G|-------------------------------------------------|-------------------------------------------------|
D|-------------------------------------------------|-------------------------------------------------|
A|-5--5--5--5--5--5--5--5--5--5--5--5--5--5--5--5--|-5--5--5--5--5--5--5--5--5--5--5--5--5--5--5--5--|
E|-------------------------------------------------|-------------------------------------------------|


E|-------------------------------------------------|-------------------------------------------------|
B|-------------------------------------------------|-------------------------------------------------|
G|-------------------------------------------------|-------------------------------------------------|
D|-------------------------------------------------|-------------------------------------------------|
A|-5--5--5--5--5--5--5--5--5--5--5--5--5--5--5--5--|-5--5--5--5--5--5--5--5--5--5--5--5--5--5--5--5--|
E|-------------------------------------------------|-------------------------------------------------|


E|-----------------------------------|-------------------------------|------------------------------------------|
B|-----------------------------------|-10----------------------------|------------------------------------------|
G|-----------------------------------|-------------------------------|----------------------1--2--1--2--1--2----|
D|------------------------------5----|-------------------------------|-0-----0--2--4--2--4----------------------|
A|-5--5--5--5--5--5--5--5--5---------|------0----5--4--5--4--5-------|----4-------------------------------------|
E|-----------------------------------|-------------------------------|------------------------------------------|


E|------------------------------------------|-------------------------------------------------|
B|------------------------------------------|-------------------------------------------------|
G|-------------------------0-----0-----0----|-------------------------------------------------|
D|-0-----0--2--4--2--4--0-----4-----4-------|-------------1-----1-----2--4--2--0--------------|
A|----4-------------------------------------|-2--1--2--4-----4-----2--------------4--2--4--0--|
E|------------------------------------------|-------------------------------------------------|


E|--------|--------|--------|--------|--------|--------|--------|--------|--------|
B|--------|--------|--------|--------|--------|--------|--------|--------|--------|
G|--------|--------|--------|--------|--------|--------|--------|--------|--------|
D|--------|--------|--------|--------|--------|--------|--------|--------|--------|
A|--------|--------|--------|--------|--------|--------|--------|--------|--------|
E|--------|--------|--------|--------|--------|--------|--------|--------|--------|


E|--------|--------|--------|--------|--------|--------|--------|--------|--------|
B|--------|--------|--------|--------|--------|--------|--------|--------|--------|
G|--------|--------|--------|--------|--------|--------|--------|--------|--------|
D|--------|--------|--------|--------|--------|--------|--------|--------|--------|
A|--------|--------|--------|--------|--------|--------|--------|--------|--------|
E|--------|--------|--------|--------|--------|--------|--------|--------|--------|


E|--------|--------|--------|--------|--------|--------|--------|--------|--------|
B|--------|--------|--------|--------|--------|--------|--------|--------|--------|
G|--------|--------|--------|--------|--------|--------|--------|--------|--------|
D|--------|--------|--------|--------|--------|--------|--------|--------|--------|
A|--------|--------|--------|--------|--------|--------|--------|--------|--------|
E|--------|--------|--------|--------|--------|--------|--------|--------|--------|


E|--------|--------|--------|--------|--------|--------|--------|--------|--------|
B|--------|--------|--------|--------|--------|--------|--------|--------|--------|
G|--------|--------|--------|--------|--------|--------|--------|--------|--------|
D|--------|--------|--------|--------|--------|--------|--------|--------|--------|
A|--------|--------|--------|--------|--------|--------|--------|--------|--------|
E|--------|--------|--------|--------|--------|--------|--------|--------|--------|


E|--------|--------|--------|--------|--------|--------|--------|--------|--------|
B|--------|--------|--------|--------|--------|--------|--------|--------|--------|
G|--------|--------|--------|--------|--------|--------|--------|--------|--------|
D|--------|--------|--------|--------|--------|--------|--------|--------|--------|
A|--------|--------|--------|--------|--------|--------|--------|--------|--------|
E|--------|--------|--------|--------|--------|--------|--------|--------|--------|


E|--------|--------|--------|--------|--------|--------|--------|--------|--------|
B|--------|--------|--------|--------|--------|--------|--------|--------|--------|
G|--------|--------|--------|--------|--------|--------|--------|--------|--------|
D|--------|--------|--------|--------|--------|--------|--------|--------|--------|
A|--------|--------|--------|--------|--------|--------|--------|--------|--------|
E|--------|--------|--------|--------|--------|--------|--------|--------|--------|


E|--------|--------|--------|--------|--------|--------|--------|--------|--------|
B|--------|--------|--------|--------|--------|--------|--------|--------|--------|
G|--------|--------|--------|--------|--------|--------|--------|--------|--------|
D|--------|--------|--------|--------|--------|--------|--------|--------|--------|
A|--------|--------|--------|--------|--------|--------|--------|--------|--------|
E|--------|--------|--------|--------|--------|--------|--------|--------|--------|


E|--------|--------|--------|
B|--------|--------|--------|
G|--------|--------|--------|
D|--------|--------|--------|
A|--------|--------|--------|
E|--------|--------|--------|





Track 6: Lead

E|--------|--------|--------|--------|--------|--------|--------|--------|--------|
B|--------|--------|--------|--------|--------|--------|--------|--------|--------|
G|--------|--------|--------|--------|--------|--------|--------|--------|--------|
D|--------|--------|--------|--------|--------|--------|--------|--------|--------|
A|--------|--------|--------|--------|--------|--------|--------|--------|--------|
E|--------|--------|--------|--------|--------|--------|--------|--------|--------|


E|--------|--------|--------|--------|--------|--------|--------|--------|--------|
B|--------|--------|--------|--------|--------|--------|--------|--------|--------|
G|--------|--------|--------|--------|--------|--------|--------|--------|--------|
D|--------|--------|--------|--------|--------|--------|--------|--------|--------|
A|--------|--------|--------|--------|--------|--------|--------|--------|--------|
E|--------|--------|--------|--------|--------|--------|--------|--------|--------|


E|--------|--------|--------|--------|--------|--------|--------|--------|--------|
B|--------|--------|--------|--------|--------|--------|--------|--------|--------|
G|--------|--------|--------|--------|--------|--------|--------|--------|--------|
D|--------|--------|--------|--------|--------|--------|--------|--------|--------|
A|--------|--------|--------|--------|--------|--------|--------|--------|--------|
E|--------|--------|--------|--------|--------|--------|--------|--------|--------|


E|--------|--------|--------|--------|--------|--------|--------|--------|--------|
B|--------|--------|--------|--------|--------|--------|--------|--------|--------|
G|--------|--------|--------|--------|--------|--------|--------|--------|--------|
D|--------|--------|--------|--------|--------|--------|--------|--------|--------|
A|--------|--------|--------|--------|--------|--------|--------|--------|--------|
E|--------|--------|--------|--------|--------|--------|--------|--------|--------|


E|--------|--------|--------|--------|--------|--------|--------|--------|--------|
B|--------|--------|--------|--------|--------|--------|--------|--------|--------|
G|--------|--------|--------|--------|--------|--------|--------|--------|--------|
D|--------|--------|--------|--------|--------|--------|--------|--------|--------|
A|--------|--------|--------|--------|--------|--------|--------|--------|--------|
E|--------|--------|--------|--------|--------|--------|--------|--------|--------|


E|--------|--------|--------|--------|--------|--------|--------|--------|--------|
B|--------|--------|--------|--------|--------|--------|--------|--------|--------|
G|--------|--------|--------|--------|--------|--------|--------|--------|--------|
D|--------|--------|--------|--------|--------|--------|--------|--------|--------|
A|--------|--------|--------|--------|--------|--------|--------|--------|--------|
E|--------|--------|--------|--------|--------|--------|--------|--------|--------|


E|--------|--------|--------|--------|--------|--------|--------|--------|--------|
B|--------|--------|--------|--------|--------|--------|--------|--------|--------|
G|--------|--------|--------|--------|--------|--------|--------|--------|--------|
D|--------|--------|--------|--------|--------|--------|--------|--------|--------|
A|--------|--------|--------|--------|--------|--------|--------|--------|--------|
E|--------|--------|--------|--------|--------|--------|--------|--------|--------|


E|--------|--------|--------|--------|--------|--------|--------|--------|--------|
B|--------|--------|--------|--------|--------|--------|--------|--------|--------|
G|--------|--------|--------|--------|--------|--------|--------|--------|--------|
D|--------|--------|--------|--------|--------|--------|--------|--------|--------|
A|--------|--------|--------|--------|--------|--------|--------|--------|--------|
E|--------|--------|--------|--------|--------|--------|--------|--------|--------|


E|--------|--------|--------|--------|--------|--------|--------|--------|--------|
B|--------|--------|--------|--------|--------|--------|--------|--------|--------|
G|--------|--------|--------|--------|--------|--------|--------|--------|--------|
D|--------|--------|--------|--------|--------|--------|--------|--------|--------|
A|--------|--------|--------|--------|--------|--------|--------|--------|--------|
E|--------|--------|--------|--------|--------|--------|--------|--------|--------|


E|--------|--------|--------|--------|--------|--------|--------|--------|--------|
B|--------|--------|--------|--------|--------|--------|--------|--------|--------|
G|--------|--------|--------|--------|--------|--------|--------|--------|--------|
D|--------|--------|--------|--------|--------|--------|--------|--------|--------|
A|--------|--------|--------|--------|--------|--------|--------|--------|--------|
E|--------|--------|--------|--------|--------|--------|--------|--------|--------|


E|--------|--------|--------|--------|--------|--------|--------|--------|--------|
B|--------|--------|--------|--------|--------|--------|--------|--------|--------|
G|--------|--------|--------|--------|--------|--------|--------|--------|--------|
D|--------|--------|--------|--------|--------|--------|--------|--------|--------|
A|--------|--------|--------|--------|--------|--------|--------|--------|--------|
E|--------|--------|--------|--------|--------|--------|--------|--------|--------|


E|--------|--------|--------|--------|--------|--------|--------|--------|--------|
B|--------|--------|--------|--------|--------|--------|--------|--------|--------|
G|--------|--------|--------|--------|--------|--------|--------|--------|--------|
D|--------|--------|--------|--------|--------|--------|--------|--------|--------|
A|--------|--------|--------|--------|--------|--------|--------|--------|--------|
E|--------|--------|--------|--------|--------|--------|--------|--------|--------|


E|--------|--------|--------|--------|--------|--------|--------|--------|--------|
B|--------|--------|--------|--------|--------|--------|--------|--------|--------|
G|--------|--------|--------|--------|--------|--------|--------|--------|--------|
D|--------|--------|--------|--------|--------|--------|--------|--------|--------|
A|--------|--------|--------|--------|--------|--------|--------|--------|--------|
E|--------|--------|--------|--------|--------|--------|--------|--------|--------|


E|--------|--------|--------|--------|--------|--------|--------|--------|--------|
B|--------|--------|--------|--------|--------|--------|--------|--------|--------|
G|--------|--------|--------|--------|--------|--------|--------|--------|--------|
D|--------|--------|--------|--------|--------|--------|--------|--------|--------|
A|--------|--------|--------|--------|--------|--------|--------|--------|--------|
E|--------|--------|--------|--------|--------|--------|--------|--------|--------|


E|--------|--------|--------|--------|--------|--------|--------|--------|--------|
B|--------|--------|--------|--------|--------|--------|--------|--------|--------|
G|--------|--------|--------|--------|--------|--------|--------|--------|--------|
D|--------|--------|--------|--------|--------|--------|--------|--------|--------|
A|--------|--------|--------|--------|--------|--------|--------|--------|--------|
E|--------|--------|--------|--------|--------|--------|--------|--------|--------|


E|--------|--------|--------|--------|--------|--------|--------|--------|--------|
B|--------|--------|--------|--------|--------|--------|--------|--------|--------|
G|--------|--------|--------|--------|--------|--------|--------|--------|--------|
D|--------|--------|--------|--------|--------|--------|--------|--------|--------|
A|--------|--------|--------|--------|--------|--------|--------|--------|--------|
E|--------|--------|--------|--------|--------|--------|--------|--------|--------|


E|--------|--------|--------|
B|--------|--------|--------|
G|--------|--------|--------|
D|--------|--------|--------|
A|--------|--------|--------|
E|--------|--------|--------|





Track 7: Lead

E|--------|--------|--------|--------|--------|--------|--------|--------|--------|
B|--------|--------|--------|--------|--------|--------|--------|--------|--------|
G|--------|--------|--------|--------|--------|--------|--------|--------|--------|
D|--------|--------|--------|--------|--------|--------|--------|--------|--------|
A|--------|--------|--------|--------|--------|--------|--------|--------|--------|
E|--------|--------|--------|--------|--------|--------|--------|--------|--------|


E|--------|--------|--------|--------|--------|--------|--------|--------|--------|
B|--------|--------|--------|--------|--------|--------|--------|--------|--------|
G|--------|--------|--------|--------|--------|--------|--------|--------|--------|
D|--------|--------|--------|--------|--------|--------|--------|--------|--------|
A|--------|--------|--------|--------|--------|--------|--------|--------|--------|
E|--------|--------|--------|--------|--------|--------|--------|--------|--------|


E|--------|--------|--------|--------|--------|--------|--------|--------|--------|
B|--------|--------|--------|--------|--------|--------|--------|--------|--------|
G|--------|--------|--------|--------|--------|--------|--------|--------|--------|
D|--------|--------|--------|--------|--------|--------|--------|--------|--------|
A|--------|--------|--------|--------|--------|--------|--------|--------|--------|
E|--------|--------|--------|--------|--------|--------|--------|--------|--------|


E|--------|--------|--------|--------|--------|--------|--------|--------|--------|
B|--------|--------|--------|--------|--------|--------|--------|--------|--------|
G|--------|--------|--------|--------|--------|--------|--------|--------|--------|
D|--------|--------|--------|--------|--------|--------|--------|--------|--------|
A|--------|--------|--------|--------|--------|--------|--------|--------|--------|
E|--------|--------|--------|--------|--------|--------|--------|--------|--------|


E|--------|--------|--------|--------|--------|--------|--------|--------|--------|
B|--------|--------|--------|--------|--------|--------|--------|--------|--------|
G|--------|--------|--------|--------|--------|--------|--------|--------|--------|
D|--------|--------|--------|--------|--------|--------|--------|--------|--------|
A|--------|--------|--------|--------|--------|--------|--------|--------|--------|
E|--------|--------|--------|--------|--------|--------|--------|--------|--------|


E|--------|--------|--------|--------|--------|--------|--------|--------|--------|
B|--------|--------|--------|--------|--------|--------|--------|--------|--------|
G|--------|--------|--------|--------|--------|--------|--------|--------|--------|
D|--------|--------|--------|--------|--------|--------|--------|--------|--------|
A|--------|--------|--------|--------|--------|--------|--------|--------|--------|
E|--------|--------|--------|--------|--------|--------|--------|--------|--------|


E|--------|--------|--------|--------|--------|--------|--------|--------|--------|
B|--------|--------|--------|--------|--------|--------|--------|--------|--------|
G|--------|--------|--------|--------|--------|--------|--------|--------|--------|
D|--------|--------|--------|--------|--------|--------|--------|--------|--------|
A|--------|--------|--------|--------|--------|--------|--------|--------|--------|
E|--------|--------|--------|--------|--------|--------|--------|--------|--------|


E|--------|--------|--------|--------|--------|--------|--------|--------|--------|
B|--------|--------|--------|--------|--------|--------|--------|--------|--------|
G|--------|--------|--------|--------|--------|--------|--------|--------|--------|
D|--------|--------|--------|--------|--------|--------|--------|--------|--------|
A|--------|--------|--------|--------|--------|--------|--------|--------|--------|
E|--------|--------|--------|--------|--------|--------|--------|--------|--------|


E|--------|--------|--------|--------|--------|--------|--------|--------|--------|
B|--------|--------|--------|--------|--------|--------|--------|--------|--------|
G|--------|--------|--------|--------|--------|--------|--------|--------|--------|
D|--------|--------|--------|--------|--------|--------|--------|--------|--------|
A|--------|--------|--------|--------|--------|--------|--------|--------|--------|
E|--------|--------|--------|--------|--------|--------|--------|--------|--------|


E|--------|--------|--------|--------|--------|--------|--------|--------|-----------------|
B|--------|--------|--------|--------|--------|--------|--------|--------|-----------------|
G|--------|--------|--------|--------|--------|--------|--------|--------|-----------------|
D|--------|--------|--------|--------|--------|--------|--------|--------|-------12--------|
A|--------|--------|--------|--------|--------|--------|--------|--------|-12--------------|
E|--------|--------|--------|--------|--------|--------|--------|--------|-----------------|


E|--------|--------|-------------|-----------------|-----------------|-----------------|
B|--------|--------|-------------|-----------------|-----------------|-----------------|
G|--------|--------|-------------|-----------------|-----------------|-----------------|
D|--------|--------|-------------|------------12---|------------10---|------------8----|
A|--------|--------|-------------|-12--------------|-----------------|-----------------|
E|--------|--------|-------12----|-------10--------|-----------------|-----------------|


E|--------|--------|--------|--------|--------|--------|--------|--------|--------|
B|--------|--------|--------|--------|--------|--------|--------|--------|--------|
G|--------|--------|--------|--------|--------|--------|--------|--------|--------|
D|--------|--------|--------|--------|--------|--------|--------|--------|--------|
A|--------|--------|--------|--------|--------|--------|--------|--------|--------|
E|--------|--------|--------|--------|--------|--------|--------|--------|--------|


E|--------|--------|--------|--------|--------|--------|--------|--------|--------|
B|--------|--------|--------|--------|--------|--------|--------|--------|--------|
G|--------|--------|--------|--------|--------|--------|--------|--------|--------|
D|--------|--------|--------|--------|--------|--------|--------|--------|--------|
A|--------|--------|--------|--------|--------|--------|--------|--------|--------|
E|--------|--------|--------|--------|--------|--------|--------|--------|--------|


E|--------|--------|--------|--------|--------|--------|--------|--------|--------|
B|--------|--------|--------|--------|--------|--------|--------|--------|--------|
G|--------|--------|--------|--------|--------|--------|--------|--------|--------|
D|--------|--------|--------|--------|--------|--------|--------|--------|--------|
A|--------|--------|--------|--------|--------|--------|--------|--------|--------|
E|--------|--------|--------|--------|--------|--------|--------|--------|--------|


E|--------|--------|--------|--------|--------|--------|--------|--------|--------|
B|--------|--------|--------|--------|--------|--------|--------|--------|--------|
G|--------|--------|--------|--------|--------|--------|--------|--------|--------|
D|--------|--------|--------|--------|--------|--------|--------|--------|--------|
A|--------|--------|--------|--------|--------|--------|--------|--------|--------|
E|--------|--------|--------|--------|--------|--------|--------|--------|--------|


E|--------|--------|--------|--------|--------|--------|--------|--------|--------|
B|--------|--------|--------|--------|--------|--------|--------|--------|--------|
G|--------|--------|--------|--------|--------|--------|--------|--------|--------|
D|--------|--------|--------|--------|--------|--------|--------|--------|--------|
A|--------|--------|--------|--------|--------|--------|--------|--------|--------|
E|--------|--------|--------|--------|--------|--------|--------|--------|--------|


E|--------|--------|--------|--------|--------|--------|
B|--------|--------|--------|--------|--------|--------|
G|--------|--------|--------|--------|--------|--------|
D|--------|--------|--------|--------|--------|--------|
A|--------|--------|--------|--------|--------|--------|
E|--------|--------|--------|--------|--------|--------|