Site menu:

    

Browse: 0-9 A B C D E F G H I J K L N O P Q R S T U V W X Y Z

wham - careless whisper:



Title: Careless Whisper
Artist: 
Album: Careless Whisper
Author: Wham


Track 1: Piano Arreglo Para Guitarra

E|-5-----5-----|-5-----5-----|-1-----1-----|-0-----0-----|-5-----5-----|-5-----5-----|
B|-6-----6-----|-6-----6-----|-3-----3-----|-1-----1-----|-6-----6-----|-6-----6-----|
G|-7-----7-----|-7-----7-----|-3-----3-----|-2-----2-----|-7-----7-----|-7-----7-----|
D|-0-----0-----|-------------|-------------|-------------|-0-----0-----|-------------|
A|-------------|-------------|-------------|-0-----0-----|-------------|-------------|
E|-------------|-6-----6-----|-3-----3-----|-------------|-------------|-6-----6-----|


E|-1-----1-----|-0-----0-----|-5------|-1-----------|-5------|-3-----3-----|-5------|
B|-3-----3-----|-1-----1-----|-6------|-3-----------|-6------|-5-----5-----|-6------|
G|-3-----3-----|-2-----2-----|-7------|-3-----------|-7------|-5-----5-----|-7------|
D|-------------|-------------|-0------|-------------|--------|-------------|-0------|
A|-------------|-0-----0-----|--------|--------0----|--------|-------------|--------|
E|-3-----3-----|-------------|--------|-3-----------|-6------|-5-----5-----|--------|


E|-1-----------|-5------|-3-----3-----|-5------|-1-----------|-5------|-3-----3-----|
B|-3-----------|-6------|-5-----5-----|-6------|-3------1----|-6------|-5-----5-----|
G|-3-----------|-7------|-5-----5-----|-7------|-3------2----|-7------|-5-----5-----|
D|-------------|--------|-------------|-0------|-------------|--------|-------------|
A|--------0----|--------|-------------|--------|--------0----|--------|-------------|
E|-3-----------|-6------|-5-----5-----|--------|-3-----------|-6------|-5-----5-----|


E|-5------|-1-----------|-5------|-3-----3-----|-5------|-1-----------|-5------|-3-----3-----|
B|-6------|-3------1----|-6------|-5-----5-----|-6------|-3-----------|-6------|-5-----5-----|
G|-7------|-3------2----|-7------|-5-----5-----|-7------|-3-----------|-7------|-5-----5-----|
D|-0------|-------------|--------|-------------|-0------|-------------|--------|-------------|
A|--------|--------0----|--------|-------------|--------|--------0----|--------|-------------|
E|--------|-3-----------|-6------|-5-----5-----|--------|-3-----------|-6------|-5-----5-----|


E|-5-----5-----|-1-----1----0----|-1-----1-----|-3------|-5-----5----5----|-1-----1----0----|
B|-6-----6-----|-3-----3----1----|-3-----3-----|-5------|-6-----6----6----|-3-----3----1----|
G|-7-----7-----|-3-----3----2----|-3-----3-----|-5------|-7-----7----7----|-3-----3----2----|
D|-0-----0-----|-5-----5---------|-------------|--------|-0-----0----0----|-----------------|
A|-------------|------------0----|-1-----1-----|--------|-----------------|------------0----|
E|-------------|-3-----3---------|-------------|-5------|-----------------|-3-----3---------|


E|-5-----5----5----|-3-----3----3----|-5-----5----5----|-1-----1----0----|-5-----5----5----|
B|-6-----6----6----|-5-----5----5----|-6-----6----6----|-3-----3----1----|-6-----6----6----|
G|-7-----7----7----|-5-----5----5----|-7-----7----7----|-3-----3----2----|-7-----7----7----|
D|-----------------|-----------------|-0-----0----0----|-----------------|-----------------|
A|-----------------|-----------------|-----------------|------------0----|-----------------|
E|-6-----6----6----|-5-----5----5----|-----------------|-3-----3---------|-6-----6----6----|


E|-3------|-5------|-1-----------|-5------|-3-----3-----|-5------|-1-----1-----|-5------|
B|-5------|-6------|-3-----------|-6------|-5-----5-----|-6------|-3-----3-----|-6------|
G|-5------|-7------|-3-----------|-7------|-5-----5-----|-7------|-3-----3-----|-7------|
D|--------|-0------|-------------|--------|-------------|-0------|-------------|--------|
A|--------|--------|--------0----|--------|-------------|--------|-------------|--------|
E|-5------|--------|-3-----------|-6------|-5-----5-----|--------|-3-----3-----|-6------|


E|-3-----3-----|-5------|-1-----------|-5------|-3-----3-----|-5------|-1-----1----12---|
B|-5-----5-----|-6------|-3-----------|-6------|-5-----5-----|-6------|-3-----3----13---|
G|-5-----5-----|-7------|-3-----------|-7------|-5-----5-----|-7------|-3-----3----14---|
D|-------------|-0------|-------------|--------|-------------|-0------|-----------------|
A|-------------|--------|--------0----|--------|-------------|--------|------------0----|
E|-5-----5-----|--------|-3-----------|-6------|-5-----5-----|--------|-3-----3---------|


E|-------------17--|-15----15---15---|-10----10----|--------12---|--------|-12-----|
B|-------------18--|-17----17---17---|-10----10----|--------13---|--------|-13-----|
G|-------------19--|-17----17---17---|-10----10----|--------14---|--------|-14-----|
D|-----------------|-----------------|-------------|-------------|--------|--------|
A|-1-----1---------|-0-----0----0----|-------------|--------0----|-1------|-0------|
E|-----------------|-----------------|-10----10----|-3-----------|--------|--------|


E|-5-----5-----|-1-----1----0----|-1------|-3------|-5-----5-----|-1-----1----0----|
B|-6-----6-----|-3-----3----1----|-3------|-5------|-6-----6-----|-3-----3----1----|
G|-7-----7-----|-3-----3----2----|-3------|-5------|-7-----7-----|-3-----3----2----|
D|-0-----0-----|-5-----5---------|--------|--------|-0-----0-----|-5-----5---------|
A|-------------|------------0----|-1------|--------|-------------|------------0----|
E|-------------|-3-----3---------|--------|-5------|-------------|-3-----3---------|


E|-1------|-3-----3---------|-10----10----|-6-----------|-5------|-3------|-10----10----|
B|-3------|-5-----5-----13--|-10----10----|-6-----------|-6------|-5------|-10----10----|
G|-3------|-5-----5-----12--|-10----10----|-7-----------|-7------|-5------|-10----10----|
D|--------|-------------14--|-------------|-------------|--------|--------|-------------|
A|-1------|-------------0---|-------------|--------0----|--------|--------|-------------|
E|--------|-5-----5---------|-10----10----|-3-----------|-6------|-5------|-10----10----|


E|-6-----6----8----|-10-----|-8-----8-----|-5-----5----8----|-6----------8---|-5-----5-----|
B|-6-----6----8----|-10-----|-8-----8-----|-6-----6----10---|-6----------10--|-6-----6-----|
G|-7-----7----9----|-10-----|-9-----9-----|-7-----7----10---|-7----------9---|-7-----7-----|
D|-----------------|--------|-------------|------------12---|----------------|-------------|
A|------------0----|--------|-0-----0-----|-5-----5---------|------------0---|-------------|
E|-3-----3---------|-6------|-------------|------------10---|-3--------------|-6-----6-----|


E|-3------|-5-----5----8----|-6----------8---|-5-----5-----|-3------|-5------|-1-----1-----|
B|-5------|-6-----6----10---|-6----------10--|-6-----6-----|-5------|-6------|-3-----3-----|
G|-5------|-7-----7----10---|-7----------9---|-7-----7-----|-5------|-7------|-3-----3-----|
D|--------|-0-----0----12---|----------------|-------------|--------|-0------|-------------|
A|--------|-----------------|------------0---|-------------|--------|--------|-------------|
E|-5------|------------10---|-3--------------|-6-----6-----|-5------|--------|-3-----3-----|


E|-5------|-3------|-5-----17----|-1-----1----0----|-1-----13----|-12-----|-5------|
B|-6------|-5------|-6-----18----|-3-----3----1----|-3-----15----|-13-----|-6------|
G|-7------|-5------|-7-----19----|-3-----3----2----|-3-----15----|-12-----|-7------|
D|--------|--------|-0-----------|-----------------|-------------|--------|--------|
A|--------|--------|-------------|-----------------|-------------|-12-----|-5------|
E|-6------|-5------|-------------|-----------------|-------------|--------|--------|


E|-1-----1----3----|-5-----17----|-3------|-5------17---|-1-----1-----|-5-----5-----|
B|-3-----3----5----|-6-----15----|-5------|-6------15---|-3-----3-----|-6-----6-----|
G|-3-----3----5----|-7-----14----|-5------|-7-----------|-3-----3-----|-7-----7-----|
D|-----------------|-------------|-7------|-0-----------|-5-----5-----|-8-----8-----|
A|-----------------|-------------|-0------|-------------|-------------|-------------|
E|-3-----3----5----|-6-----------|--------|-------------|-------------|-6-----6-----|


E|-3------12---|-13-----17---|-1-----1-----|-5-----5-----|-3------12---|-5------17---|
B|-5------13---|-15-----15---|-3-----3-----|-6-----6-----|-5------13---|-6------15---|
G|-5------12---|-14----------|-3-----3-----|-7-----7-----|-5------12---|-7-----------|
D|-7-----------|-0-----------|-5-----5-----|-8-----8-----|-7-----------|-0-----------|
A|-0-----------|-17----------|-------------|-------------|-0-----------|-------------|
E|-------------|-------------|-------------|-6-----6-----|-------------|-------------|


E|-1-----1-----|-5-----5-----|-3------12---|-13-----17---|-1-----1-----|-5-----5-----|
B|-3-----3-----|-6-----6-----|-5------13---|-15-----15---|-3-----3-----|-6-----6-----|
G|-3-----3-----|-7-----7-----|-5------12---|-14----------|-3-----3-----|-7-----7-----|
D|-5-----5-----|-8-----8-----|-7-----------|-0-----------|-5-----5-----|-8-----8-----|
A|-------------|-------------|-0-----------|-17----------|-------------|-------------|
E|-------------|-6-----6-----|-------------|-------------|-------------|-6-----6-----|


E|-3------12---|--------|--------------------|
B|-5------13---|--------|--------------------|
G|-5------12---|-14-----|-14-----------------|
D|-7-----------|--------|--------------------|
A|-0-----------|--------|--------------------|
E|-------------|--------|--------------------|





Track 2: Guitarra Acustica (Nylon Guitar)      

E|--------|--------|--------|--------|---------------------------|---------------------------|
B|--------|--------|--------|--------|-----------3--5--6---8--10-|-10---8--6----6------------|
G|--------|--------|--------|--------|---------------------------|---------7----7------------|
D|--------|--------|--------|--------|---------------------------|---------------------------|
A|--------|--------|--------|--------|---------------------------|---------------------------|
E|--------|--------|--------|--------|---------------------------|---------------------------|


E|-----------------------------------------------|--------------------------------------|
B|-10----6-----8-----6-----8-----6-----8-----6---|-----3--5--1----1---------------------|
G|-10----7-----9-----7-----9-----7-----9-----7---|-----3--5--2----2------------------5--|
D|-----------------------------------------------|--------------------3--5--7--5--7-----|
A|-----------------------------------------------|--------------------------------------|
E|-----------------------------------------------|--------------------------------------|


E|--------|--------|--------|--------|--------|--------|--------|--------|--------|
B|--------|--------|--------|--------|--------|--------|--------|--------|--------|
G|--------|--------|--------|--------|--------|--------|--------|--------|--------|
D|--------|--------|--------|--------|--------|--------|--------|--------|--------|
A|--------|--------|--------|--------|--------|--------|--------|--------|--------|
E|--------|--------|--------|--------|--------|--------|--------|--------|--------|


E|--------|--------|--------|--------|--------|--------|--------|--------|--------|
B|--------|--------|--------|--------|--------|--------|--------|--------|--------|
G|--------|--------|--------|--------|--------|--------|--------|--------|--------|
D|--------|--------|--------|--------|--------|--------|--------|--------|--------|
A|--------|--------|--------|--------|--------|--------|--------|--------|--------|
E|--------|--------|--------|--------|--------|--------|--------|--------|--------|


E|--------|--------|--------|--------|--------|--------|--------|--------|--------|
B|--------|--------|--------|--------|--------|--------|--------|--------|--------|
G|--------|--------|--------|--------|--------|--------|--------|--------|--------|
D|--------|--------|--------|--------|--------|--------|--------|--------|--------|
A|--------|--------|--------|--------|--------|--------|--------|--------|--------|
E|--------|--------|--------|--------|--------|--------|--------|--------|--------|


E|--------|--------|--------|--------|--------|--------------------|--------------------------|
B|--------|--------|--------|--------|--------|--------------------|--------------------------|
G|--------|--------|--------|--------|--------|----------------10--|-9----10-9------------10--|
D|--------|--------|--------|--------|--------|--------------------|------------8---8---------|
A|--------|--------|--------|--------|--------|--------------------|--------------------------|
E|--------|--------|--------|--------|--------|--------------------|--------------------------|


E|--------------------------10--|-12---13---------------------|--------|--------|--------|
B|----------8---8---10--10------|----------15--15-------------|--------|--------|--------|
G|-9----10----------------------|-----------------------------|--------|--------|--------|
D|------------------------------|-----------------------10----|--------|--------|--------|
A|------------------------------|-------------------12--------|--------|--------|--------|
E|------------------------------|-----------------------------|--------|--------|--------|


E|--------|---------------------------|----------------------|-----------------------------------------------|
B|--------|-----------3--5--6---8--10-|-10---10--------------|-10----6-----8-----6-----8-----6-----8-----6---|
G|--------|---------------------------|----------------------|-10----7-----9-----7-----9-----7-----9-----7---|
D|--------|---------------------------|----------------------|-----------------------------------------------|
A|--------|---------------------------|----------------------|-----------------------------------------------|
E|--------|---------------------------|----------------------|-----------------------------------------------|


E|--------------------------------------|---------10----8----|-6------12---|-13----13---13----13-15-|
B|-----3--5--1----1---------------------|---------13---------|-8------13---|-15----15---15----15-17-|
G|-----3--5--2----2------------------5--|-7----10-14---------|-------------|------------------------|
D|--------------------3--5--7--5--7-----|--------------------|-------------|------------------------|
A|--------------------------------------|--------------------|-------------|------------------------|
E|--------------------------------------|--------------------|-------------|------------------------|


E|-12----12--------------------|------------------------------------|----------------------------|
B|-13----13-----------------1--|-3----------------------------------|----------------------------|
G|-----------------0-----2-----|-----2------2-----------------------|----------------------------|
D|-----------0--2-----3--------|------------------3--5---7----------|----------5--7--5-----------|
A|-----------------------------|------------------------------------|-------------------------3--|
E|-----------------------------|------------------------------------|----------------------------|


E|----------------------|-----------------|--------|--------|--------|--------|--------|
B|----------------------|-----------------|--------|--------|--------|--------|--------|
G|----------------------|-----------------|--------|--------|--------|--------|--------|
D|----------------------|-----------------|--------|--------|--------|--------|--------|
A|-1-----1----1---------|-0-----0---------|--------|--------|--------|--------|--------|
E|----------------------|-----------------|--------|--------|--------|--------|--------|


E|--------|--------|--------|--------|--------|--------|--------|---------------------------------------|
B|--------|--------|--------|--------|--------|--------|--------|-----3-------------3--1-----1------1---|
G|--------|--------|--------|--------|--------|--------|--------|------------5------------2------2------|
D|--------|--------|--------|--------|--------|--------|--------|---------------------------------------|
A|--------|--------|--------|--------|--------|--------|--------|---------------------------------------|
E|--------|--------|--------|--------|--------|--------|--------|---------------------------------------|


E|---------------------------------------|-------------------------|-------------------------------|
B|-----3------1------3--1-----1------1---|-10----11------10--3-----|-5-----5-----------------------|
G|-------------------------2------2------|-10----12------10--3-----|-5-----5--------------------5--|
D|---------------------------------------|-------------------------|-------------3--5--7--5--7-----|
A|---------------------------------------|-------------------------|-------------------------------|
E|---------------------------------------|-------------------------|-------------------------------|


E|---------10----8----|-6------12---|-13----13---13----13-15-|-12----12--------------------|
B|---------13---------|-8------13---|-15----15---15----15-17-|-13----13-----------------1--|
G|-7----10-14---------|-------------|------------------------|-----------------0-----2-----|
D|--------------------|-------------|------------------------|-----------0--2-----3--------|
A|--------------------|-------------|------------------------|-----------------------------|
E|--------------------|-------------|------------------------|-----------------------------|


E|----------------------------------|----------------------------|--------------------|
B|-3--------------------------------|----------------------------|--------------------|
G|-----2------2---------------------|----------------------------|--------------------|
D|------------------3--5---7--------|----------5--7--5-----------|--------------------|
A|----------------------------------|-------------------------3--|-1-----1----1-------|
E|----------------------------------|----------------------------|--------------------|


E|-----------------|--------|--------|--------|--------|--------|--------|--------|
B|-----------------|--------|--------|--------|--------|--------|--------|--------|
G|-----------------|--------|--------|--------|--------|--------|--------|--------|
D|-----------------|--------|--------|--------|--------|--------|--------|--------|
A|-0-----0---------|--------|--------|--------|--------|--------|--------|--------|
E|-----------------|--------|--------|--------|--------|--------|--------|--------|


E|--------|--------|--------|--------|--------|-----3------1-----1--3---1-----3---1-----|
B|--------|--------|--------|--------|--------|-----5------3-----3--5---3-----5---3-----|
G|--------|--------|--------|--------|--------|-----------------------------------------|
D|--------|--------|--------|--------|--------|-----------------------------------------|
A|--------|--------|--------|--------|--------|-----------------------------------------|
E|--------|--------|--------|--------|--------|-----------------------------------------|


E|-----3------1-----1--3---1-----3---1-----|-----3------1-----1--3---1-----3---1-----|
B|-----5------3-----3--5---3-----5---3-----|-----5------3-----3--5---3-----5---3-----|
G|-----------------------------------------|-----------------------------------------|
D|-----------------------------------------|-----------------------------------------|
A|-----------------------------------------|-----------------------------------------|
E|-----------------------------------------|-----------------------------------------|


E|----------8------------------|-----3------1-----1--3---1-----3---1-----|-----3------1-----1--3---1-----3---1-----|
B|-------10-10----8------------|-----5------3-----3--5---3-----5---3-----|-----5------3-----3--5---3-----5---3-----|
G|-------------9--9------------|-----------------------------------------|-----------------------------------------|
D|----------------------12-----|-----------------------------------------|-----------------------------------------|
A|-------------------15-15-12--|-----------------------------------------|-----------------------------------------|
E|-----------------------------|-----------------------------------------|-----------------------------------------|


E|-----3------1-----1--3---1-----3---1-----|----------8------------------|-----3------1-----1--3---1-----3---1-----|
B|-----5------3-----3--5---3-----5---3-----|-------10-10----8------------|-----5------3-----3--5---3-----5---3-----|
G|-----------------------------------------|-------------9--9------------|-----------------------------------------|
D|-----------------------------------------|----------------------12-----|-----------------------------------------|
A|-----------------------------------------|-------------------15-15-12--|-----------------------------------------|
E|-----------------------------------------|-----------------------------|-----------------------------------------|


E|-----3------1-----1--3---1-----3---1-----|-----3------1-----1--3---1-----3---1-----|
B|-----5------3-----3--5---3-----5---3-----|-----5------3-----3--5---3-----5---3-----|
G|-----------------------------------------|-----------------------------------------|
D|-----------------------------------------|-----------------------------------------|
A|-----------------------------------------|-----------------------------------------|
E|-----------------------------------------|-----------------------------------------|


E|----------8------------------|-----3------1-----1--3---1-----3---1-----|-----3------1-----1--3---1-----3---1-----|
B|-------10-10----8------------|-----5------3-----3--5---3-----5---3-----|-----5------3-----3--5---3-----5---3-----|
G|-------------9--9------------|-----------------------------------------|-----------------------------------------|
D|----------------------12-----|-----------------------------------------|-----------------------------------------|
A|-------------------15-15-12--|-----------------------------------------|-----------------------------------------|
E|-----------------------------|-----------------------------------------|-----------------------------------------|


E|-----3------1-----1--3---1-----3---1-----|----------8------------------|-------------|
B|-----5------3-----3--5---3-----5---3-----|-------10-10----8------------|-------------|
G|-----------------------------------------|-------------9--9------------|-------------|
D|-----------------------------------------|----------------------12-----|-------------|
A|-----------------------------------------|-------------------15-15-12--|-------------|
E|-----------------------------------------|-----------------------------|-10----10----|


E|--------|
B|--------|
G|--------|
D|--------|
A|--------|
E|--------|





Track 3: Piano Arreglo Para Guitarra

E|--------|--------|--------|--------|--------|--------|--------|--------|---------10---10---10------|
B|--------|--------|--------|--------|--------|--------|--------|--------|---------13---13---13------|
G|--------|--------|--------|--------|--------|--------|--------|--------|-7----10-14---14---14------|
D|--------|--------|--------|--------|--------|--------|--------|--------|---------------------------|
A|--------|--------|--------|--------|--------|--------|--------|--------|---------------------------|
E|--------|--------|--------|--------|--------|--------|--------|--------|---------------------------|


E|--------|--------|--------|--------|--------|--------|--------|--------|--------|
B|--------|--------|--------|--------|--------|--------|--------|--------|--------|
G|--------|--------|--------|--------|--------|--------|--------|--------|--------|
D|--------|--------|--------|--------|--------|--------|--------|--------|--------|
A|--------|--------|--------|--------|--------|--------|--------|--------|--------|
E|--------|--------|--------|--------|--------|--------|--------|--------|--------|


E|--------|--------|--------|--------|--------|--------|--------|--------|--------|
B|--------|--------|--------|--------|--------|--------|--------|--------|--------|
G|--------|--------|--------|--------|--------|--------|--------|--------|--------|
D|--------|--------|--------|--------|--------|--------|--------|--------|--------|
A|--------|--------|--------|--------|--------|--------|--------|--------|--------|
E|--------|--------|--------|--------|--------|--------|--------|--------|--------|


E|--------|--------|--------|--------|--------|--------|--------|--------|--------|
B|--------|--------|--------|--------|--------|--------|--------|--------|--------|
G|--------|--------|--------|--------|--------|--------|--------|--------|--------|
D|--------|--------|--------|--------|--------|--------|--------|--------|--------|
A|--------|--------|--------|--------|--------|--------|--------|--------|--------|
E|--------|--------|--------|--------|--------|--------|--------|--------|--------|


E|--------|--------|--------|--------|--------|--------|--------|--------|--------|
B|--------|--------|--------|--------|--------|--------|--------|--------|--------|
G|--------|--------|--------|--------|--------|--------|--------|--------|--------|
D|--------|--------|--------|--------|--------|--------|--------|--------|--------|
A|--------|--------|--------|--------|--------|--------|--------|--------|--------|
E|--------|--------|--------|--------|--------|--------|--------|--------|--------|


E|--------|--------|--------|--------|--------|--------|--------|--------|--------|
B|--------|--------|--------|--------|--------|--------|--------|--------|--------|
G|--------|--------|--------|--------|--------|--------|--------|--------|--------|
D|--------|--------|--------|--------|--------|--------|--------|--------|--------|
A|--------|--------|--------|--------|--------|--------|--------|--------|--------|
E|--------|--------|--------|--------|--------|--------|--------|--------|--------|


E|--------|--------|--------|--------|--------|--------|--------|--------|--------|
B|--------|--------|--------|--------|--------|--------|--------|--------|--------|
G|--------|--------|--------|--------|--------|--------|--------|--------|--------|
D|--------|--------|--------|--------|--------|--------|--------|--------|--------|
A|--------|--------|--------|--------|--------|--------|--------|--------|--------|
E|--------|--------|--------|--------|--------|--------|--------|--------|--------|


E|--------|--------|--------|--------|--------|--------|--------|--------|--------|
B|--------|--------|--------|--------|--------|--------|--------|--------|--------|
G|--------|--------|--------|--------|--------|--------|--------|--------|--------|
D|--------|--------|--------|--------|--------|--------|--------|--------|--------|
A|--------|--------|--------|--------|--------|--------|--------|--------|--------|
E|--------|--------|--------|--------|--------|--------|--------|--------|--------|


E|--------|--------|--------|--------|--------|--------|--------|--------|--------|
B|--------|--------|--------|--------|--------|--------|--------|--------|--------|
G|--------|--------|--------|--------|--------|--------|--------|--------|--------|
D|--------|--------|--------|--------|--------|--------|--------|--------|--------|
A|--------|--------|--------|--------|--------|--------|--------|--------|--------|
E|--------|--------|--------|--------|--------|--------|--------|--------|--------|


E|--------|--------|--------|--------|--------|--------|--------|--------|--------|
B|--------|--------|--------|--------|--------|--------|--------|--------|--------|
G|--------|--------|--------|--------|--------|--------|--------|--------|--------|
D|--------|--------|--------|--------|--------|--------|--------|--------|--------|
A|--------|--------|--------|--------|--------|--------|--------|--------|--------|
E|--------|--------|--------|--------|--------|--------|--------|--------|--------|


E|--------|--------|--------|--------|--------|--------|--------|--------|--------|
B|--------|--------|--------|--------|--------|--------|--------|--------|--------|
G|--------|--------|--------|--------|--------|--------|--------|--------|--------|
D|--------|--------|--------|--------|--------|--------|--------|--------|--------|
A|--------|--------|--------|--------|--------|--------|--------|--------|--------|
E|--------|--------|--------|--------|--------|--------|--------|--------|--------|


E|--------|--------|--------|--------|--------|--------|--------|--------|--------|
B|--------|--------|--------|--------|--------|--------|--------|--------|--------|
G|--------|--------|--------|--------|--------|--------|--------|--------|--------|
D|--------|--------|--------|--------|--------|--------|--------|--------|--------|
A|--------|--------|--------|--------|--------|--------|--------|--------|--------|
E|--------|--------|--------|--------|--------|--------|--------|--------|--------|


E|--------|--------|--------|--------|--------|--------|
B|--------|--------|--------|--------|--------|--------|
G|--------|--------|--------|--------|--------|--------|
D|--------|--------|--------|--------|--------|--------|
A|--------|--------|--------|--------|--------|--------|
E|--------|--------|--------|--------|--------|--------|





Track 4: Tenor Sax           

E|--------|--------|--------|--------|--------|--------|--------|--------|--------|
B|--------|--------|--------|--------|--------|--------|--------|--------|--------|
G|--------|--------|--------|--------|--------|--------|--------|--------|--------|
D|--------|--------|--------|--------|--------|--------|--------|--------|--------|
A|--------|--------|--------|--------|--------|--------|--------|--------|--------|
E|--------|--------|--------|--------|--------|--------|--------|--------|--------|


E|--------|--------|--------|--------|--------|--------|----------------------|-11--10-----------12-12--10------------|
B|--------|--------|--------|--------|--------|--------|----------------5--10-|--------10-10---------------10-10------|
G|--------|--------|--------|--------|--------|--------|----------------------|--------------10------------------10---|
D|--------|--------|--------|--------|--------|--------|----------------------|---------------------------------------|
A|--------|--------|--------|--------|--------|--------|----------------------|---------------------------------------|
E|--------|--------|--------|--------|--------|--------|----------------------|---------------------------------------|


E|-7---6------------8--8---6----------|-6---5---------------------|-----------------------------------|
B|--------6--6----------------6--6----|--------6--6---------------|-------------------------8---10----|
G|--------------7---------------------|--------------7------------|-------------7---9---10------------|
D|------------------------------------|------------------8--8-----|-7---8---10---------------------12-|
A|------------------------------------|---------------------------|-----------------------------------|
E|------------------------------------|---------------------------|-----------------------------------|


E|-11--10-----------12-12--10------------|-7---6------------8--8---6----------|-6---5---------------------|
B|--------10-10---------------10-10------|--------6--6----------------6--6----|--------6--6---------------|
G|--------------10------------------10---|--------------7---------------------|--------------7------------|
D|---------------------------------------|------------------------------------|------------------8--8-----|
A|---------------------------------------|------------------------------------|---------------------------|
E|---------------------------------------|------------------------------------|---------------------------|


E|---------------------------------|--------------------|--------|--------|--------|
B|-------------------------8---10--|--------------------|--------|--------|--------|
G|-------------7---9---10----------|--------------------|--------|--------|--------|
D|-7---8---10----------------------|-12---12------------|--------|--------|--------|
A|---------------------------------|--------------------|--------|--------|--------|
E|---------------------------------|--------------------|--------|--------|--------|


E|--------|--------|--------|--------|--------|--------|--------|--------|--------|
B|--------|--------|--------|--------|--------|--------|--------|--------|--------|
G|--------|--------|--------|--------|--------|--------|--------|--------|--------|
D|--------|--------|--------|--------|--------|--------|--------|--------|--------|
A|--------|--------|--------|--------|--------|--------|--------|--------|--------|
E|--------|--------|--------|--------|--------|--------|--------|--------|--------|


E|--------|--------|--------|--------|--------|--------|--------|--------|--------|
B|--------|--------|--------|--------|--------|--------|--------|--------|--------|
G|--------|--------|--------|--------|--------|--------|--------|--------|--------|
D|--------|--------|--------|--------|--------|--------|--------|--------|--------|
A|--------|--------|--------|--------|--------|--------|--------|--------|--------|
E|--------|--------|--------|--------|--------|--------|--------|--------|--------|


E|--------|--------|--------|--------|--------|--------|--------|--------|--------|
B|--------|--------|--------|--------|--------|--------|--------|--------|--------|
G|--------|--------|--------|--------|--------|--------|--------|--------|--------|
D|--------|--------|--------|--------|--------|--------|--------|--------|--------|
A|--------|--------|--------|--------|--------|--------|--------|--------|--------|
E|--------|--------|--------|--------|--------|--------|--------|--------|--------|


E|--------|--------|--------|--------|--------|-11--10-----------12-12--10------------|
B|--------|--------|--------|--------|--------|--------10-10---------------10-10------|
G|--------|--------|--------|--------|--------|--------------10------------------10---|
D|--------|--------|--------|--------|--------|---------------------------------------|
A|--------|--------|--------|--------|--------|---------------------------------------|
E|--------|--------|--------|--------|--------|---------------------------------------|


E|-7---6------------8--8---6----------|-6---5---------------------|---------------------------------|
B|--------6--6----------------6--6----|--------6--6---------------|-------------------------8---10--|
G|--------------7---------------------|--------------7------------|-------------7---9---10----------|
D|------------------------------------|------------------8--8-----|-7---8---10----------------------|
A|------------------------------------|---------------------------|---------------------------------|
E|------------------------------------|---------------------------|---------------------------------|


E|-11--10-----------12-12--10------------|-7---6------------8--8---6----------|--------|
B|--------10-10---------------10-10------|--------6--6----------------6--6----|--------|
G|--------------10------------------10---|--------------7---------------------|--------|
D|---------------------------------------|------------------------------------|--------|
A|---------------------------------------|------------------------------------|--------|
E|---------------------------------------|------------------------------------|--------|


E|--------|--------|--------|--------|--------|--------|--------|--------|--------|
B|--------|--------|--------|--------|--------|--------|--------|--------|--------|
G|--------|--------|--------|--------|--------|--------|--------|--------|--------|
D|--------|--------|--------|--------|--------|--------|--------|--------|--------|
A|--------|--------|--------|--------|--------|--------|--------|--------|--------|
E|--------|--------|--------|--------|--------|--------|--------|--------|--------|


E|--------|--------|--------|--------|--------|--------|--------|--------|-11--10-----------12-12--10------------|
B|--------|--------|--------|--------|--------|--------|--------|--------|--------10-10---------------10-10------|
G|--------|--------|--------|--------|--------|--------|--------|--------|--------------10------------------10---|
D|--------|--------|--------|--------|--------|--------|--------|--------|---------------------------------------|
A|--------|--------|--------|--------|--------|--------|--------|--------|---------------------------------------|
E|--------|--------|--------|--------|--------|--------|--------|--------|---------------------------------------|


E|-7---6------------8--8---6----------|-6---5---------------------|--------|--------|
B|--------6--6----------------6--6----|--------6--6---------------|--------|--------|
G|--------------7---------------------|--------------7------------|--------|--------|
D|------------------------------------|------------------8--8-----|--------|--------|
A|------------------------------------|---------------------------|--------|--------|
E|------------------------------------|---------------------------|--------|--------|


E|--------|--------|--------|--------|--------|--------|--------|--------|--------|
B|--------|--------|--------|--------|--------|--------|--------|--------|--------|
G|--------|--------|--------|--------|--------|--------|--------|--------|--------|
D|--------|--------|--------|--------|--------|--------|--------|--------|--------|
A|--------|--------|--------|--------|--------|--------|--------|--------|--------|
E|--------|--------|--------|--------|--------|--------|--------|--------|--------|


E|--------|--------|--------|--------|--------|--------|--------|--------|--------|
B|--------|--------|--------|--------|--------|--------|--------|--------|--------|
G|--------|--------|--------|--------|--------|--------|--------|--------|--------|
D|--------|--------|--------|--------|--------|--------|--------|--------|--------|
A|--------|--------|--------|--------|--------|--------|--------|--------|--------|
E|--------|--------|--------|--------|--------|--------|--------|--------|--------|


E|--------|--------|--------|--------|--------|--------|--------|
B|--------|--------|--------|--------|--------|--------|--------|
G|--------|--------|--------|--------|--------|--------|--------|
D|--------|--------|--------|--------|--------|--------|--------|
A|--------|--------|--------|--------|--------|--------|--------|
E|--------|--------|--------|--------|--------|--------|--------|





Track 5: Guitarra Limpia (Clean Guitar)        

E|--------|--------|--------|--------|--------|--------|--------|--------|--------|
B|--------|--------|--------|--------|--------|--------|--------|--------|--------|
G|--------|--------|--------|--------|--------|--------|--------|--------|--------|
D|--------|--------|--------|--------|--------|--------|--------|--------|--------|
A|--------|--------|--------|--------|--------|--------|--------|--------|--------|
E|--------|--------|--------|--------|--------|--------|--------|--------|--------|


E|--------|--------|--------|--------|--------|--------|--------|-5---5------5------5------5------5---|
B|--------|--------|--------|--------|--------|--------|--------|-6---6------6------6------6------6---|
G|--------|--------|--------|--------|--------|--------|--------|-7---7------7------7------7------7---|
D|--------|--------|--------|--------|--------|--------|--------|-------------------------------------|
A|--------|--------|--------|--------|--------|--------|--------|-------------------------------------|
E|--------|--------|--------|--------|--------|--------|--------|-------------------------------------|


E|-------------------------------------|-------------------------------------|-------------------------------------|
B|-6---6------6------6------6------6---|-6---6------6------6------6------6---|-5---5------5------5------5------5---|
G|-7---7------7------7------7------5---|-7---7------7------7------7------7---|-5---5------5------5------5------5---|
D|-8---8------8------8------8------7---|-8---8------8------8------8------8---|-7---7------7------7------7------7---|
A|-------------------------------------|-------------------------------------|-------------------------------------|
E|-------------------------------------|-------------------------------------|-------------------------------------|


E|-5---5------5------5------5------5---|-------------------------------------|-------------------------------------|
B|-6---6------6------6------6------6---|-6---6------6------6------6------6---|-6---6------6------6------6------6---|
G|-7---7------7------7------7------7---|-7---7------7------7------7------5---|-7---7------7------7------7------7---|
D|-------------------------------------|-8---8------8------8------8------7---|-8---8------8------8------8------8---|
A|-------------------------------------|-------------------------------------|-------------------------------------|
E|-------------------------------------|-------------------------------------|-------------------------------------|


E|-------------------------------------|-----5------5------5------5------5--5--|---------------------------------------|
B|-5---5------5------5------5------5---|-----6------6------6------6------6--6--|-----6------6------6------6------6--6--|
G|-5---5------5------5------5------5---|-----7------7------7------7------7--7--|-----7------7------7------7------5--5--|
D|-7---7------7------7------7------7---|---------------------------------------|-----8------8------8------8------7--7--|
A|-------------------------------------|---------------------------------------|---------------------------------------|
E|-------------------------------------|---------------------------------------|---------------------------------------|


E|---------------------------------------|---------------------------------------|
B|-----6------6------6------6------6--6--|-----5------5------5------5------5--5--|
G|-----7------7------7------7------7--7--|-----5------5------5------5------5--5--|
D|-----8------8------8------8------8--8--|-----7------7------7------7------7--7--|
A|---------------------------------------|---------------------------------------|
E|---------------------------------------|---------------------------------------|


E|-----5------5------5------5------5--5--|---------------------------------------|
B|-----6------6------6------6------6--6--|-----6------6------6------6------6--6--|
G|-----7------7------7------7------7--7--|-----7------7------7------7------5--5--|
D|---------------------------------------|-----8------8------8------8------7--7--|
A|---------------------------------------|---------------------------------------|
E|---------------------------------------|---------------------------------------|


E|---------------------------------------|---------------------------------------|
B|-----6------6------6------6------6--6--|-----5------5------5------5------5--5--|
G|-----7------7------7------7------7--7--|-----5------5------5------5------5--5--|
D|-----8------8------8------8------8--8--|-----7------7------7------7------7--7--|
A|---------------------------------------|---------------------------------------|
E|---------------------------------------|---------------------------------------|


E|-----5------5------5------5------5--5--|---------------------------------------|
B|-----6------6------6------6------6--6--|-----6------6------6------6------6--6--|
G|-----7------7------7------7------7--7--|-----7------7------7------7------5--5--|
D|---------------------------------------|-----8------8------8------8------7--7--|
A|---------------------------------------|---------------------------------------|
E|---------------------------------------|---------------------------------------|


E|---------------------------------------|---------------------------------------|
B|-----6------6------6------6------6--6--|-----5------5------5------5------5--5--|
G|-----7------7------7------7------7--7--|-----5------5------5------5------5--5--|
D|-----8------8------8------8------8--8--|-----7------7------7------7------7--7--|
A|---------------------------------------|---------------------------------------|
E|---------------------------------------|---------------------------------------|


E|-----5------5------5------5------5--5--|---------------------------------------|
B|-----6------6------6------6------6--6--|-----6------6------6------6------6--6--|
G|-----7------7------7------7------7--7--|-----7------7------7------7------5--5--|
D|---------------------------------------|-----8------8------8------8------7--7--|
A|---------------------------------------|---------------------------------------|
E|---------------------------------------|---------------------------------------|


E|---------------------------------------|---------------------------------------|
B|-----6------6------6------6------6--6--|-----5------5------5------5------5--5--|
G|-----7------7------7------7------7--7--|-----5------5------5------5------5--5--|
D|-----8------8------8------8------8--8--|-----7------7------7------7------7--7--|
A|---------------------------------------|---------------------------------------|
E|---------------------------------------|---------------------------------------|


E|--------|--------|--------|--------------------|-----5------5------5------5------5--5--|
B|--------|--------|--------|--------------------|-3---6------6------6------6------6--6--|
G|--------|--------|--------|--------------------|-5----------7------7------7------7--7--|
D|--------|--------|--------|--------------------|---------------------------------------|
A|--------|--------|--------|--------------------|---------------------------------------|
E|--------|--------|--------|--------------------|---------------------------------------|


E|---------------------------------------|---------------------------------------|
B|-----6------6------6------6------6--6--|-----6------6------6------6------6--6--|
G|-----7------7------7------7------5--5--|-----7------7------7------7------7--7--|
D|-----8------8------8------8------7--7--|-----8------8------8------8------8--8--|
A|---------------------------------------|---------------------------------------|
E|---------------------------------------|---------------------------------------|


E|---------------------------------------|-----5------5------5------5------5--5--|
B|-----5------5------5------5------5--5--|-----6------6------6------6------6--6--|
G|-----5------5------5------5------5--5--|-----7------7------7------7------7--7--|
D|-----7------7------7------7------7--7--|---------------------------------------|
A|---------------------------------------|---------------------------------------|
E|---------------------------------------|---------------------------------------|


E|---------------------------------------|---------------------------------------|
B|-----6------6------6------6------6--6--|-----6------6------6------6------6--6--|
G|-----7------7------7------7------5--5--|-----7------7------7------7------7--7--|
D|-----8------8------8------8------7--7--|-----8------8------8------8------8--8--|
A|---------------------------------------|---------------------------------------|
E|---------------------------------------|---------------------------------------|


E|---------------------------------------|-----5------5------5------5------5--5--|
B|-----5------5------5------5------5--5--|-----6------6------6------6------6--6--|
G|-----5------5------5------5------5--5--|-----7------7------7------7------7--7--|
D|-----7------7------7------7------7--7--|---------------------------------------|
A|---------------------------------------|---------------------------------------|
E|---------------------------------------|---------------------------------------|


E|---------------------------------------|---------------------------------------|
B|-----6------6------6------6------6--6--|-----6------6------6------6------6--6--|
G|-----7------7------7------7------5--5--|-----7------7------7------7------7--7--|
D|-----8------8------8------8------7--7--|-----8------8------8------8------8--8--|
A|---------------------------------------|---------------------------------------|
E|---------------------------------------|---------------------------------------|


E|---------------------------------------|-----5------5------5------5------5--5--|
B|-----5------5------5------5------5--5--|-----6------6------6------6------6--6--|
G|-----5------5------5------5------5--5--|-----7------7------7------7------7--7--|
D|-----7------7------7------7------7--7--|---------------------------------------|
A|---------------------------------------|---------------------------------------|
E|---------------------------------------|---------------------------------------|


E|---------------------------------------|---------------------------------------|
B|-----6------6------6------6------6--6--|-----6------6------6------6------6--6--|
G|-----7------7------7------7------5--5--|-----7------7------7------7------7--7--|
D|-----8------8------8------8------7--7--|-----8------8------8------8------8--8--|
A|---------------------------------------|---------------------------------------|
E|---------------------------------------|---------------------------------------|


E|---------------------------------------|-5---5------5------5------5------5---|-------------------------------------|
B|-----5------5------5------5------5--5--|-6---6------6------6------6------6---|-6---6------6------6------6------6---|
G|-----5------5------5------5------5--5--|-7---7------7------7------7------7---|-7---7------7------7------7------5---|
D|-----7------7------7------7------7--7--|-------------------------------------|-8---8------8------8------8------7---|
A|---------------------------------------|-------------------------------------|-------------------------------------|
E|---------------------------------------|-------------------------------------|-------------------------------------|


E|-------------------------------------|-------------------------------------|-5---5------5------5------5------5---|
B|-6---6------6------6------6------6---|-5---5------5------5------5------5---|-6---6------6------6------6------6---|
G|-7---7------7------7------7------7---|-5---5------5------5------5------5---|-7---7------7------7------7------7---|
D|-8---8------8------8------8------8---|-7---7------7------7------7------7---|-------------------------------------|
A|-------------------------------------|-------------------------------------|-------------------------------------|
E|-------------------------------------|-------------------------------------|-------------------------------------|


E|-------------------------------------|-------------------------------------|-------------------------------------|
B|-6---6------6------6------6------6---|-6---6------6------6------6------6---|-5---5------5------5------5------5---|
G|-7---7------7------7------7------5---|-7---7------7------7------7------7---|-5---5------5------5------5------5---|
D|-8---8------8------8------8------7---|-8---8------8------8------8------8---|-7---7------7------7------7------7---|
A|-------------------------------------|-------------------------------------|-------------------------------------|
E|-------------------------------------|-------------------------------------|-------------------------------------|


E|-----5------5------5------5------5--5--|---------------------------------------|
B|-----6------6------6------6------6--6--|-----6------6------6------6------6--6--|
G|-----7------7------7------7------7--7--|-----7------7------7------7------5--5--|
D|---------------------------------------|-----8------8------8------8------7--7--|
A|---------------------------------------|---------------------------------------|
E|---------------------------------------|---------------------------------------|


E|---------------------------------------|---------------------------------------|
B|-----6------6------6------6------6--6--|-----5------5------5------5------5--5--|
G|-----7------7------7------7------7--7--|-----5------5------5------5------5--5--|
D|-----8------8------8------8------8--8--|-----7------7------7------7------7--7--|
A|---------------------------------------|---------------------------------------|
E|---------------------------------------|---------------------------------------|


E|-----5------5------5------5------5--5--|---------------------------------------|
B|-----6------6------6------6------6--6--|-----6------6------6------6------6--6--|
G|-----7------7------7------7------7--7--|-----7------7------7------7------5--5--|
D|---------------------------------------|-----8------8------8------8------7--7--|
A|---------------------------------------|---------------------------------------|
E|---------------------------------------|---------------------------------------|


E|---------------------------------------|---------------------------------------|
B|-----6------6------6------6------6--6--|-----5------5------5------5------5--5--|
G|-----7------7------7------7------7--7--|-----5------5------5------5------5--5--|
D|-----8------8------8------8------8--8--|-----7------7------7------7------7--7--|
A|---------------------------------------|---------------------------------------|
E|---------------------------------------|---------------------------------------|


E|-----5------5------5------5------5--5--|---------------------------------------|
B|-----6------6------6------6------6--6--|-----6------6------6------6------6--6--|
G|-----7------7------7------7------7--7--|-----7------7------7------7------5--5--|
D|---------------------------------------|-----8------8------8------8------7--7--|
A|---------------------------------------|---------------------------------------|
E|---------------------------------------|---------------------------------------|


E|---------------------------------------|---------------------------------------|
B|-----6------6------6------6------6--6--|-----5------5------5------5------5--5--|
G|-----7------7------7------7------7--7--|-----5------5------5------5------5--5--|
D|-----8------8------8------8------8--8--|-----7------7------7------7------7--7--|
A|---------------------------------------|---------------------------------------|
E|---------------------------------------|---------------------------------------|


E|-----5------5------5------5------5--5--|---------------------------------------|
B|-----6------6------6------6------6--6--|-----6------6------6------6------6--6--|
G|-----7------7------7------7------7--7--|-----7------7------7------7------5--5--|
D|---------------------------------------|-----8------8------8------8------7--7--|
A|---------------------------------------|---------------------------------------|
E|---------------------------------------|---------------------------------------|


E|---------------------------------------|---------------------------------------|
B|-----6------6------6------6------6--6--|-----5------5------5------5------5--5--|
G|-----7------7------7------7------7--7--|-----5------5------5------5------5--5--|
D|-----8------8------8------8------8--8--|-----7------7------7------7------7--7--|
A|---------------------------------------|---------------------------------------|
E|---------------------------------------|---------------------------------------|


E|-5---5------5------5------5------5---|-------------------------------------|-------------------------------------|
B|-6---6------6------6------6------6---|-6---6------6------6------6------6---|-6---6------6------6------6------6---|
G|-7---7------7------7------7------7---|-7---7------7------7------7------5---|-7---7------7------7------7------7---|
D|-------------------------------------|-8---8------8------8------8------7---|-8---8------8------8------8------8---|
A|-------------------------------------|-------------------------------------|-------------------------------------|
E|-------------------------------------|-------------------------------------|-------------------------------------|


E|-------------------------------------|-----5------5------5------5------5--5--|---------------------------------------|
B|-5---5------5------5------5------5---|-----6------6------6------6------6--6--|-----6------6------6------6------6--6--|
G|-5---5------5------5------5------5---|-----7------7------7------7------7--7--|-----7------7------7------7------5--5--|
D|-7---7------7------7------7------7---|---------------------------------------|-----8------8------8------8------7--7--|
A|-------------------------------------|---------------------------------------|---------------------------------------|
E|-------------------------------------|---------------------------------------|---------------------------------------|


E|---------------------------------------|---------------------------------------|
B|-----6------6------6------6------6--6--|-----5------5------5------5------5--5--|
G|-----7------7------7------7------7--7--|-----5------5------5------5------5--5--|
D|-----8------8------8------8------8--8--|-----7------7------7------7------7--7--|
A|---------------------------------------|---------------------------------------|
E|---------------------------------------|---------------------------------------|


E|-----5------5------5------5------5--5--|---------------------------------------|
B|-----6------6------6------6------6--6--|-----6------6------6------6------6--6--|
G|-----7------7------7------7------7--7--|-----7------7------7------7------5--5--|
D|---------------------------------------|-----8------8------8------8------7--7--|
A|---------------------------------------|---------------------------------------|
E|---------------------------------------|---------------------------------------|


E|---------------------------------------|---------------------------------------|
B|-----6------6------6------6------6--6--|-----5------5------5------5------5--5--|
G|-----7------7------7------7------7--7--|-----5------5------5------5------5--5--|
D|-----8------8------8------8------8--8--|-----7------7------7------7------7--7--|
A|---------------------------------------|---------------------------------------|
E|---------------------------------------|---------------------------------------|


E|-----5------5------5------5------5--5--|---------------------------------------|
B|-----6------6------6------6------6--6--|-----6------6------6------6------6--6--|
G|-----7------7------7------7------7--7--|-----7------7------7------7------5--5--|
D|---------------------------------------|-----8------8------8------8------7--7--|
A|---------------------------------------|---------------------------------------|
E|---------------------------------------|---------------------------------------|


E|---------------------------------------|---------------------------------------|
B|-----6------6------6------6------6--6--|-----5------5------5------5------5--5--|
G|-----7------7------7------7------7--7--|-----5------5------5------5------5--5--|
D|-----8------8------8------8------8--8--|-----7------7------7------7------7--7--|
A|---------------------------------------|---------------------------------------|
E|---------------------------------------|---------------------------------------|


E|-----5------5------5------5------5--5--|---------------------------------------|
B|-----6------6------6------6------6--6--|-----6------6------6------6------6--6--|
G|-----7------7------7------7------7--7--|-----7------7------7------7------5--5--|
D|---------------------------------------|-----8------8------8------8------7--7--|
A|---------------------------------------|---------------------------------------|
E|---------------------------------------|---------------------------------------|


E|---------------------------------------|---------------------------------------|
B|-----6------6------6------6------6--6--|-----5------5------5------5------5--5--|
G|-----7------7------7------7------7--7--|-----5------5------5------5------5--5--|
D|-----8------8------8------8------8--8--|-----7------7------7------7------7--7--|
A|---------------------------------------|---------------------------------------|
E|---------------------------------------|---------------------------------------|


E|-----5------5------5------5------5--5--|---------------------------------------|
B|-----6------6------6------6------6--6--|-----6------6------6------6------6--6--|
G|-----7------7------7------7------7--7--|-----7------7------7------7------5--5--|
D|---------------------------------------|-----8------8------8------8------7--7--|
A|---------------------------------------|---------------------------------------|
E|---------------------------------------|---------------------------------------|


E|---------------------------------------|---------------------------------------|
B|-----6------6------6------6------6--6--|-----5------5------5------5------5--5--|
G|-----7------7------7------7------7--7--|-----5------5------5------5------5--5--|
D|-----8------8------8------8------8--8--|-----7------7------7------7------7--7--|
A|---------------------------------------|---------------------------------------|
E|---------------------------------------|---------------------------------------|


E|-----5------5------5------5------5--5--|---------------------------------------|
B|-----6------6------6------6------6--6--|-----6------6------6------6------6--6--|
G|-----7------7------7------7------7--7--|-----7------7------7------7------5--5--|
D|---------------------------------------|-----8------8------8------8------7--7--|
A|---------------------------------------|---------------------------------------|
E|---------------------------------------|---------------------------------------|


E|---------------------------------------|---------------------------------------|
B|-----6------6------6------6------6--6--|-----5------5------5------5------5--5--|
G|-----7------7------7------7------7--7--|-----5------5------5------5------5--5--|
D|-----8------8------8------8------8--8--|-----7------7------7------7------7--7--|
A|---------------------------------------|---------------------------------------|
E|---------------------------------------|---------------------------------------|


E|--------|--------|
B|--------|--------|
G|--------|--------|
D|--------|--------|
A|--------|--------|
E|--------|--------|





Track 6: Fantasia            

E|--------|--------|--------|--------|--------|--------|--------|--------|--------|
B|--------|--------|--------|--------|--------|--------|--------|--------|--------|
G|--------|--------|--------|--------|--------|--------|--------|--------|--------|
D|--------|--------|--------|--------|--------|--------|--------|--------|--------|
A|--------|--------|--------|--------|--------|--------|--------|--------|--------|
E|--------|--------|--------|--------|--------|--------|--------|--------|--------|


E|--------|--------|--------|--------|--------|--------|--------|--------|--------|
B|--------|--------|--------|--------|--------|--------|--------|--------|--------|
G|--------|--------|--------|--------|--------|--------|--------|--------|--------|
D|--------|--------|--------|--------|--------|--------|--------|--------|--------|
A|--------|--------|--------|--------|--------|--------|--------|--------|--------|
E|--------|--------|--------|--------|--------|--------|--------|--------|--------|


E|--------|--------|--------|--------|--------|--------|--------|--------|--------|
B|--------|--------|--------|--------|--------|--------|--------|--------|--------|
G|--------|--------|--------|--------|--------|--------|--------|--------|--------|
D|--------|--------|--------|--------|--------|--------|--------|--------|--------|
A|--------|--------|--------|--------|--------|--------|--------|--------|--------|
E|--------|--------|--------|--------|--------|--------|--------|--------|--------|


E|--------|--------|--------|--------|--------|--------|--------|--------|--------|
B|--------|--------|--------|--------|--------|--------|--------|--------|--------|
G|--------|--------|--------|--------|--------|--------|--------|--------|--------|
D|--------|--------|--------|--------|--------|--------|--------|--------|--------|
A|--------|--------|--------|--------|--------|--------|--------|--------|--------|
E|--------|--------|--------|--------|--------|--------|--------|--------|--------|


E|--------|--------|--------|--------|--------|--------|--------|--------|--------|
B|--------|--------|--------|--------|--------|--------|--------|--------|--------|
G|--------|--------|--------|--------|--------|--------|--------|--------|--------|
D|--------|--------|--------|--------|--------|--------|--------|--------|--------|
A|--------|--------|--------|--------|--------|--------|--------|--------|--------|
E|--------|--------|--------|--------|--------|--------|--------|--------|--------|


E|--------|--------|--------|--------|--------|--------|--------|--------|--------|
B|--------|--------|--------|--------|--------|--------|--------|--------|--------|
G|--------|--------|--------|--------|--------|--------|--------|--------|--------|
D|--------|--------|--------|--------|--------|--------|--------|--------|--------|
A|--------|--------|--------|--------|--------|--------|--------|--------|--------|
E|--------|--------|--------|--------|--------|--------|--------|--------|--------|


E|--------|--------|--------|--------|--------|--------|--------|--------|--------|
B|--------|--------|--------|--------|--------|--------|--------|--------|--------|
G|--------|--------|--------|--------|--------|--------|--------|--------|--------|
D|--------|--------|--------|--------|--------|--------|--------|--------|--------|
A|--------|--------|--------|--------|--------|--------|--------|--------|--------|
E|--------|--------|--------|--------|--------|--------|--------|--------|--------|


E|--------|--------|--------|--------|--------|-5------|-6------|-5------|-3------|
B|--------|--------|--------|--------|--------|-6------|-6------|-6------|-5------|
G|--------|--------|--------|--------|--------|-7------|-7------|-7------|-5------|
D|--------|--------|--------|--------|--------|--------|--------|--------|--------|
A|--------|--------|--------|--------|--------|--------|--------|--------|--------|
E|--------|--------|--------|--------|--------|--------|--------|--------|--------|


E|--------|--------|--------|--------|--------|--------|--------|--------|--------|
B|--------|--------|--------|--------|--------|--------|--------|--------|--------|
G|--------|--------|--------|--------|--------|--------|--------|--------|--------|
D|--------|--------|--------|--------|--------|--------|--------|--------|--------|
A|--------|--------|--------|--------|--------|--------|--------|--------|--------|
E|--------|--------|--------|--------|--------|--------|--------|--------|--------|


E|--------|--------|--------|--------|--------|--------|--------|-5------|-6------|
B|--------|--------|--------|--------|--------|--------|--------|-6------|-6------|
G|--------|--------|--------|--------|--------|--------|--------|-7------|-7------|
D|--------|--------|--------|--------|--------|--------|--------|--------|--------|
A|--------|--------|--------|--------|--------|--------|--------|--------|--------|
E|--------|--------|--------|--------|--------|--------|--------|--------|--------|


E|-5------|-3------|-5------|-6------|-5------|-3------|--------|--------|--------|
B|-6------|-5------|-6------|-6------|-6------|-5------|--------|--------|--------|
G|-7------|-5------|-7------|-7------|-7------|-5------|--------|--------|--------|
D|--------|--------|--------|--------|--------|--------|--------|--------|--------|
A|--------|--------|--------|--------|--------|--------|--------|--------|--------|
E|--------|--------|--------|--------|--------|--------|--------|--------|--------|


E|--------|--------|--------|--------|--------|--------|--------|--------|--------|
B|--------|--------|--------|--------|--------|--------|--------|--------|--------|
G|--------|--------|--------|--------|--------|--------|--------|--------|--------|
D|--------|--------|--------|--------|--------|--------|--------|--------|--------|
A|--------|--------|--------|--------|--------|--------|--------|--------|--------|
E|--------|--------|--------|--------|--------|--------|--------|--------|--------|


E|--------|--------|--------|--------|-------------|--------|
B|--------|--------|--------|--------|-3-----3-----|--------|
G|--------|--------|--------|--------|-2-----2-----|--------|
D|--------|--------|--------|--------|-0-----0-----|--------|
A|--------|--------|--------|--------|-------------|--------|
E|--------|--------|--------|--------|-------------|--------|





Track 7: Bajo

G|--------|--------|--------|--------|--------|--------|--------|--------|-----------------------------------|
D|--------|--------|--------|--------|--------|--------|--------|--------|-0----0-----0-----0----0-----------|
A|--------|--------|--------|--------|--------|--------|--------|--------|-----------------------------------|
D|--------|--------|--------|--------|--------|--------|--------|--------|--------------------------0--3--4--|


G|--------------------|----------------|-----------------------------|---------------------------------|
D|--------------------|----------------|-------------9--7------------|---------------------------------|
A|--------------------|----------------|---------7-----------7-------|-5--------5--5----------------0--|
D|-5-----5--5----7----|-8-----8--8-----|-7----7-------------------7--|------------------2-----2--3-----|


G|-----------------------|----------------------------|-----------4--4---------|------------------------|
D|-----------------------|--------------8---8---------|------2-------7---------|------------------------|
A|-----------------------|----------------------------|-0----------------------|-5----5-----5-----5-----|
D|-5-----5--5----7--7----|-8-----8--8----------8---2--|------------------------|------------------------|


G|----------------------------|------------------------|------------------------|------------------------|
D|----------------------------|------------------------|------------------------|------------------------|
A|----------------------------|------------------------|------------------------|-5----5-----5-----5-----|
D|-5----5-----5-----5----7----|-8----8-----8-----8-----|-7----7-----7-----7-----|------------------------|


G|----------------------------|------------------------|------------------------|------------------------|
D|----------------------------|------------------------|------------------------|------------------------|
A|----------------------------|------------------------|------------------------|-5----5-----5-----5-----|
D|-5----5-----5-----5----7----|-8----8-----8-----8-----|-7----7-----7-----7-----|------------------------|


G|----------------------------|------------------------|------------------------|------------------------|
D|----------------------------|------------------------|------------------------|------------------------|
A|----------------------------|------------------------|------------------------|-5----5-----5-----5-----|
D|-5----5-----5-----5----7----|-8----8-----8-----8-----|-7----7-----7-----7-----|------------------------|


G|----------------------------|------------------------|------------------------|---------------------------|
D|----------------------------|------------------------|------------------------|---------------------------|
A|----------------------------|------------------------|------------------------|-5-----5--5----5-----------|
D|-5----5-----5-----5----7----|-8----8-----8-----8-----|-7----7-----7-----7-----|------------------0--3--4--|


G|--------------------|----------------|----------------|---------------------------|
D|--------------------|----------------|----------------|---------------------------|
A|--------------------|----------------|----------------|-5-----5--5----5-----------|
D|-5-----5--5----7----|-8-----8--8-----|-7-----7--7-----|------------------0--3--4--|


G|--------------------|----------------|----------------|----------------|--------------------|
D|--------------------|----------------|----------------|----------------|--------------------|
A|--------------------|----------------|----------------|-5-----5--5-----|--------------------|
D|-5-----5--5----7----|-8-----8--8-----|-7-----7--7-----|----------------|-5-----5--5----7----|


G|----------------|----------------|-------------------|------------------------------------|
D|----------------|----------------|-------------------|-5----5-----------------------------|
A|----------------|----------------|-5-----5--5-----5--|---------5------5-----5-------------|
D|-8-----8--8-----|-7-----7--7-----|-------------------|-------------------8-----8-----5----|


G|----------------|----------------|-----------------------------------|--------------------|
D|----------------|----------------|-----------------------------------|--------------------|
A|----------------|----------------|-5--------5------------------------|--------------------|
D|-8-----8--8-----|-7-----7--7-----|----------------0-----0--3------3--|-5-----5--5----7----|


G|------------------------|-----------------|-----------------------------------|--------------------|
D|------------------------|-----------------|-----------------------------------|--------------------|
A|------------------------|-----------------|-5----5-----5-----5----5-----------|--------------------|
D|-8----8--8-----8--8-----|-7-----7----7----|--------------------------0--3--4--|-5-----5--5----7----|


G|----------------|-----------------------------|---------------------------------|
D|----------------|-------------9--7------------|---------------------------------|
A|----------------|---------7-----------7-------|-5--------5--5----------------0--|
D|-8-----8--8-----|-7----7-------------------7--|------------------2-----2--3-----|


G|-----------------------|----------------------------|-----------4--4---------|------------------------|
D|-----------------------|--------------8---8---------|------2-------7---------|------------------------|
A|-----------------------|----------------------------|-0----------------------|-5----5-----5-----5-----|
D|-5-----5--5----7--7----|-8-----8--8----------8---2--|------------------------|------------------------|


G|--------------------------|----------------|-----------------------|---------------------------|
D|--------------------------|----------------|-------7--7------------|---------------------------|
A|--------------------------|----------------|---------------7-------|-5-----5--5----5-----------|
D|-5-----5--5----5--7----7--|-8-----8--8-----|-7----------------7----|------------------0--3--4--|


G|--------------------|----------------|---------------------|----------------------------------------|
D|--------------------|----------------|-----------7---------|----------------------------------------|
A|--------------------|----------------|------7---------7----|-5----------------5---------------------|
D|-5-----5--5----7----|-8-----8--8-----|-7-------------------|---------7--10-7---------2-----3-----3--|


G|----------------------------|-------------------------------|------------------------------|
D|----------------------------|---------8---------------------|------7--7---------------7----|
A|----------------------------|-------------------------------|--------------------7---------|
D|-5----5--5-----5--5----7----|-8----8------8--8----8--8---8--|-7----------7----7------------|


G|----------------------------|--------------------------------|---------------------------|
D|----------------------------|---------5----------------------|---------8-----------------|
A|-5-----5---5----5-----------|--------------------------------|---------------------------|
D|-------------------2--3--4--|-5----5------2--5----5--7----7--|-8----8--------8--8-----2--|


G|----------2-------------------|---------------------------|---------------------------------|
D|-------2-------2--2-----------|---------------------------|------5-------7-------8----------|
A|-0-------------------0--3--0--|-5-----5--5----5-----------|---------------------------------|
D|------------------------------|------------------2--3--4--|-5-------7-------8-------10---10-|


G|---------------------------|------------------------------|-----------------------------------|
D|---------8-----------------|---------7--------------------|-----------------------------------|
A|---------------------------|--------------7---5---5-------|-5----5-----5-----5----5-----------|
D|-8----8--------8--8-----8--|-7----7------------------7----|--------------------------2--3--4--|


G|--------------------------|---------------------------|----------------------------------|
D|--------------------------|---------8-----------------|-----------5--7-------------------|
A|--------------------------|---------------------------|------7-------11----7---7---------|
D|-5-----5--5----5--7----7--|-8----8--------8--8-----8--|-7-------------------------7--10--|


G|---------------------------|------------------------------------|-----------------------------|
D|---------------------------|------------------------------------|--------------8--------------|
A|---------------------------|-------------------------------10---|-----------------------------|
D|-12----12-12---12-2--3--4--|-5------5--7------7--8------8-------|-8------------------8--8-----|


G|---------------------------|---------7-------------------------|----------------------------|
D|-----------5--7------------|-----------------------------------|---------5------------------|
A|------7-------11-----------|-5----5--------5--5----5-----------|----------------------------|
D|-7--------------------7----|--------------------------2--3--4--|-5----5--------5--5----7----|


G|---------------------------|---------------------------|---------7----------------------------|
D|------------------8--------|-7----7---------------7----|--------------------------------------|
A|---------------------------|---------7----7------------|-5-------------5----------------------|
D|-8-----8--8----8--------8--|-----------------7---------|---------------------2--2--3--3---4---|


G|----------------------------|-----------------------------------|--------------5-----9--14---|
D|---------5------------------|---------8----------------8--------|------7----7----------------|
A|----------------------------|-----------------------------------|----------------------------|
D|-5-------------5--5----7----|-8----8--------8--8----8--------8--|-7--------------------------|


G|--------------------------------|---------------------------------|--------------------------------|
D|--------------------------------|---------------------------------|-----8--------------------------|
A|-----------------------0-----0--|---------------------------------|--------------------------------|
D|-12----12-12-----3--------3-----|-5---5--------5-----5--5----7----|-8------------8-----8--8-----8--|


G|--------------------|-7--------7---------------------|----------------------------------|
D|---------7----------|-------7------------------------|-----5----------------------------|
A|--------------------|--------------------------------|----------------------------------|
D|-7----7-------7-----|-----------------2-----3-----3--|-5------------7------8-------10---|


G|--------------------------------------|---------------------------|--------------------------------|
D|-------8---------------8--------------|-7----7--------------------|--------------------------------|
A|---------------------------------8----|---------7----7------------|-5-----5--5------------0-----0--|
D|-8--------------8---------------------|------------------7---7----|-----------------3--------3-----|


G|---------------------------------|--------------------------------|--------------------|
D|---------------------------------|-----8--------------------------|---------7----------|
A|---------------------------------|--------------------------------|--------------------|
D|-5---5--------5-----5--5----7----|-8------------8-----8--8-----8--|-7----7-------7-----|


G|-7--------7---------------------|----------------------------------|--------------------------------------|
D|-------7------------------------|-----5----------------------------|-------8---------------8--------------|
A|--------------------------------|----------------------------------|---------------------------------8----|
D|-----------------2-----3-----3--|-5------------7------8-------10---|-8--------------8---------------------|


G|---------------------------|--------|--------------------|
D|-7----7--------------------|--------|--------------------|
A|---------7----7------------|-5------|-5------------------|
D|------------------7---7----|--------|--------------------|