Site menu:

    

Browse: 0-9 A B C D E F G H I J K L N O P Q R S T U V W X Y Z

violence ray - santaballs great victory:



Title: Santaball's Great Victory
Artist: 
Album: 
Author: John Sweeney


Track 1: Guitar

E|-----------------------|-----------------------|-----------------------|-----------------------|
B|-----------------------|-----------------6-----|-----------------------|-----------------6-----|
G|-------------4---4-----|-------------7---------|-------------4---4-----|-------------7---------|
D|---------5-------------|---------7-------------|---------5-------------|---------7-------------|
A|-----5-----------------|-----5-----------------|-----5-----------------|-----5-----------------|
E|-3---------------------|-----------------------|-3---------------------|-----------------------|


E|-----------------------|-----------------------|-----------------------|-----------------------|
B|-----------------------|-----------------6-----|-----------------------|-----------------6-----|
G|-------------4---4-----|-------------7---------|-------------4---4-----|-------------7---------|
D|---------5-------------|---------7-------------|---------5-------------|---------7-------------|
A|-----5-----------------|-----5-----------------|-----5-----------------|-----5-----------------|
E|-3---------------------|-----------------------|-3---------------------|-----------------------|


E|-----------------------|-----------------------|-----------------------|-----------------------|
B|-----------------------|-----------------6-----|-----------------------|-----------------6-----|
G|-------------4---4-----|-------------7---------|-------------4---4-----|-------------7---------|
D|---------5-------------|---------7-------------|---------5-------------|---------7-------------|
A|-----5-----------------|-----5-----------------|-----5-----------------|-----5-----------------|
E|-3---------------------|-----------------------|-3---------------------|-----------------------|


E|-----------------------|-----------------------|-----------------------|-----------------------|
B|-----------------------|-----------------6-----|-----------------------|-----------------6-----|
G|-------------4---4-----|-------------7---------|-------------4---4-----|-------------7---------|
D|---------5-------------|---------7-------------|---------5-------------|---------7-------------|
A|-----5-----------------|-----5-----------------|-----5-----------------|-----5-----------------|
E|-3---------------------|-----------------------|-3---------------------|-----------------------|


E|-----------------------|-----------------------|-----------------------|-----------------------|
B|-----------------------|-----------------6-----|-----------------------|-----------------6-----|
G|-------------4---4-----|-------------7---------|-------------4---4-----|-------------7---------|
D|---------5-------------|---------7-------------|---------5-------------|---------7-------------|
A|-----5-----------------|-----5-----------------|-----5-----------------|-----5-----------------|
E|-3---------------------|-----------------------|-3---------------------|-----------------------|


E|-----------------------|-----------------------|-----------------------|-----------------------|
B|-----------------------|-----------------6-----|-----------------------|-----------------6-----|
G|-------------4---4-----|-------------7---------|-------------4---4-----|-------------7---------|
D|---------5-------------|---------7-------------|---------5-------------|---------7-------------|
A|-----5-----------------|-----5-----------------|-----5-----------------|-----5-----------------|
E|-3---------------------|-----------------------|-3---------------------|-----------------------|


E|-----------------------|-----------------------|-----------------------|-----------------------|
B|-----------------------|-----------------6-----|-----------------------|-----------------6-----|
G|-------------4---4-----|-------------7---------|-------------4---4-----|-------------7---------|
D|---------5-------------|---------7-------------|---------5-------------|---------7-------------|
A|-----5-----------------|-----5-----------------|-----5-----------------|-----5-----------------|
E|-3---------------------|-----------------------|-3---------------------|-----------------------|


E|-----------------------|-----------------------|-----------------------|-----------------------|
B|-----------------------|-----------------6-----|-----------------------|-----------------6-----|
G|-------------4---4-----|-------------7---------|-------------4---4-----|-------------7---------|
D|---------5-------------|---------7-------------|---------5-------------|---------7-------------|
A|-----5-----------------|-----5-----------------|-----5-----------------|-----5-----------------|
E|-3---------------------|-----------------------|-3---------------------|-----------------------|


E|-----------------------|-----------------------|-----------------------|-----------------------|
B|-----------------------|-----------------6-----|-----------------------|-----------------6-----|
G|-------------4---4-----|-------------7---------|-------------4---4-----|-------------7---------|
D|---------5-------------|---------7-------------|---------5-------------|---------7-------------|
A|-----5-----------------|-----5-----------------|-----5-----------------|-----5-----------------|
E|-3---------------------|-----------------------|-3---------------------|-----------------------|


E|-----------------------|-----------------------|-----------------------|-----------------------|
B|-----------------------|-----------------6-----|-----------------------|-----------------6-----|
G|-------------4---4-----|-------------7---------|-------------4---4-----|-------------7---------|
D|---------5-------------|---------7-------------|---------5-------------|---------7-------------|
A|-----5-----------------|-----5-----------------|-----5-----------------|-----5-----------------|
E|-3---------------------|-----------------------|-3---------------------|-----------------------|


E|-----------------------|-----------------------|-----------------------|-----------------------|
B|-----------------------|-----------------6-----|-----------------------|-----------------6-----|
G|-------------4---4-----|-------------7---------|-------------4---4-----|-------------7---------|
D|---------5-------------|---------7-------------|---------5-------------|---------7-------------|
A|-----5-----------------|-----5-----------------|-----5-----------------|-----5-----------------|
E|-3---------------------|-----------------------|-3---------------------|-----------------------|


E|-3---3---3---3----3----5---|-5---5---5---5---5----5----|-3---3---3---3----3----5---|
B|-3---3---3---3----5----6---|-6---6---6---6---6----6----|-3---3---3---3----5----6---|
G|-4---4---4---4----5----7---|-7---7---7---7---7----7----|-4---4---4---4----5----7---|
D|-5---5---5---5----5----7---|-7---7---7---7---7----7----|-5---5---5---5----5----7---|
A|-5---5---5---5----3----5---|-5---5---5---5---5----5----|-5---5---5---5----3----5---|
E|-3---3---3---3-------------|---------------------------|-3---3---3---3-------------|


E|-5---5---5---5---5----5----|-3---3---3---3----3----5---|-5---5---5---5---5----5----|
B|-6---6---6---6---6----6----|-3---3---3---3----5----6---|-6---6---6---6---6----6----|
G|-7---7---7---7---7----7----|-4---4---4---4----5----7---|-7---7---7---7---7----7----|
D|-7---7---7---7---7----7----|-5---5---5---5----5----7---|-7---7---7---7---7----7----|
A|-5---5---5---5---5----5----|-5---5---5---5----3----5---|-5---5---5---5---5----5----|
E|---------------------------|-3---3---3---3-------------|---------------------------|


E|-3---3---3---3----3----5---|-5---5---5---5---5----5----|-1---1---1---1----1----3---|
B|-3---3---3---3----5----6---|-6---6---6---6---6----6----|-1---1---1---1----1----5---|
G|-4---4---4---4----5----7---|-7---7---7---7---7----7----|-2---2---2---2----2----5---|
D|-5---5---5---5----5----7---|-7---7---7---7---7----7----|-3---3---3---3----3----5---|
A|-5---5---5---5----3----5---|-5---5---5---5---5----5----|-3---3---3---3----2----3---|
E|-3---3---3---3-------------|---------------------------|-1---1---1---1----1--------|


E|-3---3---3---3---3----3----|-1---1---1---1----1----3---|-3---3---3---3---3----3----|
B|-5---3---3---3---3----3----|-1---1---1---1----1----5---|-5---3---3---3---3----3----|
G|-5---4---4---4---4----4----|-2---2---2---2----2----5---|-5---4---4---4---4----4----|
D|-5---5---5---5---5----5----|-3---3---3---3----3----5---|-5---5---5---5---5----5----|
A|-3---5---5---5---5----5----|-3---3---3---3----2----3---|-3---5---5---5---5----5----|
E|-----3---3---3---3----3----|-1---1---1---1----1--------|-----3---3---3---3----3----|


E|-1---1---1---1----1----3---|-3---3---3---3---3----3----|-1---1---1---1----1----3---|
B|-1---1---1---1----1----5---|-5---3---3---3---3----3----|-1---1---1---1----1----5---|
G|-2---2---2---2----2----5---|-5---4---4---4---4----4----|-2---2---2---2----2----5---|
D|-3---3---3---3----3----5---|-5---5---5---5---5----5----|-3---3---3---3----3----5---|
A|-3---3---3---3----2----3---|-3---5---5---5---5----5----|-3---3---3---3----2----3---|
E|-1---1---1---1----1--------|-----3---3---3---3----3----|-1---1---1---1----1--------|


E|-3---3---3---3---3----3----|-----------------------|-----------------------|-----------------------|
B|-5---3---3---3---3----3----|-----------------------|-----------------6-----|-----------------------|
G|-5---4---4---4---4----4----|-------------4---4-----|-------------7---------|-------------4---4-----|
D|-5---5---5---5---5----5----|---------5-------------|---------7-------------|---------5-------------|
A|-3---5---5---5---5----5----|-----5-----------------|-----5-----------------|-----5-----------------|
E|-----3---3---3---3----3----|-3---------------------|-----------------------|-3---------------------|


E|-----------------------|-----------------------|-----------------------|-----------------------|
B|-----------------6-----|-----------------------|-----------------6-----|-----------------------|
G|-------------7---------|-------------4---4-----|-------------7---------|-------------4---4-----|
D|---------7-------------|---------5-------------|---------7-------------|---------5-------------|
A|-----5-----------------|-----5-----------------|-----5-----------------|-----5-----------------|
E|-----------------------|-3---------------------|-----------------------|-3---------------------|


E|-----------------------|-----------------------|-----------------------|-----------------------|
B|-----------------6-----|-----------------------|-----------------6-----|-----------------------|
G|-------------7---------|-------------4---4-----|-------------7---------|-------------4---4-----|
D|---------7-------------|---------5-------------|---------7-------------|---------5-------------|
A|-----5-----------------|-----5-----------------|-----5-----------------|-----5-----------------|
E|-----------------------|-3---------------------|-----------------------|-3---------------------|


E|-----------------------|-----------------------|-----------------------|-----------------------|
B|-----------------6-----|-----------------------|-----------------6-----|-----------------------|
G|-------------7---------|-------------4---4-----|-------------7---------|-------------4---4-----|
D|---------7-------------|---------5-------------|---------7-------------|---------5-------------|
A|-----5-----------------|-----5-----------------|-----5-----------------|-----5-----------------|
E|-----------------------|-3---------------------|-----------------------|-3---------------------|


E|-----------------------|-----------------------|-----------------------|-----------------------|
B|-----------------6-----|-----------------------|-----------------6-----|-----------------------|
G|-------------7---------|-------------4---4-----|-------------7---------|-------------4---4-----|
D|---------7-------------|---------5-------------|---------7-------------|---------5-------------|
A|-----5-----------------|-----5-----------------|-----5-----------------|-----5-----------------|
E|-----------------------|-3---------------------|-----------------------|-3---------------------|


E|-----------------------|-----------------------|-----------------------|-----------------------|
B|-----------------6-----|-----------------------|-----------------6-----|-----------------------|
G|-------------7---------|-------------4---4-----|-------------7---------|-------------4---4-----|
D|---------7-------------|---------5-------------|---------7-------------|---------5-------------|
A|-----5-----------------|-----5-----------------|-----5-----------------|-----5-----------------|
E|-----------------------|-3---------------------|-----------------------|-3---------------------|


E|-----------------------|---------------------|--------|---------------------|--------|
B|-----------------6-----|---------------------|--------|---------------------|--------|
G|-------------7---------|-----------4---4-----|-4------|-----------2---2-----|-2------|
D|---------7-------------|------5----5---5-----|-5------|------3----3---3-----|-3------|
A|-----5-----------------|-5-------------------|--------|-3-------------------|--------|
E|-----------------------|---------------------|--------|---------------------|--------|


E|---------------------|--------|---------------------|--------|-----------------------------|
B|---------------------|--------|---------------------|--------|-----------------------------|
G|-----------4---4-----|-4------|-----------2---2-----|-2------|-----------4-------------4---|
D|------5----5---5-----|-5------|------3----3---3-----|-3------|------5----5--------5--------|
A|-5-------------------|--------|-3-------------------|--------|-5-------------5-------------|
E|---------------------|--------|---------------------|--------|-----------------------------|


E|-----------------------------|-----------------------------|-----------------------------|
B|-----------------------------|-----------------------------|-----------------------------|
G|-----------4-------------4---|-----------2-------------2---|-----------2-------------2---|
D|------5----5--------5--------|------3----3--------3--------|------3----3--------3--------|
A|-5-------------5-------------|-3-------------3-------------|-3-------------3-------------|
E|-----------------------------|-----------------------------|-----------------------------|


E|-----------------------------|-----------------------------|-----------------------------|
B|-----------------------------|-----------------------------|-----------------------------|
G|-----------4-------------4---|-----------4-------------4---|-----------2-------------2---|
D|------5----5--------5--------|------5----5--------5--------|------3----3--------3--------|
A|-5-------------5-------------|-5-------------5-------------|-3-------------3-------------|
E|-----------------------------|-----------------------------|-----------------------------|


E|-----------------------------|-----------------------------|-----------------------------|
B|-----------------------------|-----------------------------|-----------------------------|
G|-----------2-------------2---|-----------4-------------4---|-----------4-------------4---|
D|------3----3--------3--------|------5----5--------5--------|------5----5--------5--------|
A|-3-------------3-------------|-5-------------5-------------|-5-------------5-------------|
E|-----------------------------|-----------------------------|-----------------------------|


E|-----------------------------|-----------------------------|-----------------------------|
B|-----------------------------|-----------------------------|-----------------------------|
G|-----------2-------------2---|-----------2-------------2---|-----------4-------------4---|
D|------3----3--------3--------|------3----3--------3--------|------5----5--------5--------|
A|-3-------------3-------------|-3-------------3-------------|-5-------------5-------------|
E|-----------------------------|-----------------------------|-----------------------------|


E|-----------------------------|-----------------------------|-----------------------------|
B|-----------------------------|-----------------------------|-----------------------------|
G|-----------4-------------4---|-----------2-------------2---|-----------2-------------2---|
D|------5----5--------5--------|------3----3--------3--------|------3----3--------3--------|
A|-5-------------5-------------|-3-------------3-------------|-3-------------3-------------|
E|-----------------------------|-----------------------------|-----------------------------|


E|-----------------------------|-----------------------------|-----------------------------|
B|-----------------------------|-----------------------------|-----------------------------|
G|-----------4-------------4---|-----------4-------------4---|-----------2-------------2---|
D|------5----5--------5--------|------5----5--------5--------|------3----3--------3--------|
A|-5-------------5-------------|-5-------------5-------------|-3-------------3-------------|
E|-----------------------------|-----------------------------|-----------------------------|


E|-----------------------------|-----------------------------|-----------------------------|
B|-----------------------------|-----------------------------|-----------------------------|
G|-----------2-------------2---|-----------4-------------4---|-----------4-------------4---|
D|------3----3--------3--------|------5----5--------5--------|------5----5--------5--------|
A|-3-------------3-------------|-5-------------5-------------|-5-------------5-------------|
E|-----------------------------|-----------------------------|-----------------------------|


E|-----------------------------|-----------------------------|-------------------------------|
B|-----------------------------|-----------------------------|-------------------------------|
G|-----------2-------------2---|-----------2-------------2---|-------------------------------|
D|------3----3--------3--------|------3----3--------3--------|-----------9---10--------------|
A|-3-------------3-------------|-3-------------3-------------|------10-----------8---10--7---|
E|-----------------------------|-----------------------------|-10----------------------------|


E|---------------------------------|---------------------------------|-------------------------------|
B|---------------------------------|---------------------------------|-------------------------------|
G|---------------------------------|-7---9---------------------------|-------------------------------|
D|---------7-----------10--10--10--|---------7---9---10--9---7----9--|-9-----10-9--7-----------------|
A|-7---8-------7---8---------------|---------------------------------|----------------------7--8--10-|
E|---------------------------------|---------------------------------|----------------8--10----------|


E|----------------|------------------------------|----------------------------|-----------------------|
B|----------------|------------------------------|----------------------------|-----------------------|
G|--------10--9---|-10--9---7-------7------------|----------------------------|-----------------------|
D|----------------|-------------10------10--9----|-10--------10-9--7------7---|-----------------------|
A|-10-------------|------------------------------|--------------------10------|-10--8---7---8---10----|
E|----------------|------------------------------|----------------------------|-----------------------|


E|------------|-----------------------------|---------------------|-----------------------------|
B|------------|-----------------------------|---------------------|-----------------------------|
G|------------|-----------------------------|---------------------|-----------------------------|
D|-9---9------|-9----9----9---9----9----9---|-7----7----7---7-----|-7----7----7---7----7----7---|
A|-10--10-----|-10---10---10--10---10---10--|-8----8----8---8-----|-8----8----8---8----8----8---|
E|-10--10-----|-10---10---10--10---10---10--|-8----8----8---8-----|-8----8----8---8----8----8---|


E|---------------------|-----------------------------|---------------------|-----------------------------|
B|---------------------|-----------------------------|---------------------|-----------------------------|
G|---------------------|-----------------------------|---------------------|-----------------------------|
D|-9----9----9---9-----|-9----9----9---9----9----9---|-7----7----7---7-----|-7----7----7---7----7----7---|
A|-10---10---10--10----|-10---10---10--10---10---10--|-8----8----8---8-----|-8----8----8---8----8----8---|
E|-10---10---10--10----|-10---10---10--10---10---10--|-8----8----8---8-----|-8----8----8---8----8----8---|


E|---------------------|-----------------------------|---------------------|-----------------------------|
B|---------------------|-----------------------------|---------------------|-----------------------------|
G|---------------------|-----------------------------|---------------------|-----------------------------|
D|-9----9----9---9-----|-9----9----9---9----9----9---|-7----7----7---7-----|-7----7----7---7----7----7---|
A|-10---10---10--10----|-10---10---10--10---10---10--|-8----8----8---8-----|-8----8----8---8----8----8---|
E|-10---10---10--10----|-10---10---10--10---10---10--|-8----8----8---8-----|-8----8----8---8----8----8---|


E|---------------------|-----------------------------|---------------------|-----------------------------|
B|---------------------|-----------------------------|---------------------|-----------------------------|
G|---------------------|-----------------------------|---------------------|-----------------------------|
D|-9----9----9---9-----|-9----9----9---9----9----9---|-7----7----7---7-----|-7----7----7---7----7----7---|
A|-10---10---10--10----|-10---10---10--10---10---10--|-8----8----8---8-----|-8----8----8---8----8----8---|
E|-10---10---10--10----|-10---10---10--10---10---10--|-8----8----8---8-----|-8----8----8---8----8----8---|


E|--------|--------|--------|--------|--------|--------|--------|--------|-----------------------|
B|--------|--------|--------|--------|--------|--------|--------|--------|-----------------------|
G|--------|--------|--------|--------|--------|--------|--------|--------|-------------4---4-----|
D|--------|--------|--------|--------|--------|--------|--------|--------|---------5-------------|
A|--------|--------|--------|--------|--------|--------|--------|--------|-----5-----------------|
E|--------|--------|--------|--------|--------|--------|--------|--------|-3---------------------|


E|---------------------------------|-----------------------|---------------------------------|
B|-----------------6---------------|-----------------------|-----------------6---------------|
G|-------------7-------7-----------|-------------4---4-----|-------------7-------7-----------|
D|---------7---------------7-------|---------5-------------|---------7---------------7-------|
A|-----5-----------------------5---|-----5-----------------|-----5-----------------------5---|
E|---------------------------------|-3---------------------|---------------------------------|


E|-----------------------|---------------------------------|-----------------------|
B|-----------------------|-----------------6---------------|-----------------------|
G|-------------4---4-----|-------------7-------7-----------|-------------4---4-----|
D|---------5-------------|---------7---------------7-------|---------5-------------|
A|-----5-----------------|-----5-----------------------5---|-----5-----------------|
E|-3---------------------|---------------------------------|-3---------------------|


E|---------------------------------|-----------------------|---------------------------------|
B|-----------------6---------------|-----------------------|-----------------6---------------|
G|-------------7-------7-----------|-------------4---4-----|-------------7-------7-----------|
D|---------7---------------7-------|---------5-------------|---------7---------------7-------|
A|-----5-----------------------5---|-----5-----------------|-----5-----------------------5---|
E|---------------------------------|-3---------------------|---------------------------------|


E|-----------------------|---------------------------------|-----------------------|
B|-----------------------|-----------------6---------------|-----------------------|
G|-------------4---4-----|-------------7-------7-----------|-------------4---4-----|
D|---------5-------------|---------7---------------7-------|---------5-------------|
A|-----5-----------------|-----5-----------------------5---|-----5-----------------|
E|-3---------------------|---------------------------------|-3---------------------|


E|---------------------------------|-----------------------|---------------------------------|
B|-----------------6---------------|-----------------------|-----------------6---------------|
G|-------------7-------7-----------|-------------4---4-----|-------------7-------7-----------|
D|---------7---------------7-------|---------5-------------|---------7---------------7-------|
A|-----5-----------------------5---|-----5-----------------|-----5-----------------------5---|
E|---------------------------------|-3---------------------|---------------------------------|


E|-----------------------|---------------------------------|-----------------------|
B|-----------------------|-----------------6---------------|-----------------------|
G|-------------4---4-----|-------------7-------7-----------|-------------4---4-----|
D|---------5-------------|---------7---------------7-------|---------5-------------|
A|-----5-----------------|-----5-----------------------5---|-----5-----------------|
E|-3---------------------|---------------------------------|-3---------------------|


E|---------------------------------|------------------------------|---------------------------------|
B|-----------------6---------------|------------------------------|-----------------6---------------|
G|-------------7-------7-----------|-------------4----------------|-------------7-------7-----------|
D|---------7---------------7-------|---------5-------5------------|---------7---------------7-------|
A|-----5-----------------------5---|-----5---------------5--------|-----5-----------------------5---|
E|---------------------------------|-3-----------------------3----|---------------------------------|


E|------------------------------|---------------------------------|------------------------------|
B|------------------------------|-----------------6---------------|------------------------------|
G|-------------4----------------|-------------7-------7-----------|-------------4----------------|
D|---------5-------5------------|---------7---------------7-------|---------5-------5------------|
A|-----5---------------5--------|-----5-----------------------5---|-----5---------------5--------|
E|-3-----------------------3----|---------------------------------|-3-----------------------3----|


E|---------------------------------|------------------------------|---------------------------------|
B|-----------------6---------------|------------------------------|-----------------6---------------|
G|-------------7-------7-----------|-------------4----------------|-------------7-------7-----------|
D|---------7---------------7-------|---------5-------5------------|---------7---------------7-------|
A|-----5-----------------------5---|-----5---------------5--------|-----5-----------------------5---|
E|---------------------------------|-3-----------------------3----|---------------------------------|


E|-3---3---3---3----3----5---|-5---5---5---5---5----5----|-3---3---3---3----3----5---|
B|-3---3---3---3----5----6---|-6---6---6---6---6----6----|-3---3---3---3----5----6---|
G|-4---4---4---4----5----7---|-7---7---7---7---7----7----|-4---4---4---4----5----7---|
D|-5---5---5---5----5----7---|-7---7---7---7---7----7----|-5---5---5---5----5----7---|
A|-5---5---5---5----3----5---|-5---5---5---5---5----5----|-5---5---5---5----3----5---|
E|-3---3---3---3-------------|---------------------------|-3---3---3---3-------------|


E|-5---5---5---5---5----5----|-3---3---3---3----3----5---|-5---5---5---5---5----5----|
B|-6---6---6---6---6----6----|-3---3---3---3----5----6---|-6---6---6---6---6----6----|
G|-7---7---7---7---7----7----|-4---4---4---4----5----7---|-7---7---7---7---7----7----|
D|-7---7---7---7---7----7----|-5---5---5---5----5----7---|-7---7---7---7---7----7----|
A|-5---5---5---5---5----5----|-5---5---5---5----3----5---|-5---5---5---5---5----5----|
E|---------------------------|-3---3---3---3-------------|---------------------------|


E|-3---3---3---3----3----5---|-5---5---5---5---5----5----|-1---1---1---1----1----3---|
B|-3---3---3---3----5----6---|-6---6---6---6---6----6----|-1---1---1---1----1----5---|
G|-4---4---4---4----5----7---|-7---7---7---7---7----7----|-2---2---2---2----2----5---|
D|-5---5---5---5----5----7---|-7---7---7---7---7----7----|-3---3---3---3----3----5---|
A|-5---5---5---5----3----5---|-5---5---5---5---5----5----|-3---3---3---3----2----3---|
E|-3---3---3---3-------------|---------------------------|-1---1---1---1----1--------|


E|-3---3---3---3---3----3----|-1---1---1---1----1----3---|-3---3---3---3---3----3----|
B|-5---3---3---3---3----3----|-1---1---1---1----1----5---|-5---3---3---3---3----3----|
G|-5---4---4---4---4----4----|-2---2---2---2----2----5---|-5---4---4---4---4----4----|
D|-5---5---5---5---5----5----|-3---3---3---3----3----5---|-5---5---5---5---5----5----|
A|-3---5---5---5---5----5----|-3---3---3---3----2----3---|-3---5---5---5---5----5----|
E|-----3---3---3---3----3----|-1---1---1---1----1--------|-----3---3---3---3----3----|


E|-1---1---1---1----1----3---|-3---3---3---3---3----3----|-1---1---1---1----1----3---|
B|-1---1---1---1----1----5---|-5---3---3---3---3----3----|-1---1---1---1----1----5---|
G|-2---2---2---2----2----5---|-5---4---4---4---4----4----|-2---2---2---2----2----5---|
D|-3---3---3---3----3----5---|-5---5---5---5---5----5----|-3---3---3---3----3----5---|
A|-3---3---3---3----2----3---|-3---5---5---5---5----5----|-3---3---3---3----2----3---|
E|-1---1---1---1----1--------|-----3---3---3---3----3----|-1---1---1---1----1--------|


E|-3---3---3---3---3----3----|--------|--------|--------|--------|--------|--------|
B|-5---3---3---3---3----3----|--------|--------|--------|--------|--------|--------|
G|-5---4---4---4---4----4----|--------|--------|--------|--------|--------|--------|
D|-5---5---5---5---5----5----|--------|--------|--------|--------|--------|--------|
A|-3---5---5---5---5----5----|--------|--------|--------|--------|--------|--------|
E|-----3---3---3---3----3----|--------|--------|--------|--------|--------|--------|


E|--------|--------|
B|--------|--------|
G|--------|--------|
D|--------|--------|
A|--------|--------|
E|--------|--------|





Track 2: Mandolin

E|--------|--------|--------|--------|---------------------------|---------------------------|
A|--------|--------|--------|--------|---------------------------|---------------------------|
D|--------|--------|--------|--------|-9---9---9---9----12---12--|-12--12--12--9---9----9----|
G|--------|--------|--------|--------|-12--12--12--10---10---10--|-10--10--10--10--10---10---|


E|---------------------------|---------------------------|---------------------------|
A|---------------------------|---------------------------|---------------------------|
D|-9---9---9---9----12---12--|-12--12--12--9---9----9----|-9---9---9---9----12---12--|
G|-12--12--12--10---10---10--|-10--10--10--10--10---10---|-12--12--12--10---10---10--|


E|---------------------------|---------------------------|---------------------------|
A|---------------------------|---------------------------|---------------------------|
D|-12--12--12--9---9----9----|-9---9---9---9----12---12--|-12--12--12--9---9----9----|
G|-10--10--10--10--10---10---|-12--12--12--10---10---10--|-10--10--10--10--10---10---|


E|------------------------------|---------------------------|------------------------------|
A|------------------------------|---------------------------|------------------------------|
D|-------------9---9--------12--|-12--10--9-------9----10---|-------------9---9--------9---|
G|-9---10--12----------12-------|-------------12------------|-9---10--12----------12-------|


E|------------------------------|------------------------------|---------------------------|
A|---------7---8----------------|------------------------------|---------------------------|
D|-10--12----------10--10--12---|-------------9---9--------12--|-12--10--9-------9----10---|
G|------------------------------|-9---10--12----------12-------|-------------12------------|


E|------------------------------|------------------------------|-3---3---3---3---3---3---3---3---|
A|------------------------------|---------7---8----------------|-2---2---2---2---2---2---2---2---|
D|-------------9---9--------9---|-10--12----------10--10--12---|-0---0---0---0---0---0---0---0---|
G|-9---10--12----------12-------|------------------------------|-0---0---0---0---0---0---0---0---|


E|-3---1---1---1---1--1--1---1---1---|-3---3---3---3---3---3---3---3---|-3---1---1---1---1--1--1---1---1---|
A|-2---0---0---0---0--0--0---0---0---|-2---2---2---2---2---2---2---2---|-2---0---0---0---0--0--0---0---0---|
D|-0---0---0---0---0--0--0---0---0---|-0---0---0---0---0---0---0---0---|-0---0---0---0---0--0--0---0---0---|
G|-0---------------------------------|-0---0---0---0---0---0---0---0---|-0---------------------------------|


E|-3---3---3---3---3---3---3---3---|-3---1---1---1---1--1--1---1---1---|-3---3---3---3---3---3---3---3---|
A|-2---2---2---2---2---2---2---2---|-2---0---0---0---0--0--0---0---0---|-2---2---2---2---2---2---2---2---|
D|-0---0---0---0---0---0---0---0---|-0---0---0---0---0--0--0---0---0---|-0---0---0---0---0---0---0---0---|
G|-0---0---0---0---0---0---0---0---|-0---------------------------------|-0---0---0---0---0---0---0---0---|


E|-3---1---1---1---1--1--1---1---1---|--------------------------------|---------------------------|
A|-2---0---0---0---0--0--0---0---0---|--------------------------------|---------------------------|
D|-0---0---0---0---0--0--0---0---0---|---------------9---9--------12--|-12--10--9-------9----10---|
G|-0---------------------------------|-9---9--10-12----------12-------|-------------12------------|


E|--------------------------------|-----------------------------|--------------------------------|
A|--------------------------------|-----------7---8-------------|--------------------------------|
D|---------------9---9--------9---|-9--10-12----------10---12---|---------------9---9--------12--|
G|-9---9--10-12----------12-------|-----------------------------|-9---9--10-12----------12-------|


E|---------------------------|--------------------------------|-----------------------------|
A|---------------------------|--------------------------------|-----------7---8-------------|
D|-12--10--9-------9----10---|---------------9---9--------9---|-9--10-12----------10---12---|
G|-------------12------------|-9---9--10-12----------12-------|-----------------------------|


E|--------|--------|--------|--------|--------|--------|--------|--------|--------|
A|--------|--------|--------|--------|--------|--------|--------|--------|--------|
D|--------|--------|--------|--------|--------|--------|--------|--------|--------|
G|--------|--------|--------|--------|--------|--------|--------|--------|--------|


E|--------|--------|--------|--------|--------|--------|--------|--------|--------|
A|--------|--------|--------|--------|--------|--------|--------|--------|--------|
D|--------|--------|--------|--------|--------|--------|--------|--------|--------|
G|--------|--------|--------|--------|--------|--------|--------|--------|--------|


E|--------|--------|--------|--------|--------|--------|--------|--------|--------|
A|--------|--------|--------|--------|--------|--------|--------|--------|--------|
D|--------|--------|--------|--------|--------|--------|--------|--------|--------|
G|--------|--------|--------|--------|--------|--------|--------|--------|--------|


E|--------|--------|--------|--------|--------|--------|--------|--------|--------|
A|--------|--------|--------|--------|--------|--------|--------|--------|--------|
D|--------|--------|--------|--------|--------|--------|--------|--------|--------|
G|--------|--------|--------|--------|--------|--------|--------|--------|--------|


E|--------|--------|--------|--------|--------|--------|--------|--------|--------|
A|--------|--------|--------|--------|--------|--------|--------|--------|--------|
D|--------|--------|--------|--------|--------|--------|--------|--------|--------|
G|--------|--------|--------|--------|--------|--------|--------|--------|--------|


E|--------|--------|--------|--------|--------|--------|--------|--------|--------|
A|--------|--------|--------|--------|--------|--------|--------|--------|--------|
D|--------|--------|--------|--------|--------|--------|--------|--------|--------|
G|--------|--------|--------|--------|--------|--------|--------|--------|--------|


E|--------|--------|--------|--------|--------|--------|--------|--------|--------|
A|--------|--------|--------|--------|--------|--------|--------|--------|--------|
D|--------|--------|--------|--------|--------|--------|--------|--------|--------|
G|--------|--------|--------|--------|--------|--------|--------|--------|--------|


E|--------|---------------------|---------------------|---------------------|---------------------|
A|--------|---------------------|---------------------|---------------------|---------------------|
D|--------|------5----9---9-----|------5----9---9-----|------3----7---7-----|------3----7---7-----|
G|--------|-7-------------------|-7-------------------|-5-------------------|-5-------------------|


E|---------------------|---------------------|---------------------|---------------------|
A|---------------------|---------------------|---------------------|---------------------|
D|------5----9---9-----|------5----9---9-----|------3----7---7-----|------3----7---7-----|
G|-7-------------------|-7-------------------|-5-------------------|-5-------------------|


E|----------------------------|---------------------------------|----------------7--8--7---5---|
A|----------------8----7---5--|---------------------------------|------------------------------|
D|------5----9----------------|-9---10--9---12--12--------------|------3----7------------------|
G|-7--------------------------|---------------------10--9---10--|-5----------------------------|


E|---------------------------------|------------------------------|-----------------------------------------|
A|-10--5---7---8---7---5---8---10--|------------------------------|-----------------------------------------|
D|---------------------------------|------5----9----12-10--9------|-9--10-9-----9--10-9-----12--10--9-------|
G|---------------------------------|-7------------------------12--|----------12----------12--------------12-|


E|------------------------|-----------------------------|---------------------|-----------------------------|
A|------------------------|-----------------------------|---------------------|-----------------------------|
D|------9--------9--------|------3----7--------3----7---|------5----9---9-----|------5----9--------5----9---|
G|-10-------10-------10---|-5-------------5-------------|-7-------------------|-7-------------7-------------|


E|---------------------|-----------------------------|---------------------|-----------------------------|
A|---------------------|-----------------------------|---------------------|-----------------------------|
D|------3----7---7-----|------3----7--------3----7---|------5----9---9-----|------5----9--------5----9---|
G|-5-------------------|-5-------------5-------------|-7-------------------|-7-------------7-------------|


E|---------------------|-----------------------------|---------------------|-----------------------------|
A|---------------------|-----------------------------|---------------------|-----------------------------|
D|------3----7---7-----|------3----7--------3----7---|------5----9---9-----|------5----9--------5----9---|
G|-5-------------------|-5-------------5-------------|-7-------------------|-7-------------7-------------|


E|---------------------|-----------------------------|---------------------|-----------------------------|
A|---------------------|-----------------------------|---------------------|-----------------------------|
D|------3----7---7-----|------3----7--------3----7---|------5----9---9-----|------5----9--------5----9---|
G|-5-------------------|-5-------------5-------------|-7-------------------|-7-------------7-------------|


E|---------------------|-----------------------------|----------------------------|
A|---------------------|-----------------------------|----------------------------|
D|------3----7---7-----|------3----7--------3----7---|------5----9---9---7---9----|
G|-5-------------------|-5-------------5-------------|-7--------------------------|


E|---------------------------------|------------------|----------------------------------|
A|---------------------------------|------------------|----------------------------------|
D|-9---9---9---7---9---10--9---7---|-10----9-----7----|-5---7---9----9--7--5-------------|
G|---------------------------------|------------------|-----------------------10-9---10--|


E|--------------------------------|---------------------------------|--------|-----------------------------|
A|--------------------------------|-------------7---5-------5-------|--------|-----------------------------|
D|-5----10--10--9---10-12-10-9----|-----5---7-----------7-------7---|--------|-9----5--------9----5--------|
G|--------------------------------|-7-------------------------------|-5------|-----------7-------------7---|


E|---------------------|-----------------------------|---------------------|-----------------------------|
A|---------------------|-----------------------------|---------------------|-----------------------------|
D|------5----9---9-----|------5----9--------5----9---|------3----7---7-----|------3----7--------3----7---|
G|-7-------------------|-7-------------7-------------|-5-------------------|-5-------------5-------------|


E|---------------------|-----------------------------|---------------------|-----------------------------|
A|---------------------|-----------------------------|---------------------|-----------------------------|
D|------5----9---9-----|------5----9--------5----9---|------3----7---7-----|------3----7--------3----7---|
G|-7-------------------|-7-------------7-------------|-5-------------------|-5-------------5-------------|


E|--------|--------|--------|--------|---------------------------------------|-----------------------------------------|
A|--------|--------|--------|--------|---------------------------------------|-----------------------------------------|
D|--------|--------|--------|--------|-9---9---9--9--9---9--9--12--12-12-12--|-12-12-12--12-12-9---9---9--9--9---9--9--|
G|--------|--------|--------|--------|-12--12--12-12-10--10-10-10--10-10-10--|-10-10-10--10-10-10--10--10-10-10--10-10-|


E|---------------------------------------|-----------------------------------------|
A|---------------------------------------|-----------------------------------------|
D|-9---9---9--9--9---9--9--12--12-12-12--|-12-12-12--12-12-9---9---9--9--9---9--9--|
G|-12--12--12-12-10--10-10-10--10-10-10--|-10-10-10--10-10-10--10--10-10-10--10-10-|


E|---------------------------------------|-----------------------------------------|
A|---------------------------------------|-----------------------------------------|
D|-9---9---9--9--9---9--9--12--12-12-12--|-12-12-12--12-12-9---9---9--9--9---9--9--|
G|-12--12--12-12-10--10-10-10--10-10-10--|-10-10-10--10-10-10--10--10-10-10--10-10-|


E|---------------------------------------|-----------------------------------------|
A|---------------------------------------|-----------------------------------------|
D|-9---9---9--9--9---9--9--12--12-12-12--|-12-12-12--12-12-9---9---9--9--9---9--9--|
G|-12--12--12-12-10--10-10-10--10-10-10--|-10-10-10--10-10-10--10--10-10-10--10-10-|


E|------------------------|----------------------|------------------------|---------------------------|
A|------------------------|----------------------|------------------------|------7---8----------------|
D|---------------10---9---|-9-----7----9----10---|---------------10---9---|-9------------10--10--12---|
G|-9---10---12------------|----------------------|-9---10---12------------|---------------------------|


E|------------------------|----------------------|------------------------|---------------------------|
A|------------------------|----------------------|------------------------|------7---8----------------|
D|---------------10---9---|-9-----7----9----10---|---------------10---9---|-9------------10--10--12---|
G|-9---10---12------------|----------------------|-9---10---12------------|---------------------------|


E|-3------|-1------|-3------|-1------|-3------|-1------|-3------|-1------|--------|
A|-2------|-0------|-2------|-0------|-2------|-0------|-2------|-0------|--------|
D|-0------|-0------|-0------|-0------|-0------|-0------|-0------|-0------|--------|
G|-0------|--------|-0------|--------|-0------|--------|-0------|--------|--------|


E|--------|--------|--------|--------|--------|--------|--------|--------|--------|
A|--------|--------|--------|--------|--------|--------|--------|--------|--------|
D|--------|--------|--------|--------|--------|--------|--------|--------|--------|
G|--------|--------|--------|--------|--------|--------|--------|--------|--------|


E|--------|--------|--------|--------|--------|--------|---------------------------|
A|--------|--------|--------|--------|--------|--------|---------------------------|
D|--------|--------|--------|--------|--------|--------|-9---9---9---9----12---12--|
G|--------|--------|--------|--------|--------|--------|-12--12--12--10---10---10--|


E|---------------------------|---------------------------|-----------------------|
A|---------------------------|---------------------------|-----------------------|
D|-12--12--12--9---9----9----|-9---9---9---9----12---12--|-12--12--12--9---9-----|
G|-10--10--10--10--10---10---|-12--12--12--10---10---10--|-10--10--10--10--10----|


E|---------------------------|---------------------------|---------------------------|
A|---------------------------|---------------------------|---------------------------|
D|-9---9---9---9----12---12--|-12--12--12--9---9----9----|-9---9---9---9----12---12--|
G|-12--12--12--10---10---10--|-10--10--10--10--10---10---|-12--12--12--10---10---10--|


E|-----------------------|
A|-----------------------|
D|-----12--12--9---9-----|
G|-----10--10--10--10----|





Track 3: Guitar

E|--------|--------|--------|--------|--------|--------|--------|--------|--------|
B|--------|--------|--------|--------|--------|--------|--------|--------|--------|
G|--------|--------|--------|--------|--------|--------|--------|--------|--------|
D|--------|--------|--------|--------|--------|--------|--------|--------|--------|
A|--------|--------|--------|--------|--------|--------|--------|--------|--------|
E|--------|--------|--------|--------|--------|--------|--------|--------|--------|


E|--------|--------|--------|--------|--------|--------|--------|--------|--------|
B|--------|--------|--------|--------|--------|--------|--------|--------|--------|
G|--------|--------|--------|--------|--------|--------|--------|--------|--------|
D|--------|--------|--------|--------|--------|--------|--------|--------|--------|
A|--------|--------|--------|--------|--------|--------|--------|--------|--------|
E|--------|--------|--------|--------|--------|--------|--------|--------|--------|


E|--------|--------|--------|--------|--------|--------|--------|--------|--------|
B|--------|--------|--------|--------|--------|--------|--------|--------|--------|
G|--------|--------|--------|--------|--------|--------|--------|--------|--------|
D|--------|--------|--------|--------|--------|--------|--------|--------|--------|
A|--------|--------|--------|--------|--------|--------|--------|--------|--------|
E|--------|--------|--------|--------|--------|--------|--------|--------|--------|


E|--------|--------|--------|--------|--------|--------|--------|--------|--------|
B|--------|--------|--------|--------|--------|--------|--------|--------|--------|
G|--------|--------|--------|--------|--------|--------|--------|--------|--------|
D|--------|--------|--------|--------|--------|--------|--------|--------|--------|
A|--------|--------|--------|--------|--------|--------|--------|--------|--------|
E|--------|--------|--------|--------|--------|--------|--------|--------|--------|


E|---------------------------------------|-----------------------------------------|
B|---------------------------------------|-----------------------------------------|
G|-9---9---9--9--9---9--9--12--12-12-12--|-12-12-12--12-12-9---9---9--9--9---9--9--|
D|-12--12--12-12-10--10-10-10--10-10-10--|-10-10-10--10-10-10--10--10-10-10--10-10-|
A|---------------------------------------|-----------------------------------------|
E|---------------------------------------|-----------------------------------------|


E|---------------------------------------|-----------------------------------------|
B|---------------------------------------|-----------------------------------------|
G|-9---9---9--9--9---9--9--12--12-12-12--|-12-12-12--12-12-9---9---9--9--9---9--9--|
D|-12--12--12-12-10--10-10-10--10-10-10--|-10-10-10--10-10-10--10--10-10-10--10-10-|
A|---------------------------------------|-----------------------------------------|
E|---------------------------------------|-----------------------------------------|


E|---------------------------------------|-----------------------------------------|
B|---------------------------------------|-----------------------------------------|
G|-9---9---9--9--9---9--9--12--12-12-12--|-12-12-12--12-12-9---9---9--9--9---9--9--|
D|-12--12--12-12-10--10-10-10--10-10-10--|-10-10-10--10-10-10--10--10-10-10--10-10-|
A|---------------------------------------|-----------------------------------------|
E|---------------------------------------|-----------------------------------------|


E|---------------------------------------|-----------------------------------------|
B|---------------------------------------|-----------------------------------------|
G|-9---9---9--9--9---9--9--12--12-12-12--|-12-12-12--12-12-9---9---9--9--9---9--9--|
D|-12--12--12-12-10--10-10-10--10-10-10--|-10-10-10--10-10-10--10--10-10-10--10-10-|
A|---------------------------------------|-----------------------------------------|
E|---------------------------------------|-----------------------------------------|


E|--------|--------|--------|--------|--------|--------|--------|--------|--------|
B|--------|--------|--------|--------|--------|--------|--------|--------|--------|
G|--------|--------|--------|--------|--------|--------|--------|--------|--------|
D|--------|--------|--------|--------|--------|--------|--------|--------|--------|
A|--------|--------|--------|--------|--------|--------|--------|--------|--------|
E|--------|--------|--------|--------|--------|--------|--------|--------|--------|


E|--------|--------|--------|--------|--------|--------|--------|--------|--------|
B|--------|--------|--------|--------|--------|--------|--------|--------|--------|
G|--------|--------|--------|--------|--------|--------|--------|--------|--------|
D|--------|--------|--------|--------|--------|--------|--------|--------|--------|
A|--------|--------|--------|--------|--------|--------|--------|--------|--------|
E|--------|--------|--------|--------|--------|--------|--------|--------|--------|


E|--------|--------|--------|--------|--------|--------|--------|--------|--------|
B|--------|--------|--------|--------|--------|--------|--------|--------|--------|
G|--------|--------|--------|--------|--------|--------|--------|--------|--------|
D|--------|--------|--------|--------|--------|--------|--------|--------|--------|
A|--------|--------|--------|--------|--------|--------|--------|--------|--------|
E|--------|--------|--------|--------|--------|--------|--------|--------|--------|


E|--------|--------|--------|--------|--------|--------|--------|--------|--------|
B|--------|--------|--------|--------|--------|--------|--------|--------|--------|
G|--------|--------|--------|--------|--------|--------|--------|--------|--------|
D|--------|--------|--------|--------|--------|--------|--------|--------|--------|
A|--------|--------|--------|--------|--------|--------|--------|--------|--------|
E|--------|--------|--------|--------|--------|--------|--------|--------|--------|


E|--------|--------|--------|--------|--------|--------|--------|--------|--------|
B|--------|--------|--------|--------|--------|--------|--------|--------|--------|
G|--------|--------|--------|--------|--------|--------|--------|--------|--------|
D|--------|--------|--------|--------|--------|--------|--------|--------|--------|
A|--------|--------|--------|--------|--------|--------|--------|--------|--------|
E|--------|--------|--------|--------|--------|--------|--------|--------|--------|


E|--------|--------|--------|--------|--------|--------|--------|--------|--------|
B|--------|--------|--------|--------|--------|--------|--------|--------|--------|
G|--------|--------|--------|--------|--------|--------|--------|--------|--------|
D|--------|--------|--------|--------|--------|--------|--------|--------|--------|
A|--------|--------|--------|--------|--------|--------|--------|--------|--------|
E|--------|--------|--------|--------|--------|--------|--------|--------|--------|


E|--------|--------|--------|--------|--------|--------|--------|--------|--------|
B|--------|--------|--------|--------|--------|--------|--------|--------|--------|
G|--------|--------|--------|--------|--------|--------|--------|--------|--------|
D|--------|--------|--------|--------|--------|--------|--------|--------|--------|
A|--------|--------|--------|--------|--------|--------|--------|--------|--------|
E|--------|--------|--------|--------|--------|--------|--------|--------|--------|


E|--------|--------|--------|--------|--------|--------|--------|--------|--------|
B|--------|--------|--------|--------|--------|--------|--------|--------|--------|
G|--------|--------|--------|--------|--------|--------|--------|--------|--------|
D|--------|--------|--------|--------|--------|--------|--------|--------|--------|
A|--------|--------|--------|--------|--------|--------|--------|--------|--------|
E|--------|--------|--------|--------|--------|--------|--------|--------|--------|


E|--------|--------|--------|--------|--------|--------|--------|--------|--------|
B|--------|--------|--------|--------|--------|--------|--------|--------|--------|
G|--------|--------|--------|--------|--------|--------|--------|--------|--------|
D|--------|--------|--------|--------|--------|--------|--------|--------|--------|
A|--------|--------|--------|--------|--------|--------|--------|--------|--------|
E|--------|--------|--------|--------|--------|--------|--------|--------|--------|


E|--------|--------|--------|--------|--------|--------|--------|--------|--------|
B|--------|--------|--------|--------|--------|--------|--------|--------|--------|
G|--------|--------|--------|--------|--------|--------|--------|--------|--------|
D|--------|--------|--------|--------|--------|--------|--------|--------|--------|
A|--------|--------|--------|--------|--------|--------|--------|--------|--------|
E|--------|--------|--------|--------|--------|--------|--------|--------|--------|


E|--------|--------|--------|--------|--------|--------|--------|--------|--------|
B|--------|--------|--------|--------|--------|--------|--------|--------|--------|
G|--------|--------|--------|--------|--------|--------|--------|--------|--------|
D|--------|--------|--------|--------|--------|--------|--------|--------|--------|
A|--------|--------|--------|--------|--------|--------|--------|--------|--------|
E|--------|--------|--------|--------|--------|--------|--------|--------|--------|


E|--------|--------|--------|--------|--------|--------|--------|--------|--------|
B|--------|--------|--------|--------|--------|--------|--------|--------|--------|
G|--------|--------|--------|--------|--------|--------|--------|--------|--------|
D|--------|--------|--------|--------|--------|--------|--------|--------|--------|
A|--------|--------|--------|--------|--------|--------|--------|--------|--------|
E|--------|--------|--------|--------|--------|--------|--------|--------|--------|


E|--------|--------|--------|--------|--------|--------|--------|--------|--------|
B|--------|--------|--------|--------|--------|--------|--------|--------|--------|
G|--------|--------|--------|--------|--------|--------|--------|--------|--------|
D|--------|--------|--------|--------|--------|--------|--------|--------|--------|
A|--------|--------|--------|--------|--------|--------|--------|--------|--------|
E|--------|--------|--------|--------|--------|--------|--------|--------|--------|


E|--------|--------|--------|--------|--------|--------|--------|--------|--------|
B|--------|--------|--------|--------|--------|--------|--------|--------|--------|
G|--------|--------|--------|--------|--------|--------|--------|--------|--------|
D|--------|--------|--------|--------|--------|--------|--------|--------|--------|
A|--------|--------|--------|--------|--------|--------|--------|--------|--------|
E|--------|--------|--------|--------|--------|--------|--------|--------|--------|


E|--------|--------|--------|--------|--------|--------|--------|--------|--------|
B|--------|--------|--------|--------|--------|--------|--------|--------|--------|
G|--------|--------|--------|--------|--------|--------|--------|--------|--------|
D|--------|--------|--------|--------|--------|--------|--------|--------|--------|
A|--------|--------|--------|--------|--------|--------|--------|--------|--------|
E|--------|--------|--------|--------|--------|--------|--------|--------|--------|


E|--------|--------|--------|--------|--------|--------|--------|--------|--------|
B|--------|--------|--------|--------|--------|--------|--------|--------|--------|
G|--------|--------|--------|--------|--------|--------|--------|--------|--------|
D|--------|--------|--------|--------|--------|--------|--------|--------|--------|
A|--------|--------|--------|--------|--------|--------|--------|--------|--------|
E|--------|--------|--------|--------|--------|--------|--------|--------|--------|


E|--------|--------|--------|--------|--------|--------|--------|--------|--------|
B|--------|--------|--------|--------|--------|--------|--------|--------|--------|
G|--------|--------|--------|--------|--------|--------|--------|--------|--------|
D|--------|--------|--------|--------|--------|--------|--------|--------|--------|
A|--------|--------|--------|--------|--------|--------|--------|--------|--------|
E|--------|--------|--------|--------|--------|--------|--------|--------|--------|


E|--------|--------|--------|
B|--------|--------|--------|
G|--------|--------|--------|
D|--------|--------|--------|
A|--------|--------|--------|
E|--------|--------|--------|





Track 4: Guitar

E|--------|--------|--------|--------|--------|--------|--------|--------|--------|
B|--------|--------|--------|--------|--------|--------|--------|--------|--------|
G|--------|--------|--------|--------|--------|--------|--------|--------|--------|
D|--------|--------|--------|--------|--------|--------|--------|--------|--------|
A|--------|--------|--------|--------|--------|--------|--------|--------|--------|
E|--------|--------|--------|--------|--------|--------|--------|--------|--------|


E|--------|--------|--------|--------|--------|--------|--------|--------|--------|
B|--------|--------|--------|--------|--------|--------|--------|--------|--------|
G|--------|--------|--------|--------|--------|--------|--------|--------|--------|
D|--------|--------|--------|--------|--------|--------|--------|--------|--------|
A|--------|--------|--------|--------|--------|--------|--------|--------|--------|
E|--------|--------|--------|--------|--------|--------|--------|--------|--------|


E|--------|--------|--------|--------|--------|--------|--------|--------|--------|
B|--------|--------|--------|--------|--------|--------|--------|--------|--------|
G|--------|--------|--------|--------|--------|--------|--------|--------|--------|
D|--------|--------|--------|--------|--------|--------|--------|--------|--------|
A|--------|--------|--------|--------|--------|--------|--------|--------|--------|
E|--------|--------|--------|--------|--------|--------|--------|--------|--------|


E|--------|--------|--------|--------|--------|--------|--------|--------|--------|
B|--------|--------|--------|--------|--------|--------|--------|--------|--------|
G|--------|--------|--------|--------|--------|--------|--------|--------|--------|
D|--------|--------|--------|--------|--------|--------|--------|--------|--------|
A|--------|--------|--------|--------|--------|--------|--------|--------|--------|
E|--------|--------|--------|--------|--------|--------|--------|--------|--------|


E|--------|--------|--------|--------|--------|--------|--------|--------|-3---3---3---3---3---0---0---1---|
B|--------|--------|--------|--------|--------|--------|--------|--------|-2---2---2---2---2---3---3---0---|
G|--------|--------|--------|--------|--------|--------|--------|--------|-0---0---0---0---0---2---2---0---|
D|--------|--------|--------|--------|--------|--------|--------|--------|-0---0---0---0---0---5---5-------|
A|--------|--------|--------|--------|--------|--------|--------|--------|---------------------------------|
E|--------|--------|--------|--------|--------|--------|--------|--------|---------------------------------|


E|-1---1---1---1---1--1--1---1---1---|-3---3---3---3---3---0---0---1---|-1---1---1---1---1--1--1---1---1---|
B|-0---0---0---0---0--0--0---0---0---|-2---2---2---2---2---3---3---0---|-0---0---0---0---0--0--0---0---0---|
G|-0---0---0---0---0--0--0---0---0---|-0---0---0---0---0---2---2---0---|-0---0---0---0---0--0--0---0---0---|
D|-----------------------------------|-0---0---0---0---0---5---5---0---|-0---------------------------------|
A|-----------------------------------|---------------------------------|-----------------------------------|
E|-----------------------------------|---------------------------------|-----------------------------------|


E|-3---3---3---3---3---0---0---1---|-1---1---1---1---1--1--1---1---1---|-3---3---3---3---3---0---0---1---|
B|-2---2---2---2---2---3---3---0---|-0---0---0---0---0--0--0---0---0---|-2---2---2---2---2---3---3---0---|
G|-0---0---0---0---0---2---2---0---|-0---0---0---0---0--0--0---0---0---|-0---0---0---0---0---2---2---0---|
D|-0---0---0---0---0---5---5-------|-----------------------------------|-0---0---0---0---0---5---5---0---|
A|---------------------------------|-----------------------------------|---------------------------------|
E|---------------------------------|-----------------------------------|---------------------------------|


E|-1---1---1---1---1--1--1---1---1---|-1---1---1---1---1--1--1---1---0---|-0---3---3---3---3---3--3--3---3---|
B|-0---0---0---0---0--0--0---0---0---|-0---0---0---0---0--0--0---0---3---|-3---2---2---2---2---2--2--2---2---|
G|-0---0---0---0---0--0--0---0---0---|-3---3---3---3---3--3--3---3---2---|-2---0---0---0---0---0--0--0---0---|
D|-0---------------------------------|-------------------------------5---|-5---0---0---0---0---0--0--0---0---|
A|-----------------------------------|-----------------------------------|-----------------------------------|
E|-----------------------------------|-----------------------------------|-----------------------------------|


E|-1---1---1---1---1--1--1---1---0---|-0---3---3---3---3---3--3--3---3---|-1---1---1---1---1--1--1---1---0---|
B|-0---0---0---0---0--0--0---0---3---|-3---2---2---2---2---2--2--2---2---|-0---0---0---0---0--0--0---0---3---|
G|-3---3---3---3---3--3--3---3---2---|-2---0---0---0---0---0--0--0---0---|-3---3---3---3---3--3--3---3---2---|
D|-------------------------------5---|-5---0---0---0---0---0--0--0---0---|-------------------------------5---|
A|-----------------------------------|-----------------------------------|-----------------------------------|
E|-----------------------------------|-----------------------------------|-----------------------------------|


E|-0---3---3---3---3---3--3--3---3---|-1---1---1---1---1--1--1---1---0---|-0---3---3---3---3---3--3--3---3---|
B|-3---2---2---2---2---2--2--2---2---|-0---0---0---0---0--0--0---0---3---|-3---2---2---2---2---2--2--2---2---|
G|-2---0---0---0---0---0--0--0---0---|-3---3---3---3---3--3--3---3---2---|-2---0---0---0---0---0--0--0---0---|
D|-5---0---0---0---0---0--0--0---0---|-------------------------------5---|-5---0---0---0---0---0--0--0---0---|
A|-----------------------------------|-----------------------------------|-----------------------------------|
E|-----------------------------------|-----------------------------------|-----------------------------------|


E|------------------------------|---------------------------|------------------------------|
B|------------------------------|---------------------------|------------------------------|
G|-------------9---9--------12--|-12--10--9-------9----10---|-------------9---9--------9---|
D|-9---10--12----------12-------|-------------12------------|-9---10--12----------12-------|
A|------------------------------|---------------------------|------------------------------|
E|------------------------------|---------------------------|------------------------------|


E|------------------------------|------------------------------|---------------------------|
B|---------7---8----------------|------------------------------|---------------------------|
G|-10--12----------10--10--12---|-------------9---9--------12--|-12--10--9-------9----10---|
D|------------------------------|-9---10--12----------12-------|-------------12------------|
A|------------------------------|------------------------------|---------------------------|
E|------------------------------|------------------------------|---------------------------|


E|------------------------------|------------------------------|-3---3---3---3---3---3---3---3---|
B|------------------------------|---------7---8----------------|-2---2---2---2---2---2---2---2---|
G|-------------9---9--------9---|-10--12----------10--10--12---|-0---0---0---0---0---0---0---0---|
D|-9---10--12----------12-------|------------------------------|-0---0---0---0---0---0---0---0---|
A|------------------------------|------------------------------|---------------------------------|
E|------------------------------|------------------------------|---------------------------------|


E|-3---1---1---1---1--1--1---1---1---|-3---3---3---3---3---3---3---3---|-3---1---1---1---1--1--1---1---1---|
B|-2---0---0---0---0--0--0---0---0---|-2---2---2---2---2---2---2---2---|-2---0---0---0---0--0--0---0---0---|
G|-0---0---0---0---0--0--0---0---0---|-0---0---0---0---0---0---0---0---|-0---0---0---0---0--0--0---0---0---|
D|-0---------------------------------|-0---0---0---0---0---0---0---0---|-0---------------------------------|
A|-----------------------------------|---------------------------------|-----------------------------------|
E|-----------------------------------|---------------------------------|-----------------------------------|


E|-3---3---3---3---3---3---3---3---|-3---1---1---1---1--1--1---1---1---|-3---3---3---3---3---3---3---3---|
B|-2---2---2---2---2---2---2---2---|-2---0---0---0---0--0--0---0---0---|-2---2---2---2---2---2---2---2---|
G|-0---0---0---0---0---0---0---0---|-0---0---0---0---0--0--0---0---0---|-0---0---0---0---0---0---0---0---|
D|-0---0---0---0---0---0---0---0---|-0---------------------------------|-0---0---0---0---0---0---0---0---|
A|---------------------------------|-----------------------------------|---------------------------------|
E|---------------------------------|-----------------------------------|---------------------------------|


E|-3---1---1---1---1--1--1---1---1---|--------------------------------|---------------------------|
B|-2---0---0---0---0--0--0---0---0---|--------------------------------|---------------------------|
G|-0---0---0---0---0--0--0---0---0---|---------------9---9--------12--|-12--10--9-------9----10---|
D|-0---------------------------------|-9---9--10-12----------12-------|-------------12------------|
A|-----------------------------------|--------------------------------|---------------------------|
E|-----------------------------------|--------------------------------|---------------------------|


E|--------------------------------|-----------------------------|--------------------------------|
B|--------------------------------|-----------7---8-------------|--------------------------------|
G|---------------9---9--------9---|-9--10-12----------10---12---|---------------9---9--------12--|
D|-9---9--10-12----------12-------|-----------------------------|-9---9--10-12----------12-------|
A|--------------------------------|-----------------------------|--------------------------------|
E|--------------------------------|-----------------------------|--------------------------------|


E|---------------------------|--------------------------------|-----------------------------|
B|---------------------------|--------------------------------|-----------7---8-------------|
G|-12--10--9-------9----10---|---------------9---9--------9---|-9--10-12----------10---12---|
D|-------------12------------|-9---9--10-12----------12-------|-----------------------------|
A|---------------------------|--------------------------------|-----------------------------|
E|---------------------------|--------------------------------|-----------------------------|


E|--------|--------|--------|--------|--------|--------|--------|--------|--------|
B|--------|--------|--------|--------|--------|--------|--------|--------|--------|
G|--------|--------|--------|--------|--------|--------|--------|--------|--------|
D|--------|--------|--------|--------|--------|--------|--------|--------|--------|
A|--------|--------|--------|--------|--------|--------|--------|--------|--------|
E|--------|--------|--------|--------|--------|--------|--------|--------|--------|


E|--------|--------|--------|--------|--------|--------|--------|--------|--------|
B|--------|--------|--------|--------|--------|--------|--------|--------|--------|
G|--------|--------|--------|--------|--------|--------|--------|--------|--------|
D|--------|--------|--------|--------|--------|--------|--------|--------|--------|
A|--------|--------|--------|--------|--------|--------|--------|--------|--------|
E|--------|--------|--------|--------|--------|--------|--------|--------|--------|


E|--------|--------|--------|--------|--------|--------|--------|--------|--------|
B|--------|--------|--------|--------|--------|--------|--------|--------|--------|
G|--------|--------|--------|--------|--------|--------|--------|--------|--------|
D|--------|--------|--------|--------|--------|--------|--------|--------|--------|
A|--------|--------|--------|--------|--------|--------|--------|--------|--------|
E|--------|--------|--------|--------|--------|--------|--------|--------|--------|


E|--------|--------|--------|--------|--------|--------|--------|--------|--------|
B|--------|--------|--------|--------|--------|--------|--------|--------|--------|
G|--------|--------|--------|--------|--------|--------|--------|--------|--------|
D|--------|--------|--------|--------|--------|--------|--------|--------|--------|
A|--------|--------|--------|--------|--------|--------|--------|--------|--------|
E|--------|--------|--------|--------|--------|--------|--------|--------|--------|


E|--------|--------|--------|--------|--------|--------|--------|--------|--------|
B|--------|--------|--------|--------|--------|--------|--------|--------|--------|
G|--------|--------|--------|--------|--------|--------|--------|--------|--------|
D|--------|--------|--------|--------|--------|--------|--------|--------|--------|
A|--------|--------|--------|--------|--------|--------|--------|--------|--------|
E|--------|--------|--------|--------|--------|--------|--------|--------|--------|


E|--------|--------|--------|--------|--------|--------|--------|--------|--------|
B|--------|--------|--------|--------|--------|--------|--------|--------|--------|
G|--------|--------|--------|--------|--------|--------|--------|--------|--------|
D|--------|--------|--------|--------|--------|--------|--------|--------|--------|
A|--------|--------|--------|--------|--------|--------|--------|--------|--------|
E|--------|--------|--------|--------|--------|--------|--------|--------|--------|


E|--------|--------|--------|--------|--------|--------|--------|--------|--------|
B|--------|--------|--------|--------|--------|--------|--------|--------|--------|
G|--------|--------|--------|--------|--------|--------|--------|--------|--------|
D|--------|--------|--------|--------|--------|--------|--------|--------|--------|
A|--------|--------|--------|--------|--------|--------|--------|--------|--------|
E|--------|--------|--------|--------|--------|--------|--------|--------|--------|


E|--------|--------|--------|--------|--------|--------|--------|--------|--------|
B|--------|--------|--------|--------|--------|--------|--------|--------|--------|
G|--------|--------|--------|--------|--------|--------|--------|--------|--------|
D|--------|--------|--------|--------|--------|--------|--------|--------|--------|
A|--------|--------|--------|--------|--------|--------|--------|--------|--------|
E|--------|--------|--------|--------|--------|--------|--------|--------|--------|


E|--------|--------|--------|--------|--------|--------|--------|--------|--------|
B|--------|--------|--------|--------|--------|--------|--------|--------|--------|
G|--------|--------|--------|--------|--------|--------|--------|--------|--------|
D|--------|--------|--------|--------|--------|--------|--------|--------|--------|
A|--------|--------|--------|--------|--------|--------|--------|--------|--------|
E|--------|--------|--------|--------|--------|--------|--------|--------|--------|


E|--------|--------|--------|--------|--------|--------|--------|--------|--------|
B|--------|--------|--------|--------|--------|--------|--------|--------|--------|
G|--------|--------|--------|--------|--------|--------|--------|--------|--------|
D|--------|--------|--------|--------|--------|--------|--------|--------|--------|
A|--------|--------|--------|--------|--------|--------|--------|--------|--------|
E|--------|--------|--------|--------|--------|--------|--------|--------|--------|


E|--------|--------|--------|--------|--------|--------|--------|--------|--------|
B|--------|--------|--------|--------|--------|--------|--------|--------|--------|
G|--------|--------|--------|--------|--------|--------|--------|--------|--------|
D|--------|--------|--------|--------|--------|--------|--------|--------|--------|
A|--------|--------|--------|--------|--------|--------|--------|--------|--------|
E|--------|--------|--------|--------|--------|--------|--------|--------|--------|


E|--------|--------|--------|--------|--------|--------|--------|--------|--------|
B|--------|--------|--------|--------|--------|--------|--------|--------|--------|
G|--------|--------|--------|--------|--------|--------|--------|--------|--------|
D|--------|--------|--------|--------|--------|--------|--------|--------|--------|
A|--------|--------|--------|--------|--------|--------|--------|--------|--------|
E|--------|--------|--------|--------|--------|--------|--------|--------|--------|


E|--------|--------|--------|--------|--------|--------|--------|--------|
B|--------|--------|--------|--------|--------|--------|--------|--------|
G|--------|--------|--------|--------|--------|--------|--------|--------|
D|--------|--------|--------|--------|--------|--------|--------|--------|
A|--------|--------|--------|--------|--------|--------|--------|--------|
E|--------|--------|--------|--------|--------|--------|--------|--------|





Track 5: Guitar

E|--------|--------|--------|--------|--------|--------|--------|--------|--------|
B|--------|--------|--------|--------|--------|--------|--------|--------|--------|
G|--------|--------|--------|--------|--------|--------|--------|--------|--------|
D|--------|--------|--------|--------|--------|--------|--------|--------|--------|
A|--------|--------|--------|--------|--------|--------|--------|--------|--------|
E|--------|--------|--------|--------|--------|--------|--------|--------|--------|


E|--------|--------|--------|--------|--------|--------|--------|--------|--------|
B|--------|--------|--------|--------|--------|--------|--------|--------|--------|
G|--------|--------|--------|--------|--------|--------|--------|--------|--------|
D|--------|--------|--------|--------|--------|--------|--------|--------|--------|
A|--------|--------|--------|--------|--------|--------|--------|--------|--------|
E|--------|--------|--------|--------|--------|--------|--------|--------|--------|


E|--------|--------|--------|--------|--------|--------|--------|--------|--------|
B|--------|--------|--------|--------|--------|--------|--------|--------|--------|
G|--------|--------|--------|--------|--------|--------|--------|--------|--------|
D|--------|--------|--------|--------|--------|--------|--------|--------|--------|
A|--------|--------|--------|--------|--------|--------|--------|--------|--------|
E|--------|--------|--------|--------|--------|--------|--------|--------|--------|


E|--------|--------|--------|--------|--------|--------|--------|--------|--------|
B|--------|--------|--------|--------|--------|--------|--------|--------|--------|
G|--------|--------|--------|--------|--------|--------|--------|--------|--------|
D|--------|--------|--------|--------|--------|--------|--------|--------|--------|
A|--------|--------|--------|--------|--------|--------|--------|--------|--------|
E|--------|--------|--------|--------|--------|--------|--------|--------|--------|


E|--------|--------|--------|--------|--------|--------|--------|--------|--------|
B|--------|--------|--------|--------|--------|--------|--------|--------|--------|
G|--------|--------|--------|--------|--------|--------|--------|--------|--------|
D|--------|--------|--------|--------|--------|--------|--------|--------|--------|
A|--------|--------|--------|--------|--------|--------|--------|--------|--------|
E|--------|--------|--------|--------|--------|--------|--------|--------|--------|


E|--------|--------|--------|--------|--------|--------|--------|--------|--------|
B|--------|--------|--------|--------|--------|--------|--------|--------|--------|
G|--------|--------|--------|--------|--------|--------|--------|--------|--------|
D|--------|--------|--------|--------|--------|--------|--------|--------|--------|
A|--------|--------|--------|--------|--------|--------|--------|--------|--------|
E|--------|--------|--------|--------|--------|--------|--------|--------|--------|


E|--------|--------|--------|--------|--------|--------|--------|--------|--------|
B|--------|--------|--------|--------|--------|--------|--------|--------|--------|
G|--------|--------|--------|--------|--------|--------|--------|--------|--------|
D|--------|--------|--------|--------|--------|--------|--------|--------|--------|
A|--------|--------|--------|--------|--------|--------|--------|--------|--------|
E|--------|--------|--------|--------|--------|--------|--------|--------|--------|


E|--------|--------|--------|--------|--------|--------|--------|--------|--------|
B|--------|--------|--------|--------|--------|--------|--------|--------|--------|
G|--------|--------|--------|--------|--------|--------|--------|--------|--------|
D|--------|--------|--------|--------|--------|--------|--------|--------|--------|
A|--------|--------|--------|--------|--------|--------|--------|--------|--------|
E|--------|--------|--------|--------|--------|--------|--------|--------|--------|


E|--------|--------|--------|--------|--------|--------|--------|--------|--------|
B|--------|--------|--------|--------|--------|--------|--------|--------|--------|
G|--------|--------|--------|--------|--------|--------|--------|--------|--------|
D|--------|--------|--------|--------|--------|--------|--------|--------|--------|
A|--------|--------|--------|--------|--------|--------|--------|--------|--------|
E|--------|--------|--------|--------|--------|--------|--------|--------|--------|


E|--------|--------|--------|--------|--------|--------|--------|--------|--------|
B|--------|--------|--------|--------|--------|--------|--------|--------|--------|
G|--------|--------|--------|--------|--------|--------|--------|--------|--------|
D|--------|--------|--------|--------|--------|--------|--------|--------|--------|
A|--------|--------|--------|--------|--------|--------|--------|--------|--------|
E|--------|--------|--------|--------|--------|--------|--------|--------|--------|


E|--------|--------|--------|--------|--------|--------|--------|--------|--------|
B|--------|--------|--------|--------|--------|--------|--------|--------|--------|
G|--------|--------|--------|--------|--------|--------|--------|--------|--------|
D|--------|--------|--------|--------|--------|--------|--------|--------|--------|
A|--------|--------|--------|--------|--------|--------|--------|--------|--------|
E|--------|--------|--------|--------|--------|--------|--------|--------|--------|


E|--------|--------|--------|--------|--------|--------|--------|--------|--------|
B|--------|--------|--------|--------|--------|--------|--------|--------|--------|
G|--------|--------|--------|--------|--------|--------|--------|--------|--------|
D|--------|--------|--------|--------|--------|--------|--------|--------|--------|
A|--------|--------|--------|--------|--------|--------|--------|--------|--------|
E|--------|--------|--------|--------|--------|--------|--------|--------|--------|


E|--------|--------|--------|--------|--------|--------|--------|--------|--------|
B|--------|--------|--------|--------|--------|--------|--------|--------|--------|
G|--------|--------|--------|--------|--------|--------|--------|--------|--------|
D|--------|--------|--------|--------|--------|--------|--------|--------|--------|
A|--------|--------|--------|--------|--------|--------|--------|--------|--------|
E|--------|--------|--------|--------|--------|--------|--------|--------|--------|


E|--------|--------|--------|--------|--------|--------|--------|--------|--------|
B|--------|--------|--------|--------|--------|--------|--------|--------|--------|
G|--------|--------|--------|--------|--------|--------|--------|--------|--------|
D|--------|--------|--------|--------|--------|--------|--------|--------|--------|
A|--------|--------|--------|--------|--------|--------|--------|--------|--------|
E|--------|--------|--------|--------|--------|--------|--------|--------|--------|


E|--------|--------|--------|--------|--------|--------|--------|--------|--------|
B|--------|--------|--------|--------|--------|--------|--------|--------|--------|
G|--------|--------|--------|--------|--------|--------|--------|--------|--------|
D|--------|--------|--------|--------|--------|--------|--------|--------|--------|
A|--------|--------|--------|--------|--------|--------|--------|--------|--------|
E|--------|--------|--------|--------|--------|--------|--------|--------|--------|


E|--------|--------|--------|--------|--------|--------|--------|--------|--------|
B|--------|--------|--------|--------|--------|--------|--------|--------|--------|
G|--------|--------|--------|--------|--------|--------|--------|--------|--------|
D|--------|--------|--------|--------|--------|--------|--------|--------|--------|
A|--------|--------|--------|--------|--------|--------|--------|--------|--------|
E|--------|--------|--------|--------|--------|--------|--------|--------|--------|


E|--------|--------|--------|--------|--------|--------|--------|--------|--------|
B|--------|--------|--------|--------|--------|--------|--------|--------|--------|
G|--------|--------|--------|--------|--------|--------|--------|--------|--------|
D|--------|--------|--------|--------|--------|--------|--------|--------|--------|
A|--------|--------|--------|--------|--------|--------|--------|--------|--------|
E|--------|--------|--------|--------|--------|--------|--------|--------|--------|


E|--------|--------|--------|--------|--------|--------|--------|--------|--------|
B|--------|--------|--------|--------|--------|--------|--------|--------|--------|
G|--------|--------|--------|--------|--------|--------|--------|--------|--------|
D|--------|--------|--------|--------|--------|--------|--------|--------|--------|
A|--------|--------|--------|--------|--------|--------|--------|--------|--------|
E|--------|--------|--------|--------|--------|--------|--------|--------|--------|


E|--------|--------|--------|--------|--------|--------|--------|--------|--------|
B|--------|--------|--------|--------|--------|--------|--------|--------|--------|
G|--------|--------|--------|--------|--------|--------|--------|--------|--------|
D|--------|--------|--------|--------|--------|--------|--------|--------|--------|
A|--------|--------|--------|--------|--------|--------|--------|--------|--------|
E|--------|--------|--------|--------|--------|--------|--------|--------|--------|


E|--------|--------|--------|--------|--------|-3---3---3---3---3---0---0---1---|-1---1---1---1---1--1--1---1---1---|
B|--------|--------|--------|--------|--------|-2---2---2---2---2---3---3---0---|-0---0---0---0---0--0--0---0---0---|
G|--------|--------|--------|--------|--------|-0---0---0---0---0---2---2---0---|-0---0---0---0---0--0--0---0---0---|
D|--------|--------|--------|--------|--------|-0---0---0---0---0---5---5-------|-----------------------------------|
A|--------|--------|--------|--------|--------|---------------------------------|-----------------------------------|
E|--------|--------|--------|--------|--------|---------------------------------|-----------------------------------|


E|-3---3---3---3---3---0---0---1---|-1---1---1---1---1--1--1---1---1---|-3---3---3---3---3---0---0---1---|
B|-2---2---2---2---2---3---3---0---|-0---0---0---0---0--0--0---0---0---|-2---2---2---2---2---3---3---0---|
G|-0---0---0---0---0---2---2---0---|-0---0---0---0---0--0--0---0---0---|-0---0---0---0---0---2---2---0---|
D|-0---0---0---0---0---5---5---0---|-0---------------------------------|-0---0---0---0---0---5---5-------|
A|---------------------------------|-----------------------------------|---------------------------------|
E|---------------------------------|-----------------------------------|---------------------------------|


E|-1---1---1---1---1--1--1---1---1---|-3---3---3---3---3---0---0---1---|-1---1---1---1---1--1--1---1---1---|
B|-0---0---0---0---0--0--0---0---0---|-2---2---2---2---2---3---3---0---|-0---0---0---0---0--0--0---0---0---|
G|-0---0---0---0---0--0--0---0---0---|-0---0---0---0---0---2---2---0---|-0---0---0---0---0--0--0---0---0---|
D|-----------------------------------|-0---0---0---0---0---5---5---0---|-0---------------------------------|
A|-----------------------------------|---------------------------------|-----------------------------------|
E|-----------------------------------|---------------------------------|-----------------------------------|


E|-1---1---1---1---1--1--1---1---0---|-0---3---3---3---3---3--3--3---3---|-1---1---1---1---1--1--1---1---0---|
B|-0---0---0---0---0--0--0---0---3---|-3---2---2---2---2---2--2--2---2---|-0---0---0---0---0--0--0---0---3---|
G|-3---3---3---3---3--3--3---3---2---|-2---0---0---0---0---0--0--0---0---|-3---3---3---3---3--3--3---3---2---|
D|-------------------------------5---|-5---0---0---0---0---0--0--0---0---|-------------------------------5---|
A|-----------------------------------|-----------------------------------|-----------------------------------|
E|-----------------------------------|-----------------------------------|-----------------------------------|


E|-0---3---3---3---3---3--3--3---3---|-1---1---1---1---1--1--1---1---0---|-0---3---3---3---3---3--3--3---3---|
B|-3---2---2---2---2---2--2--2---2---|-0---0---0---0---0--0--0---0---3---|-3---2---2---2---2---2--2--2---2---|
G|-2---0---0---0---0---0--0--0---0---|-3---3---3---3---3--3--3---3---2---|-2---0---0---0---0---0--0--0---0---|
D|-5---0---0---0---0---0--0--0---0---|-------------------------------5---|-5---0---0---0---0---0--0--0---0---|
A|-----------------------------------|-----------------------------------|-----------------------------------|
E|-----------------------------------|-----------------------------------|-----------------------------------|


E|-1---1---1---1---1--1--1---1---0---|-0---3---3---3---3---3--3--3---3---|--------|
B|-0---0---0---0---0--0--0---0---3---|-3---2---2---2---2---2--2--2---2---|--------|
G|-3---3---3---3---3--3--3---3---2---|-2---0---0---0---0---0--0--0---0---|--------|
D|-------------------------------5---|-5---0---0---0---0---0--0--0---0---|--------|
A|-----------------------------------|-----------------------------------|--------|
E|-----------------------------------|-----------------------------------|--------|


E|--------|--------|--------|--------|--------|--------|--------|
B|--------|--------|--------|--------|--------|--------|--------|
G|--------|--------|--------|--------|--------|--------|--------|
D|--------|--------|--------|--------|--------|--------|--------|
A|--------|--------|--------|--------|--------|--------|--------|
E|--------|--------|--------|--------|--------|--------|--------|





Track 6: Untitled

G|--------|--------|--------|--------|-----------------------|--------|-----------------------|
D|--------|--------|--------|--------|-----5---5---5---5-----|--------|-----5---5---5---5-----|
A|--------|--------|--------|--------|-----------------------|--------|-----------------------|
E|--------|--------|--------|--------|-3---------------------|--------|-3---------------------|


G|--------|-----------------------|--------|-----------------------|--------|-----------------------|
D|--------|-----5---5---5---5-----|--------|-----5---5---5---5-----|--------|-----5-------5---5-----|
A|--------|-----------------------|--------|-----------------------|--------|-----------------------|
E|--------|-3---------------------|--------|-3---------------------|--------|-3-------3-------------|


G|--------------------|-----------------------|--------------------|-----------------------|
D|---------7----------|-----5-------5---5-----|---------7----------|-----5-------5---5-----|
A|-----5--------5-----|-----------------------|-----5--------5-----|-----------------------|
E|--------------------|-3-------3-------------|--------------------|-3-------3-------------|


G|--------------------|-----------------------|--------------------|------------------------------|
D|---------7----------|-----5-------5---5-----|---------7----------|---------5-----------5--------|
A|-----5--------5-----|-----------------------|-----5--------5-----|-------------5---5------------|
E|--------------------|-3-------3-------------|--------------------|-3---3-------------------3----|


G|-------------------------7----|------------------------------|-------------------------7----|
D|-----7-------7---7------------|---------5-----------5--------|-----7-------7---7------------|
A|-5-------5-----------5--------|-------------5---5------------|-5-------5-----------5--------|
E|------------------------------|-3---3-------------------3----|------------------------------|


G|------------------------------|-------------------------7----|------------------------------|
D|---------5-----------5--------|-----7-------7---7------------|---------5-----------5--------|
A|-------------5---5------------|-5-------5-----------5--------|-------------5---5------------|
E|-3---3-------------------3----|------------------------------|-3---3-------------------3----|


G|-------------------------7----|-----------------------|--------------------|-----------------------|
D|-----7-------7---7------------|-----5-------5---5-----|---------7----------|-----5-------5---5-----|
A|-5-------5-----------5--------|-----------------------|-----5--------5-----|-----------------------|
E|------------------------------|-3-------3-------------|--------------------|-3-------3-------------|


G|--------------------|-----------------------|--------------------|-----------------------|
D|---------7----------|-----5-------5---5-----|---------7----------|-----5-------5---5-----|
A|-----5--------5-----|-----------------------|-----5--------5-----|-----------------------|
E|--------------------|-3-------3-------------|--------------------|-3-------3-------------|


G|--------------------|-----------------------|---------7---7---7---7-----|-----------------------|
D|---------7----------|-----5---5---5---5-----|---------------------------|-----5---5---5---5-----|
A|-----5--------5-----|-----------------------|-----5---------------------|-----------------------|
E|--------------------|-3---------------------|---------------------------|-3---------------------|


G|---------7---7---7---7-----|-----------------------|---------7---7---7---7-----|
D|---------------------------|-----5---5---5---5-----|---------------------------|
A|-----5---------------------|-----------------------|-----5---------------------|
E|---------------------------|-3---------------------|---------------------------|


G|-----------------------|---------7---7---7---7-----|------------------------------|
D|-----5---5---5---5-----|---------------------------|---------5-----------5--------|
A|-----------------------|-----5---------------------|-------------5---5------------|
E|-3---------------------|---------------------------|-3---3-------------------3----|


G|-------------------------7----|------------------------------|-------------------------7----|
D|-----7-------7---7------------|---------5-----------5--------|-----7-------7---7------------|
A|-5-------5-----------5--------|-------------5---5------------|-5-------5-----------5--------|
E|------------------------------|-3---3-------------------3----|------------------------------|


G|------------------------------|-------------------------7----|------------------------------|
D|---------5-----------5--------|-----7-------7---7------------|---------5-----------5--------|
A|-------------5---5------------|-5-------5-----------5--------|-------------5---5------------|
E|-3---3-------------------3----|------------------------------|-3---3-------------------3----|


G|-------------------------7----|------------------------------|------------------------------|
D|-----7-------7---7------------|---------3-----------3--------|---------5-----------5--------|
A|-5-------5-----------5--------|-------------3---3------------|-------------5---5------------|
E|------------------------------|-1---1-------------------1----|-3---3-------------------3----|


G|------------------------------|------------------------------|------------------------------|
D|---------3-----------3--------|---------5-----------5--------|---------3-----------3--------|
A|-------------3---3------------|-------------5---5------------|-------------3---3------------|
E|-1---1-------------------1----|-3---3-------------------3----|-1---1-------------------1----|


G|------------------------------|------------------------------|------------------------------|
D|---------5-----------5--------|---------3-----------3--------|---------5-----------5--------|
A|-------------5---5------------|-------------3---3------------|-------------5---5------------|
E|-3---3-------------------3----|-1---1-------------------1----|-3---3-------------------3----|


G|-----------------------|--------------------|-----------------------|--------------------|
D|-----5-------5---5-----|---------7----------|-----5-------5---5-----|---------7----------|
A|-----------------------|-----5--------5-----|-----------------------|-----5--------5-----|
E|-3-------3-------------|--------------------|-3-------3-------------|--------------------|


G|-----------------------|--------------------|-----------------------|--------------------|
D|-----5-------5---5-----|---------7----------|-----5-------5---5-----|---------7----------|
A|-----------------------|-----5--------5-----|-----------------------|-----5--------5-----|
E|-3-------3-------------|--------------------|-3-------3-------------|--------------------|


G|------------------------------|-------------------------7----|------------------------------|
D|---------5-----------5--------|-----7-------7---7------------|---------5-----------5--------|
A|-------------5---5------------|-5-------5-----------5--------|-------------5---5------------|
E|-3---3-------------------3----|------------------------------|-3---3-------------------3----|


G|-------------------------7----|------------------------------|-------------------------7----|
D|-----7-------7---7------------|---------5-----------5--------|-----7-------7---7------------|
A|-5-------5-----------5--------|-------------5---5------------|-5-------5-----------5--------|
E|------------------------------|-3---3-------------------3----|------------------------------|


G|------------------------------|-------------------------7----|-----------------------|
D|---------5-----------5--------|-----7-------7---7------------|-----5-------5---5-----|
A|-------------5---5------------|-5-------5-----------5--------|-----------------------|
E|-3---3-------------------3----|------------------------------|-3-------3-------------|


G|--------------------|-----------------------|--------------------|-----------------------|
D|---------7----------|-----5-------5---5-----|---------7----------|-----5-------5---5-----|
A|-----5--------5-----|-----------------------|-----5--------5-----|-----------------------|
E|--------------------|-3-------3-------------|--------------------|-3-------3-------------|


G|--------------------|-----------------------|--------------------|--------|--------|
D|---------7----------|-----5-------5---5-----|---------7----------|--------|--------|
A|-----5--------5-----|-----------------------|-----5--------5-----|--------|--------|
E|--------------------|-3-------3-------------|--------------------|--------|--------|


G|--------|--------|---------------------|---------------------|---------------------|
D|--------|--------|------5---------5----|-5---------5---------|------5---------5----|
A|--------|--------|-5---------5---------|------5---------5----|-5---------5---------|
E|--------|--------|---------------------|---------------------|---------------------|


G|---------------------|---------------------|---------------------|---------------------|
D|-5---------5---------|------5---------5----|-5---------5---------|------5---------5----|
A|------5---------5----|-5---------5---------|------5---------5----|-5---------5---------|
E|---------------------|---------------------|---------------------|---------------------|


G|---------------------|---------------------|---------------------|---------------------|
D|-5---------5---------|------5---------5----|-5---------5---------|------5---------5----|
A|------5---------5----|-5---------5---------|------5---------5----|-5---------5---------|
E|---------------------|---------------------|---------------------|---------------------|


G|---------------------|---------------------|---------------------|---------------------|
D|-5---------5---------|------5---------5----|-5---------5---------|------5---------5----|
A|------5---------5----|-5---------5---------|------5---------5----|-5---------5---------|
E|---------------------|---------------------|---------------------|---------------------|


G|---------------------|---------------------|---------------------|---------------------|
D|-5---------5---------|------5---------5----|-5---------5---------|------5---------5----|
A|------5---------5----|-5---------5---------|------5---------5----|-5---------5---------|
E|---------------------|---------------------|---------------------|---------------------|


G|---------------------|-------------|-------------|-------------|-------------|-------------|
D|-5---------5---------|-------------|-------------|-------------|-------------|-------------|
A|------5---------5----|-------------|-------------|-------------|-------------|-------------|
E|---------------------|-10----10----|-10----10----|-8-----8-----|-8-----8-----|-10----10----|


G|-------------|-------------|-------------|--------|-------------|--------|-------------|
D|-------------|-------------|-------------|--------|-------------|--------|-------------|
A|-------------|-------------|-------------|--------|-------------|--------|-------------|
E|-10----10----|-8-----8-----|-8-----8-----|-10-----|-10----10----|-8------|-8-----8-----|


G|--------|-------------|--------|-------------|--------|-------------|--------|-------------|
D|--------|-------------|--------|-------------|--------|-------------|--------|-------------|
A|--------|-------------|--------|-------------|--------|-------------|--------|-------------|
E|-10-----|-10----10----|-8------|-8-----8-----|-10-----|-10----10----|-8------|-8-----8-----|


G|--------|-------------|--------|-------------|--------|-------------|--------|-------------|
D|--------|-------------|--------|-------------|--------|-------------|--------|-------------|
A|--------|-------------|--------|-------------|--------|-------------|--------|-------------|
E|-10-----|-10----10----|-8------|-8-----8-----|-10-----|-10----10----|-8------|-8-----8-----|


G|--------|-------------|--------|-------------|--------|-------------|--------|-------------|
D|--------|-------------|--------|-------------|--------|-------------|--------|-------------|
A|--------|-------------|--------|-------------|--------|-------------|--------|-------------|
E|-10-----|-10----10----|-8------|-8-----8-----|-10-----|-10----10----|-8------|-8-----8-----|


G|--------|-------------|--------|-------------|-----------------------|--------------------|
D|--------|-------------|--------|-------------|-----5-------5---5-----|---------7----------|
A|--------|-------------|--------|-------------|-----------------------|-----5--------5-----|
E|-10-----|-10----10----|-8------|-8-----8-----|-3-------3-------------|--------------------|


G|-----------------------|--------------------|-----------------------|--------------------|
D|-----5-------5---5-----|---------7----------|-----5-------5---5-----|---------7----------|
A|-----------------------|-----5--------5-----|-----------------------|-----5--------5-----|
E|-3-------3-------------|--------------------|-3-------3-------------|--------------------|


G|-----------------------|--------------------|-----------------------|--------------------|
D|-----5-------5---5-----|---------7----------|-----5-------5---5-----|---------7----------|
A|-----------------------|-----5--------5-----|-----------------------|-----5--------5-----|
E|-3-------3-------------|--------------------|-3-------3-------------|--------------------|


G|-----------------------|--------------------|-----------------------|--------------------|
D|-----5-------5---5-----|---------7----------|-----5-------5---5-----|---------7----------|
A|-----------------------|-----5--------5-----|-----------------------|-----5--------5-----|
E|-3-------3-------------|--------------------|-3-------3-------------|--------------------|


G|-----------------------|--------------------|-----------------------|--------------------|
D|-----5-------5---5-----|---------7----------|-----5-------5---5-----|---------7----------|
A|-----------------------|-----5--------5-----|-----------------------|-----5--------5-----|
E|-3-------3-------------|--------------------|-3-------3-------------|--------------------|


G|-----------------------|--------------------|-----------------------|--------------------|
D|-----5-------5---5-----|---------7----------|-----5-------5---5-----|---------7----------|
A|-----------------------|-----5--------5-----|-----------------------|-----5--------5-----|
E|-3-------3-------------|--------------------|-3-------3-------------|--------------------|


G|-----------------------|--------------------|-----------------------|--------------------|
D|-----5-------5---5-----|---------7----------|-----5-------5---5-----|---------7----------|
A|-----------------------|-----5--------5-----|-----------------------|-----5--------5-----|
E|-3-------3-------------|--------------------|-3-------3-------------|--------------------|


G|-----------------------|--------------------|------------------------------|-------------------------7----|
D|-----5-------5---5-----|---------7----------|---------5-----------5--------|-----7-------7---7------------|
A|-----------------------|-----5--------5-----|-------------5---5------------|-5-------5-----------5--------|
E|-3-------3-------------|--------------------|-3---3-------------------3----|------------------------------|


G|------------------------------|-------------------------7----|------------------------------|
D|---------5-----------5--------|-----7-------7---7------------|---------5-----------5--------|
A|-------------5---5------------|-5-------5-----------5--------|-------------5---5------------|
E|-3---3-------------------3----|------------------------------|-3---3-------------------3----|


G|-------------------------7----|------------------------------|-------------------------7----|
D|-----7-------7---7------------|---------5-----------5--------|-----7-------7---7------------|
A|-5-------5-----------5--------|-------------5---5------------|-5-------5-----------5--------|
E|------------------------------|-3---3-------------------3----|------------------------------|


G|------------------------------|------------------------------|------------------------------|
D|---------3-----------3--------|---------5-----------5--------|---------3-----------3--------|
A|-------------3---3------------|-------------5---5------------|-------------3---3------------|
E|-1---1-------------------1----|-3---3-------------------3----|-1---1-------------------1----|


G|------------------------------|------------------------------|------------------------------|
D|---------5-----------5--------|---------3-----------3--------|---------5-----------5--------|
A|-------------5---5------------|-------------3---3------------|-------------5---5------------|
E|-3---3-------------------3----|-1---1-------------------1----|-3---3-------------------3----|


G|------------------------------|------------------------------|-----------------------|
D|---------3-----------3--------|---------5-----------5--------|-----5---5---5---5-----|
A|-------------3---3------------|-------------5---5------------|-----------------------|
E|-1---1-------------------1----|-3---3-------------------3----|-3---------------------|


G|--------|-----------------------|--------|-----------------------|--------|-----------------------|
D|--------|-----5---5---5---5-----|--------|-----5---5---5---5-----|--------|-----5---5---5---5-----|
A|--------|-----------------------|--------|-----------------------|--------|-----------------------|
E|--------|-3---------------------|--------|-3---------------------|--------|-3---------------------|


G|--------|
D|--------|
A|--------|
E|--------|