Site menu:

    

Browse: 0-9 A B C D E F G H I J K L N O P Q R S T U V W X Y Z

vince guaraldi - linus and lucy:



Title: Linus and Lucy
Artist: 
Album: A Charlie Brown Christmas
Author: Vince Guaraldi


Track 1: (Lead)

E|--------|--------|--------|--------------------|---------------------------|---------------------|
B|--------|--------|--------|--------------------|---------1----1------------|---------------------|
G|--------|--------|--------|----------------1---|-1---3---1----1---3---1----|-3-----1---1-----1---|
D|--------|--------|--------|--------------------|-----1------------1--------|-1-------------------|
A|--------|--------|--------|----------------3---|-3--------------------3----|-------3---3-----3---|
E|--------|--------|--------|--------------------|---------------------------|---------------------|


E|--------------------|----------------|---------------------------|---------------------|
B|---------1----1-----|-1--------------|---------1----1------------|---------------------|
G|-1---3---1----1-----|-1----------1---|-1---3---1----1---3---1----|-3-----1---1-----1---|
D|-----1--------------|----------------|-----1------------1--------|-1---------------1---|
A|-3------------------|------------3---|-3--------------------3----|-------3---3---------|
E|--------------------|----------------|---------------------------|---------------------|


E|-----------------|----------------|-----------------|----------------|---------------------------|
B|-----------------|----------------|-----------------|----------------|---------1----1------------|
G|-1-----3---3-----|-3----------1---|-1-----3---3-----|-3----------1---|-1---3---1----1---3---1----|
D|-1-----1---1-----|-1--------------|-------1---1-----|-1--------------|-----1------------1--------|
A|-----------------|------------3---|-3---------------|------------3---|-3--------------------3----|
E|-----------------|----------------|-----------------|----------------|---------------------------|


E|---------------------|--------------------|----------------|---------------------------|
B|---------------------|---------1----1-----|-1--------------|---------1----1------------|
G|-3-----1---1-----1---|-1---3---1----1-----|-1----------1---|-1---3---1----1---3---1----|
D|-1-------------------|-----1--------------|----------------|-----1------------1--------|
A|-------3---3-----3---|-3------------------|------------3---|-3--------------------3----|
E|---------------------|--------------------|----------------|---------------------------|


E|---------------------|-----------------|----------------|-----------------|----------------|
B|---------------------|-----------------|----------------|-----------------|----------------|
G|-3-----1---1-----1---|-1-----3---3-----|-3----------1---|-1-----3---3-----|-3----------1---|
D|-1---------------1---|-1-----1---1-----|-1--------------|-------1---1-----|-1--------------|
A|-------3---3---------|-----------------|------------3---|-3---------------|----------------|
E|---------------------|-----------------|----------------|-----------------|----------------|


E|-9---9---9---11------4-------4---|-4-------4---4---4---4---4----|-9---9---9---11------4-------4---|
B|-9---9---9---9-------4---6---6---|-4---6---6---4---6---6---4----|-9---9---9---9-------4---6---6---|
G|-10--10--10--8-------------------|------------------------------|-10--10--10--8-------------------|
D|-11--11--11----------------------|------------------------------|-11--11--11----------------------|
A|---------------------------------|------------------------------|---------------------------------|
E|---------------------------------|------------------------------|---------------------------------|


E|-4-------4---4---4---4---4----|-9---9---9---11------4-------4---|-4-------4---4---4---4---4----|
B|-4---6---6---4---6---6---4----|-9---9---9---9-------4---6---6---|-4---6---6---4---6---6---4----|
G|------------------------------|-10--10--10--8-------------------|------------------------------|
D|------------------------------|-11--11--11----------------------|------------------------------|
A|------------------------------|---------------------------------|------------------------------|
E|------------------------------|---------------------------------|------------------------------|


E|--------|----------------|---------------------------|---------------------|--------------------|
B|--------|----------------|---------1----1------------|---------------------|---------1----1-----|
G|-1------|-1----------1---|-1---3---1----1---3---1----|-3-----1---1-----1---|-1---3---1----1-----|
D|-1------|-1--------------|-----1------------1--------|-1-------------------|-----1--------------|
A|--------|------------3---|-3--------------------3----|-------3---3-----3---|-3------------------|
E|--------|----------------|---------------------------|---------------------|--------------------|


E|----------------|---------------------------|---------------------|-----------------|
B|-1--------------|---------1----1------------|---------------------|-----------------|
G|-1----------1---|-1---3---1----1---3---1----|-3-----1---1-----1---|-1-----3---3-----|
D|----------------|-----1------------1--------|-1---------------1---|-1-----1---1-----|
A|------------3---|-3--------------------3----|-------3---3---------|-----------------|
E|----------------|---------------------------|---------------------|-----------------|


E|----------------|-----------------|----------------|-----------------|----------------|
B|----------------|-----------------|----------------|-----------------|----------------|
G|-3----------1---|-1-----3---3-----|-3----------1---|-1-----3---3-----|-3----------1---|
D|-1--------------|-------1---1-----|-1----------1---|-1-----1---1-----|-1--------------|
A|------------3---|-3---------------|----------------|-----------------|------------3---|
E|----------------|-----------------|----------------|-----------------|----------------|


E|-----------------|--------|-----------------------|-3----3--------------------|-----------------3---------------|
B|-----------------|--------|-------4-------4-------|----------2---4------------|-------------4-------3-----------|
G|-1-----3---3-----|-3------|-----------------------|----------0-------3---0----|-3---------------------------4---|
D|-------1---1-----|-1------|-----------4-------3---|---------------------------|-----3-----------------------3---|
A|-3---------------|--------|-----------5-------4---|---------------------------|-----4---------------------------|
E|-----------------|--------|-----------------------|---------------------------|---------------------------------|


E|-1----1--------------------|------------------0---1---2---3-------|-----0----0-------1---------------|
B|--------------3------------|----------1---4-----------------------|-4--------------------1-----------|
G|----------4-------1--------|----------------------------------1---|--------------3-----------1-------|
D|----------3----------------|-1------------------------------------|--------------1---------------1---|
A|---------------------------|-2------------------------------------|------------------------------2---|
E|---------------------------|--------------------------------------|----------------------------------|


E|--------------6---4-----------|------3---------------3------------|-------6----------------|
B|-2------------------------0---|-4------------4---3-------3--------|-------6---7---8---8----|
G|------3---4-----------0-------|------------------0-------0--------|------------------------|
D|------------------------------|-----------------------------------|------------------------|
A|------------------------------|-----------------------------------|------------------------|
E|------------------------------|-----------------------------------|------------------------|


E|-6----6----6-----------|-6----6---6-----6---------------|---------6---4-----------------------|
B|-8----6----6--7--8-----|-8----6---6--7--8---7-----------|-----------------4-------------------|
G|-----------------------|------------------------8---7---|-3---4---------------5-----------7---|
D|-----------------------|--------------------------------|-------------------------6---6-------|
A|-----------------------|--------------------------------|-------------------------------------|
E|-----------------------|--------------------------------|-------------------------------------|


E|---------------------9---13--9-------------------|-------------3---3---------------|
B|-----------------9---------------9---------------|-------------4---5-------1-------|
G|-------------10----------------------10-9--10-11-|-12------------------3-------1---|
D|---------12--------------------------------------|-----10--------------2-------2---|
A|-----11------------------------------------------|-----------------------------2---|
E|-------------------------------------------------|---------------------------------|


E|------------------------------|-5----------------------------|------------------------------|
B|------6-------------------7---|------7-------------------8---|-6---4-----------4------------|
G|----------8---6-------7-------|----------7-----------8-------|---------5-----------3--------|
D|-3----------------6-----------|--------------7---8-----------|-------------5-----------5----|
A|------------------------------|------------------------------|------------------------------|
E|------------------------------|------------------------------|------------------------------|


E|---------------------------|---------------------|--------------------|----------------|
B|---------1----1------------|---------------------|---------1----1-----|-1--------------|
G|-1---3---1----1---3---1----|-3-----1---1-----1---|-1---3---1----1-----|-1----------1---|
D|-----1------------1--------|-1-------------------|-----1--------------|----------------|
A|-3--------------------3----|-------3---3-----3---|-3------------------|------------3---|
E|---------------------------|---------------------|--------------------|----------------|


E|---------------------------|---------------------|-----------------|----------------|
B|---------1----1------------|---------------------|-----------------|----------------|
G|-1---3---1----1---3---1----|-3-----1---1-----1---|-1-----3---3-----|-3----------1---|
D|-----1------------1--------|-1---------------1---|-1-----1---1-----|-1--------------|
A|-3--------------------3----|-------3---3---------|-----------------|------------3---|
E|---------------------------|---------------------|-----------------|----------------|


E|-----------------|----------------|-----------------|----------------|-----------------|
B|-----------------|----------------|-----------------|----------------|-----------------|
G|-1-----3---3-----|-3----------1---|-1-----3---3-----|-3----------1---|-1-----3---3-----|
D|-------1---1-----|-1----------1---|-1-----1---1-----|-1--------------|-------1---1-----|
A|-3---------------|----------------|-----------------|------------3---|-3---------------|
E|-----------------|----------------|-----------------|----------------|-----------------|


E|--------|--------|--------|--------|--------|-----------------------------4---|-6---9-----------8----6---4---|
B|--------|--------|--------|--------|--------|-------------------------1-------|-----9-----------9----4---1---|
G|-3------|--------|--------|--------|--------|-------------1---1---3-------5---|-8-------8---5---8------------|
D|-1------|--------|--------|--------|--------|---------1---------------6-------|------------------------------|
A|--------|--------|--------|--------|--------|-----3---------------6-----------|------------------------------|
E|--------|--------|--------|--------|--------|-----4---6---8---8---------------|------------------------------|


E|-6-----4---4-----|-4------4---6---|-6-----4---4-----|-4------4---6---|-6-----4---4-----|
B|-4-----1---1-----|-1------1---4---|-4-----1---1-----|-1------1---4---|-4-----1---1-----|
G|-----------------|----------------|-----------------|----------------|-----------------|
D|-----------------|----------------|-----------------|----------------|-----------------|
A|-----------------|----------------|-----------------|----------------|-----------------|
E|-----------------|----------------|-----------------|----------------|-----------------|


E|-4------|--------|
B|-1------|--------|
G|--------|--------|
D|--------|--------|
A|--------|--------|
E|--------|--------|





Track 2: (Bass)

E|------------------------------|------------------------------|------------------------------|
B|------------------------------|------------------------------|------------------------------|
G|------------------------------|------------------------------|------------------------------|
D|---------6-----------6--------|---------3-----------3--------|---------6-----------6--------|
A|-----6-----------6------------|-----6-----------6------------|-----6-----------6------------|
E|-4-----------4------------4---|-4-----------4------------4---|-4-----------4------------4---|


E|------------------------------|------------------------------|------------------------------|
B|------------------------------|------------------------------|------------------------------|
G|------------------------------|------------------------------|------------------------------|
D|---------3-----------3--------|---------6-----------6--------|---------3-----------3--------|
A|-----6-----------6------------|-----6-----------6------------|-----6-----------6------------|
E|-4-----------4------------4---|-4-----------4------------4---|-4-----------4------------4---|


E|------------------------------|------------------------------|------------------------------|
B|------------------------------|------------------------------|------------------------------|
G|------------------------------|------------------------------|------------------------------|
D|---------6-----------6--------|---------3-----------3--------|---------6-----------6--------|
A|-----6-----------6------------|-----6-----------6------------|-----6-----------6------------|
E|-4-----------4------------4---|-4-----------4------------4---|-4-----------4------------4---|


E|------------------------------|------------------------------|------------------------------|
B|------------------------------|------------------------------|------------------------------|
G|------------------------------|------------------------------|------------------------------|
D|---------3-----------3--------|---------9-----------9--------|---------6-----------6--------|
A|-----6-----------6------------|-----9-----------9------------|-----9-----------9------------|
E|-4-----------4------------7---|-7-----------7------------7---|-7-----------7------------4---|


E|------------------------------|------------------------------|------------------------------|
B|------------------------------|------------------------------|------------------------------|
G|------------------------------|------------------------------|------------------------------|
D|---------6-----------6--------|---------3-----------3--------|---------6-----------6--------|
A|-----6-----------6------------|-----6-----------6------------|-----6-----------6------------|
E|-4-----------4------------4---|-4-----------4------------4---|-4-----------4------------4---|


E|------------------------------|------------------------------|------------------------------|
B|------------------------------|------------------------------|------------------------------|
G|------------------------------|------------------------------|------------------------------|
D|---------3-----------3--------|---------6-----------6--------|---------3-----------3--------|
A|-----6-----------6------------|-----6-----------6------------|-----6-----------6------------|
E|-4-----------4------------4---|-4-----------4------------4---|-4-----------4------------4---|


E|------------------------------|------------------------------|------------------------------|
B|------------------------------|------------------------------|------------------------------|
G|------------------------------|------------------------------|------------------------------|
D|---------6-----------6--------|---------3-----------3--------|---------9-----------9--------|
A|-----6-----------6------------|-----6-----------6------------|-----9-----------9------------|
E|-4-----------4------------4---|-4-----------4------------7---|-7-----------7------------7---|


E|------------------------------|------------------------------|------------------------------|
B|------------------------------|------------------------------|------------------------------|
G|------------------------------|------------------------------|------------------------------|
D|---------6-----------6--------|---------6-----------6--------|---------3-----------3--------|
A|-----9-----------9------------|-----6-----------6------------|-----6-----------6------------|
E|-7-----------7------------4---|-4-----------4------------4---|-4-----------4------------4---|


E|-----------------------|----------------1---|-----------------------|----------------1---|
B|-----------------------|--------------------|-----------------------|--------------------|
G|-6---6---6---8---------|--------------------|-6---6---6---8---------|--------------------|
D|-----------------------|----------------3---|-----------------------|----------------3---|
A|-4---4---4---6---------|--------------------|-4---4---4---6---------|--------------------|
E|-----------------------|--------------------|-----------------------|--------------------|


E|-----------------------|--------------------|------------------------------|------------------------------|
B|-----------------------|--------------------|------------------------------|------------------------------|
G|-6---6---6---8---------|--------------------|------------------------------|------------------------------|
D|-----------------------|----------------1---|---------6-----------6--------|---------3-----------3--------|
A|-4---4---4---6---------|--------------------|-----6-----------6------------|-----6-----------6------------|
E|-----------------------|--------------------|-4-----------4------------4---|-4-----------4------------4---|


E|------------------------------|------------------------------|------------------------------|
B|------------------------------|------------------------------|------------------------------|
G|------------------------------|------------------------------|------------------------------|
D|---------6-----------6--------|---------3-----------3--------|---------6-----------6--------|
A|-----6-----------6------------|-----6-----------6------------|-----6-----------6------------|
E|-4-----------4------------4---|-4-----------4------------4---|-4-----------4------------4---|


E|------------------------------|------------------------------|------------------------------|
B|------------------------------|------------------------------|------------------------------|
G|------------------------------|------------------------------|------------------------------|
D|---------3-----------3--------|---------6-----------6--------|---------3-----------3--------|
A|-----6-----------6------------|-----6-----------6------------|-----6-----------6------------|
E|-4-----------4------------4---|-4-----------4------------4---|-4-----------4------------7---|


E|------------------------------|------------------------------|------------------------------|
B|------------------------------|------------------------------|------------------------------|
G|------------------------------|------------------------------|------------------------------|
D|---------9-----------9--------|---------6-----------6--------|---------6-----------6--------|
A|-----9-----------9------------|-----9-----------9------------|-----6-----------6------------|
E|-7-----------7------------7---|-7-----------7------------4---|-4-----------4------------4---|


E|------------------------------|------------------------------|------------------------------|
B|------------------------------|------------------------------|------------------------------|
G|------------------------------|------------------------------|------------------------------|
D|---------3-----------3--------|---------9-----------9--------|---------6-----------6--------|
A|-----6-----------6------------|-----9-----------9------------|-----9-----------9------------|
E|-4-----------4------------7---|-7-----------7------------7---|-7-----------7------------4---|


E|------------------------------|------------------------------|--------|--------|
B|------------------------------|------------------------------|--------|--------|
G|------------------------------|------------------------------|--------|--------|
D|---------6-----------6--------|---------3-----------3--------|--------|--------|
A|-----6-----------6------------|-----6-----------6------------|--------|--------|
E|-4-----------4------------4---|-4-----------4------------4---|--------|--------|


E|--------|--------|--------|--------|--------|--------|--------|--------|--------|
B|--------|--------|--------|--------|--------|--------|--------|--------|--------|
G|--------|--------|--------|--------|--------|--------|--------|--------|--------|
D|--------|--------|--------|--------|--------|--------|--------|--------|--------|
A|--------|--------|--------|--------|--------|--------|--------|--------|--------|
E|--------|--------|--------|--------|--------|--------|--------|--------|--------|


E|--------|--------|--------|--------|--------|----------------|------------------------------|
B|--------|--------|--------|--------|--------|----------------|------------------------------|
G|--------|--------|--------|--------|--------|--------3-------|------------------------------|
D|--------|--------|--------|--------|--------|----------------|---------6-----------6--------|
A|--------|--------|--------|--------|--------|----------------|-----6-----------6------------|
E|--------|--------|--------|--------|--------|------------4---|-4-----------4------------4---|


E|------------------------------|------------------------------|------------------------------|
B|------------------------------|------------------------------|------------------------------|
G|------------------------------|------------------------------|------------------------------|
D|---------3-----------3--------|---------6-----------6--------|---------3-----------3--------|
A|-----6-----------6------------|-----6-----------6------------|-----6-----------6------------|
E|-4-----------4------------4---|-4-----------4------------4---|-4-----------4------------4---|


E|------------------------------|------------------------------|------------------------------|
B|------------------------------|------------------------------|------------------------------|
G|------------------------------|------------------------------|------------------------------|
D|---------6-----------6--------|---------3-----------3--------|---------9-----------9--------|
A|-----6-----------6------------|-----6-----------6------------|-----9-----------9------------|
E|-4-----------4------------4---|-4-----------4------------7---|-7-----------7------------7---|


E|------------------------------|------------------------------|------------------------------|
B|------------------------------|------------------------------|------------------------------|
G|------------------------------|------------------------------|------------------------------|
D|---------6-----------6--------|---------6-----------6--------|---------3-----------3--------|
A|-----9-----------9------------|-----6-----------6------------|-----6-----------6------------|
E|-7-----------7------------4---|-4-----------4------------4---|-4-----------4------------7---|


E|------------------------------|------------------------------|------------------------------|
B|------------------------------|------------------------------|------------------------------|
G|------------------------------|------------------------------|------------------------------|
D|---------9-----------9--------|---------6-----------6--------|---------6-----------6--------|
A|-----9-----------9------------|-----9-----------9------------|-----6-----------6------------|
E|-7-----------7------------7---|-7-----------7------------4---|-4-----------4------------4---|


E|------------------------------|------------------------------|------------------------------|
B|------------------------------|------------------------------|------------------------------|
G|------------------------------|------------------------------|------------------------------|
D|---------3-----------3--------|---------6-----------6--------|---------3-----------3--------|
A|-----6-----------6------------|-----6-----------6------------|-----6-----------6------------|
E|-4-----------4------------4---|-4-----------4------------4---|-4-----------4------------4---|


E|------------------------------|------------------------------|--------|--------------------|
B|------------------------------|------------------------------|--------|--------------------|
G|------------------------------|------------------------------|--------|--------------------|
D|---------6-----------6--------|---------3-----------3--------|--------|--------------------|
A|-----6-----------6------------|-----6-----------6------------|--------|----------------6---|
E|-4-----------4------------4---|-4-----------4------------4---|--------|--------------------|


E|------------------------------|------------------------------|------------------------------|
B|------------------------------|------------------------------|------------------------------|
G|------------------------------|------------------------------|------------------------------|
D|---------6-----------6--------|---------3-----------3--------|---------6-----------6--------|
A|-----6-----------6------------|-----6-----------6------------|-----6-----------6------------|
E|-4-----------4------------4---|-4-----------4------------4---|-4-----------4------------4---|


E|------------------------------|------------------------------|------------------------------|
B|------------------------------|------------------------------|------------------------------|
G|------------------------------|------------------------------|------------------------------|
D|---------3-----------3--------|---------6-----------6--------|---------3-----------3--------|
A|-----6-----------6------------|-----6-----------6------------|-----6-----------6------------|
E|-4-----------4------------4---|-4-----------4------------4---|-4-----------4------------4---|


E|--------|
B|--------|
G|--------|
D|--------|
A|--------|
E|-4------|





Track 3: Bass

E|--------|--------|--------|--------|--------|--------|--------|--------|--------|
B|--------|--------|--------|--------|--------|--------|--------|--------|--------|
G|--------|--------|--------|--------|--------|--------|--------|--------|--------|
D|--------|--------|--------|--------|--------|--------|--------|--------|--------|
A|--------|--------|--------|--------|--------|--------|--------|--------|--------|
E|--------|--------|--------|--------|--------|--------|--------|--------|--------|


E|--------|--------|--------|--------|--------|--------|--------|--------|--------|
B|--------|--------|--------|--------|--------|--------|--------|--------|--------|
G|--------|--------|--------|--------|--------|--------|--------|--------|--------|
D|--------|--------|--------|--------|--------|--------|--------|--------|--------|
A|--------|--------|--------|--------|--------|--------|--------|--------|--------|
E|--------|--------|--------|--------|--------|--------|--------|--------|--------|


E|--------|--------|--------|--------|--------|--------|--------|--------|--------|
B|--------|--------|--------|--------|--------|--------|--------|--------|--------|
G|--------|--------|--------|--------|--------|--------|--------|--------|--------|
D|--------|--------|--------|--------|--------|--------|--------|--------|--------|
A|--------|--------|--------|--------|--------|--------|--------|--------|--------|
E|--------|--------|--------|--------|--------|--------|--------|--------|--------|


E|--------|--------|--------|--------|--------|--------|--------|--------|--------|
B|--------|--------|--------|--------|--------|--------|--------|--------|--------|
G|--------|--------|--------|--------|--------|--------|--------|--------|--------|
D|--------|--------|--------|--------|--------|--------|--------|--------|--------|
A|--------|--------|--------|--------|--------|--------|--------|--------|--------|
E|--------|--------|--------|--------|--------|--------|--------|--------|--------|


E|--------|--------|--------|--------|--------|--------|--------|--------|--------|
B|--------|--------|--------|--------|--------|--------|--------|--------|--------|
G|--------|--------|--------|--------|--------|--------|--------|--------|--------|
D|--------|--------|--------|--------|--------|--------|--------|--------|--------|
A|--------|--------|--------|--------|--------|--------|--------|--------|--------|
E|--------|--------|--------|--------|--------|--------|--------|--------|--------|


E|--------|--------|---------------------|-----3------------------|---------------------|
B|--------|--------|---------------------|-------------------4----|-3----3----0---------|
G|--------|--------|------0----1----2----|-3-------4----5---------|----------------4----|
D|--------|--------|-1-------------------|------------------------|---------------------|
A|--------|--------|---------------------|------------------------|---------------------|
E|--------|--------|---------------------|------------------------|---------------------|


E|---------------------|---------------------|---------------------|---------------------|
B|---------------------|---------------------|----------------2----|-4----3----2----1----|
G|-1----3--------------|---------------------|-----------1---------|---------------------|
D|-----------3---------|-----------2---------|------3--------------|---------------------|
A|----------------4----|-3----3---------3----|-4-------------------|---------------------|
E|---------------------|---------------------|---------------------|---------------------|


E|---------------------|---------------------|---------------------|---------------------|
B|-0-------------------|---------------------|---------------------|---------------------|
G|------3----1----0----|-----------0---------|---------------------|---------------------|
D|---------------------|-1----3---------1----|-3----0----1----2----|------3----4----5----|
A|---------------------|---------------------|---------------------|-4-------------------|
E|---------------------|---------------------|---------------------|---------------------|


E|---------------------|---------------------|---------------------|---------------------|
B|---------------------|-1-------------------|-2-------------------|-3-------------------|
G|-1----2----3----4----|------0---------1----|------1---------2----|------2---------3----|
D|---------------------|---------------------|-----------0---------|-----------0---------|
A|---------------------|-----------3---------|---------------------|---------------------|
E|---------------------|---------------------|---------------------|---------------------|


E|---------------------|--------|--------|--------|--------|--------|--------|--------|
B|-4-------------------|--------|--------|--------|--------|--------|--------|--------|
G|------3--------------|--------|--------|--------|--------|--------|--------|--------|
D|-----------1---------|--------|--------|--------|--------|--------|--------|--------|
A|---------------------|--------|--------|--------|--------|--------|--------|--------|
E|---------------------|--------|--------|--------|--------|--------|--------|--------|


E|--------|--------|--------|--------|--------|--------|--------|--------|--------|
B|--------|--------|--------|--------|--------|--------|--------|--------|--------|
G|--------|--------|--------|--------|--------|--------|--------|--------|--------|
D|--------|--------|--------|--------|--------|--------|--------|--------|--------|
A|--------|--------|--------|--------|--------|--------|--------|--------|--------|
E|--------|--------|--------|--------|--------|--------|--------|--------|--------|


E|--------|--------|--------|--------|--------|--------|--------|--------|--------|
B|--------|--------|--------|--------|--------|--------|--------|--------|--------|
G|--------|--------|--------|--------|--------|--------|--------|--------|--------|
D|--------|--------|--------|--------|--------|--------|--------|--------|--------|
A|--------|--------|--------|--------|--------|--------|--------|--------|--------|
E|--------|--------|--------|--------|--------|--------|--------|--------|--------|


E|--------|--------|
B|--------|--------|
G|--------|--------|
D|--------|--------|
A|--------|--------|
E|--------|--------|