Site menu:

    

Browse: 0-9 A B C D E F G H I J K L N O P Q R S T U V W X Y Z

ufo - lipstick traces:



Title: Lipstick Traces
Artist: 
Album: Phenomenon
Author: Michael Schenker, Pete Way, Andy Parker


Track 1: Solo Guitar

E|--------|---------------------------------|---------------------8--8--|-8---8------|
B|--------|-----------5-----8--8--8---8-----|---------------8-----------|------------|
G|--------|---------5-----------------------|-----------9---------------|------------|
D|--------|-----7---------------------------|---------------------------|------------|
A|--------|---------------------------------|---------------------------|------------|
E|--------|---------------------------------|---------------------------|------------|


E|---------8---10--10--10----|-----------10--10--10--|-10--10-----|---------------------------------|
B|-----10--------------------|-----------------------|------------|-----------5-----8--8--8---8-----|
G|---------------------------|-----------------------|------------|--------5------------------------|
D|---------------------------|-----------------------|------------|-----7---------------------------|
A|---------------------------|-----------------------|------------|---------------------------------|
E|---------------------------|-----------------------|------------|---------------------------------|


E|---------------------8--8--|-8---8------|---------8---10--10--10----|-----------10--10--10--|
B|---------------8-----------|------------|-----10--------------------|-----------------------|
G|-----------9---------------|------------|---------------------------|-----------------------|
D|---------------------------|------------|---------------------------|-----------------------|
A|---------------------------|------------|---------------------------|-----------------------|
E|---------------------------|------------|---------------------------|-----------------------|


E|-10-------------------|------------------|-------------------------|-----------------|
B|-------8---8-8---8----|-------8----8-----|------8--8--8------------|-10----10---9----|
G|----------------------|------------------|---------------9---9-----|-----------------|
D|----------------------|------------------|-------------------------|-----------------|
A|----------------------|------------------|-------------------------|-----------------|
E|----------------------|------------------|-------------------------|-----------------|


E|------------7-----8-----------|-------------0-------------------|-5---4------------------------|
B|------10----------------------|-----------------6---0-----------|---------6---5----------------|
G|------------------------9--7--|-6-------7---------------5---7---|-----------------4---7---6----|
D|------------------------------|-----7---------------------------|------------------------------|
A|------------------------------|---------------------------------|------------------------------|
E|------------------------------|---------------------------------|------------------------------|


E|-----------------------|--------------------------5--7--|-7----5---5----4---4----|
B|------------5--6-------|--------------------------------|------------------------|
G|-------7-----------4---|-5---7-----------4---5----------|------------------------|
D|-----------------------|---------6---7------------------|------------------------|
A|-----------------------|--------------------------------|------------------------|
E|-----------------------|--------------------------------|------------------------|


E|---------------------------------|---------------------8--8--|-8-----10---10---10--|
B|-----------5-----8--8--8---8-----|---------------8-----------|---------------------|
G|--------5------------------------|-----------9---------------|---------------------|
D|-----7---------------------------|---------------------------|---------------------|
A|---------------------------------|---------------------------|---------------------|
E|---------------------------------|---------------------------|---------------------|


E|---------8---10-10-10----|-12--12--1212-------------|----------------------|---------------------------------|
B|-----10------------------|-----------------8----8---|-8--------------------|-----------5-----8--8--8---8-----|
G|-------------------------|--------------------------|-------7---7--5--7----|---------5-----------------------|
D|-------------------------|--------------------------|----------------------|-----7---------------------------|
A|-------------------------|--------------------------|----------------------|---------------------------------|
E|-------------------------|--------------------------|----------------------|---------------------------------|


E|---------------------8--8--|-8---8-----10--10-10-10--|---------8---10-10-10--10----|
B|---------------8-----------|-------------------------|-----10----------------------|
G|-----------9---------------|-------------------------|-----------------------------|
D|---------------------------|-------------------------|-----------------------------|
A|---------------------------|-------------------------|-----------------------------|
E|---------------------------|-------------------------|-----------------------------|


E|--------------------|------------------------|------------------|-------------------------|
B|-----------8----8---|-8----------------------|-------8----8-----|------8--8--8------------|
G|--------------------|-------7---7--5-7--7----|------------------|---------------9---9-----|
D|--------------------|------------------------|------------------|-------------------------|
A|--------------------|------------------------|------------------|-------------------------|
E|--------------------|------------------------|------------------|-------------------------|


E|-----------------|------------7-----8-----------|-------------0-------------------|
B|-10----10---9----|------10----------------------|-----------------6---0-----------|
G|-----------------|------------------------9--7--|-6-------7---------------5---7---|
D|-----------------|------------------------------|-----7---------------------------|
A|-----------------|------------------------------|---------------------------------|
E|-----------------|------------------------------|---------------------------------|


E|-5---4------------------------|-----------------------|--------------------------5--7--|
B|---------6---5----------------|------------5--6-------|--------------------------------|
G|-----------------4---7---6----|-------7-----------4---|-5---7-----------4---5----------|
D|------------------------------|-----------------------|---------6---7------------------|
A|------------------------------|-----------------------|--------------------------------|
E|------------------------------|-----------------------|--------------------------------|


E|-7----5---5----4---4----|------4---5--7--7----5---5---|-----4---4------|
B|------------------------|-----------------------------|----------------|
G|------------------------|-----------------------------|----------------|
D|------------------------|-----------------------------|----------------|
A|------------------------|-----------------------------|----------------|
E|------------------------|-----------------------------|----------------|





Track 2: Acoustic Guitar

E|--------|-----------------------|---------------------------------|---------------------------------|
B|--------|-------------------1---|---------------------------------|-------------1-------------------|
G|--------|---------------0-------|---------------------0-----------|---------2-------2---------------|
D|--------|-----------2-----------|-----------------2-------2-------|-----2---------------2-------2---|
A|--------|-------3---------------|-3---2-------2---------------2---|-0-----------------------0-------|
E|--------|-----------------------|---------0-----------------------|---------------------------------|


E|-----------------------------3--1--|----0--1-----------------3--1---0--1-----|-------------3-------------------|
B|-----1-------------------3---------|----------3----------3----------------3--|-----------------3---------------|
G|-2-------2-----------2-------------|-----------------2-----------------------|---------0-----------0-------0---|
D|-------------2---0-----------------|-------------0---------------------------|-----0---------------------------|
A|-----------------------------------|-----------------------------------------|---------------------------------|
E|-----------------------------------|-----------------------------------------|-3-----------------------3-------|


E|---------------------------------|---------------------------------|---------------------------------|
B|-3---------------------------1---|---------------------------------|-------------1-------------------|
G|-------------------------0-------|---------------------0-----------|---------2-------2---------------|
D|-----0---------------2-----------|-----------------2-------2-------|-----2---------------2-------2---|
A|---------0---2---3---------------|-3---2-------2---------------2---|-0-----------------------0-------|
E|---------------------------------|---------0-----------------------|---------------------------------|


E|-----------------------------3--1--|----0--1-----------------3--1---0--1-----|-------------3-------------------|
B|-----1-------------------3---------|----------3----------3----------------3--|-----------------3---------------|
G|-2-------2-----------2-------------|-----------------2-----------------------|---------0-----------0-----------|
D|-------------2---0-----------------|-------------0---------------------------|-----0-----------------------0---|
A|-----------------------------------|-----------------------------------------|---------------------------------|
E|-----------------------------------|-----------------------------------------|-3-----------------------3-------|


E|---------------------------------|---------------------------------|---------------------------------|
B|-----0-----------------------1---|---------------------1-----------|---------------------------------|
G|-0-------0---------------2-------|-2---------------2-------2-------|-------------1-------------------|
D|-------------0-------2-----------|-----2-------2---------------2---|---------0-------0---------------|
A|-----------------0---------------|---------0-----------------------|-----2---------------2-------2---|
E|---------------------------------|---------------------------------|-0-----------------------0-------|


E|---------------------------------|-----------------1---------------|---------------------------------|
B|-----0-------------------1-------|-----2---------------------------|-------------0-------------------|
G|---------------------------------|-------------2---------------0---|---------1-------1---------------|
D|-0-------0-----------2-----------|-2-------0---------------0-------|-----0---------------0-------2---|
A|-------------2---3-----------0---|---------------------------------|-------------------------0-------|
E|---------------------------------|---------------------3-----------|-0-------------------------------|


E|-------------------------1-------|---------------------------------|---------------------------------|
B|-----2---------------------------|-----------------------------1---|-----1-----------0---------------|
G|-2-------2-----------2-----------|-----0-----------1---------------|---------2-----------1-----------|
D|-------------2---0---------------|-0-----------------------2-------|-----------------------------2---|
A|---------------------------------|-------------2-------0-----------|-0-----------------------0-------|
E|-----------------------------3---|---------0-----------------------|-------------0-------------------|


E|---------------------------------|---------------------------------|---------------------------------|
B|-----1-----------------------1---|---------------------------------|-------------1-------------------|
G|-2-------2---------------0-------|---------------------0-----------|---------2-------2---------------|
D|-------------2-------2-----------|-----------------2-------2-------|-----2---------------2-------2---|
A|-----------------3---------------|-3---2-------2---------------2---|-0-----------------------0-------|
E|---------------------------------|---------0-----------------------|---------------------------------|


E|-----------------------------3--1--|----0--1-----------------3--1---0--1-----|-------------3-------------------|
B|-----1-------------------3---------|----------3----------3----------------3--|-----------------3---------------|
G|-2-------2-----------2-------------|-----------------2-----------------------|---------0-----------0-------0---|
D|-------------2---0-----------------|-------------0---------------------------|-----0---------------------------|
A|-----------------------------------|-----------------------------------------|---------------------------------|
E|-----------------------------------|-----------------------------------------|-3-----------------------3-------|


E|---------------------------------|---------------------------------|---------------------------------|
B|-3---------------------------1---|---------------------------------|-------------1-------------------|
G|-------------------------0-------|---------------------0-----------|---------2-------2---------------|
D|-----0---------------2-----------|-----------------2-------2-------|-----2---------------2-------2---|
A|---------0---2---3---------------|-3---2-------2---------------2---|-0-----------------------0-------|
E|---------------------------------|---------0-----------------------|---------------------------------|


E|-----------------------------3--1--|----0--1-----------------3--1---0--1-----|-------------3-------------------|
B|-----1-------------------3---------|----------3----------3----------------3--|-----------------3---------------|
G|-2-------2-----------2-------------|-----------------2-----------------------|---------0-----------0-----------|
D|-------------2---0-----------------|-------------0---------------------------|-----0-----------------------0---|
A|-----------------------------------|-----------------------------------------|---------------------------------|
E|-----------------------------------|-----------------------------------------|-3-----------------------3-------|


E|---------------------------------|---------------------------------|---------------------------------|
B|-----0-----------------------1---|---------------------1-----------|---------------------------------|
G|-0-------0---------------2-------|-2---------------2-------2-------|-------------1-------------------|
D|-------------0-------2-----------|-----2-------2---------------2---|---------0-------0---------------|
A|-----------------0---------------|---------0-----------------------|-----2---------------2-------2---|
E|---------------------------------|---------------------------------|-0-----------------------0-------|


E|---------------------------------|-----------------1---------------|---------------------------------|
B|-----0-------------------1-------|-----2---------------------------|-------------0-------------------|
G|---------------------------------|-------------2---------------0---|---------1-------1---------------|
D|-0-------0-----------2-----------|-2-------0---------------0-------|-----0---------------0-------2---|
A|-------------2---3-----------0---|---------------------------------|-------------------------0-------|
E|---------------------------------|---------------------3-----------|-0-------------------------------|


E|-------------------------1-------|---------------------------------|---------------------------------|
B|-----2---------------------------|-----------------------------1---|-----1-----------0---------------|
G|-2-------2-----------2-----------|-----0-----------1---------------|---------2-----------1-----------|
D|-------------2---0---------------|-0-----------------------2-------|-----------------------------2---|
A|---------------------------------|-------------2-------0-----------|-0-----------------------0-------|
E|-----------------------------3---|---------0-----------------------|-------------0-------------------|


E|---------------------------------|----------------|
B|-----1---------------1-----------|-0--------------|
G|-2-------2---------------2-------|-----1----------|
D|-------------2-------------------|----------------|
A|-----------------0---------------|---------0------|
E|-----------------------------0---|----------------|





Track 3: Solo Harmony

E|--------|--------|--------|--------|--------|--------|--------|--------|--------|
B|--------|--------|--------|--------|--------|--------|--------|--------|--------|
G|--------|--------|--------|--------|--------|--------|--------|--------|--------|
D|--------|--------|--------|--------|--------|--------|--------|--------|--------|
A|--------|--------|--------|--------|--------|--------|--------|--------|--------|
E|--------|--------|--------|--------|--------|--------|--------|--------|--------|


E|-------10--10---------|-------------|--------|--------|--------|--------|--------|
B|--------------10-10---|-------------|--------|--------|--------|--------|--------|
G|----------------------|-------------|--------|--------|--------|--------|--------|
D|----------------------|-------------|--------|--------|--------|--------|--------|
A|----------------------|-------------|--------|--------|--------|--------|--------|
E|----------------------|-------------|--------|--------|--------|--------|--------|


E|--------|--------|--------|--------|--------|--------|--------|--------|--------|
B|--------|--------|--------|--------|--------|--------|--------|--------|--------|
G|--------|--------|--------|--------|--------|--------|--------|--------|--------|
D|--------|--------|--------|--------|--------|--------|--------|--------|--------|
A|--------|--------|--------|--------|--------|--------|--------|--------|--------|
E|--------|--------|--------|--------|--------|--------|--------|--------|--------|


E|--------|--------|--------|--------|--------|--------|--------|--------|--------|
B|--------|--------|--------|--------|--------|--------|--------|--------|--------|
G|--------|--------|--------|--------|--------|--------|--------|--------|--------|
D|--------|--------|--------|--------|--------|--------|--------|--------|--------|
A|--------|--------|--------|--------|--------|--------|--------|--------|--------|
E|--------|--------|--------|--------|--------|--------|--------|--------|--------|


E|------------------|-------------------------|-----------------|------------10----12----------|
B|-------13---13----|------13-13-13-----------|-13----13---12---|------13----------------------|
G|------------------|---------------12--12----|-----------------|------------------------12-10-|
D|------------------|-------------------------|-----------------|------------------------------|
A|------------------|-------------------------|-----------------|------------------------------|
E|------------------|-------------------------|-----------------|------------------------------|


E|---------------------------------|-8---7------------------------|-----------------------|
B|-----------------10--------------|---------10--9----------------|-------6----8--10--3---|
G|-9-------10--12----------9---10--|-----------------7---10--9----|-----------------------|
D|-----11--------------12----------|------------------------------|-----------------------|
A|---------------------------------|------------------------------|-----------------------|
E|---------------------------------|------------------------------|-----------------------|


E|--------------------------8--10-|-10---8---8----7---7----|------7---8--10-10---8---8---|
B|-5---8--------------------------|------------------------|-----------------------------|
G|---------4---5---7---9----------|------------------------|-----------------------------|
D|--------------------------------|------------------------|-----------------------------|
A|--------------------------------|------------------------|-----------------------------|
E|--------------------------------|------------------------|-----------------------------|


E|-----7---7------|
B|----------------|
G|----------------|
D|----------------|
A|----------------|
E|----------------|





Track 4: Solo Guitar

E|--------|--------|--------|--------|--------|--------|--------|--------|--------|
B|--------|--------|--------|--------|--------|--------|--------|--------|--------|
G|--------|--------|--------|--------|--------|--------|--------|--------|--------|
D|--------|--------|--------|--------|--------|--------|--------|--------|--------|
A|--------|--------|--------|--------|--------|--------|--------|--------|--------|
E|--------|--------|--------|--------|--------|--------|--------|--------|--------|


E|--------|--------|--------|--------|--------|--------|--------|--------|--------|
B|--------|--------|--------|--------|--------|--------|--------|--------|--------|
G|--------|--------|--------|--------|--------|--------|--------|--------|--------|
D|--------|--------|--------|--------|--------|--------|--------|--------|--------|
A|--------|--------|--------|--------|--------|--------|--------|--------|--------|
E|--------|--------|--------|--------|--------|--------|--------|--------|--------|


E|--------|--------|--------|--------|--------|--------|--------|--------|--------|
B|--------|--------|--------|--------|--------|--------|--------|--------|--------|
G|--------|--------|--------|--------|--------|--------|--------|--------|--------|
D|--------|--------|--------|--------|--------|--------|--------|--------|--------|
A|--------|--------|--------|--------|--------|--------|--------|--------|--------|
E|--------|--------|--------|--------|--------|--------|--------|--------|--------|


E|--------|--------|--------|--------|--------|--------|--------|--------|--------|
B|--------|--------|--------|--------|--------|--------|--------|--------|--------|
G|--------|--------|--------|--------|--------|--------|--------|--------|--------|
D|--------|--------|--------|--------|--------|--------|--------|--------|--------|
A|--------|--------|--------|--------|--------|--------|--------|--------|--------|
E|--------|--------|--------|--------|--------|--------|--------|--------|--------|


E|--------|--------|--------|--------|--------|--------|--------|--------|--------|
B|--------|--------|--------|--------|--------|--------|--------|--------|--------|
G|--------|--------|--------|--------|--------|--------|--------|--------|--------|
D|--------|--------|--------|--------|--------|--------|--------|--------|--------|
A|--------|--------|--------|--------|--------|--------|--------|--------|--------|
E|--------|--------|--------|--------|--------|--------|--------|--------|--------|





Track 5: Bass

G|--------|-----------------|---------------------|---------------------|---------------------------|
D|--------|-----------------|---------------------|---------------------|-----2---0-------0-----0---|
A|--------|-------3-----3---|-3---2---------------|-0-----0--------0----|-------------3-------------|
E|--------|-----------------|---------0-----0-----|------------0--------|---------------------------|


G|---------------------------|-0-----0--------0----|-----0---------------------|---------------------|
D|---------0-----0-----------|------------0--------|---------------------------|---------------------|
A|-----0-------------0---2---|---------------------|---------0---2---3-----3---|-3---2---------------|
E|---------------------------|---------------------|---------------------------|---------0-----0-----|


G|---------------------|---------------------------|---------------------------|-0-----0--------0----|
D|---------------------|-----2---0-------0-----0---|---------0-----0-----------|------------0--------|
A|-0-----0--------0----|-------------3-------------|-----0-------------0---2---|---------------------|
E|------------0--------|---------------------------|---------------------------|---------------------|


G|-----0---------------------|---------------------------|---------------------|-----------------------2---|
D|---------------------------|---------------------------|---------------------|---------------------------|
A|---------0---2---0-----0---|---------0-----0-------0---|------------2--------|---------0---2---3---------|
E|---------------------------|-----0-------------0-------|-0-----0--------0----|-----0---------------------|


G|------------------|------------------------|-----------------|------------------|
D|------0-----------|------------------------|-------0---------|------------------|
A|------------------|-----------0---2---0----|-----------------|------------0-----|
E|------------3-----|-0-----0----------------|-------------3---|------0-----------|


G|---------------------|---------------------|---------------------|---------------------|
D|---------------------|---------------------|---------------------|---------------------|
A|-0--------------0----|-----------3-----3---|-3---2---------------|-0-----0--------0----|
E|-------0----0--------|---------------------|---------0-----0-----|------------0--------|


G|---------------------------|---------------------------|-0-----0--------0----|-----0---------------------|
D|-----2---0-------0-----0---|---------0-----0-----------|------------0--------|---------------------------|
A|-------------3-------------|-----0-------------0---2---|---------------------|---------0---2---3-----3---|
E|---------------------------|---------------------------|---------------------|---------------------------|


G|---------------------|---------------------|---------------------------|---------------------------|
D|---------------------|---------------------|-----2---0-------0-----0---|---------0-----0-----------|
A|-3---2---------------|-0-----0--------0----|-------------3-------------|-----0-------------0---2---|
E|---------0-----0-----|------------0--------|---------------------------|---------------------------|


G|-0-----0--------0----|-----0---------------------|---------------------------|---------------------|
D|------------0--------|---------------------------|---------------------------|---------------------|
A|---------------------|---------0---2---0-----0---|---------0-----0-------0---|------------2--------|
E|---------------------|---------------------------|-----0-------------0-------|-0-----0--------0----|


G|-----------------------2---|------------------|------------------------|-----------------|
D|---------------------------|------0-----------|------------------------|-------0---------|
A|---------0---2---3---------|------------------|-----------0---2---0----|-----------------|
E|-----0---------------------|------------3-----|-0-----0----------------|-------------3---|


G|------------------|---------------------|--------------------------|---------------------|
D|------------------|---------------------|--------------------------|---------------------|
A|------------0-----|-0--------------0----|----------------0---------|---------0-----------|
E|------0-----------|-------0----0--------|----------------------0---|-----0---------------|