Site menu:

    

Browse: 0-9 A B C D E F G H I J K L N O P Q R S T U V W X Y Z

u2 - zoo station:



Title: Zoo Station
Artist: 
Album: Achtung Baby
Author: U2


Track 1: Intro SE

E|---------------------------------|-----------------------|--------|--------|--------|
B|-6---6---6---6---6---6---6---6---|-6---6---6---6---------|--------|--------|--------|
G|---------------------------------|-----------------------|--------|--------|--------|
D|---------------------------------|-----------------------|--------|--------|--------|
A|---------------------------------|-----------------------|--------|--------|--------|
E|---------------------------------|-----------------------|--------|--------|--------|


E|--------|--------|--------|--------|--------|--------|--------|--------|--------|
B|--------|--------|--------|--------|--------|--------|--------|--------|--------|
G|--------|--------|--------|--------|--------|--------|--------|--------|--------|
D|--------|--------|--------|--------|--------|--------|--------|--------|--------|
A|--------|--------|--------|--------|--------|--------|--------|--------|--------|
E|--------|--------|--------|--------|--------|--------|--------|--------|--------|


E|--------|--------|--------|--------|--------|--------|--------|--------|--------|
B|--------|--------|--------|--------|--------|--------|--------|--------|--------|
G|--------|--------|--------|--------|--------|--------|--------|--------|--------|
D|--------|--------|--------|--------|--------|--------|--------|--------|--------|
A|--------|--------|--------|--------|--------|--------|--------|--------|--------|
E|--------|--------|--------|--------|--------|--------|--------|--------|--------|


E|--------|--------|--------|--------|--------|--------|--------|--------|--------|
B|--------|--------|--------|--------|--------|--------|--------|--------|--------|
G|--------|--------|--------|--------|--------|--------|--------|--------|--------|
D|--------|--------|--------|--------|--------|--------|--------|--------|--------|
A|--------|--------|--------|--------|--------|--------|--------|--------|--------|
E|--------|--------|--------|--------|--------|--------|--------|--------|--------|


E|--------|--------|--------|--------|--------|--------|--------|--------|--------|
B|--------|--------|--------|--------|--------|--------|--------|--------|--------|
G|--------|--------|--------|--------|--------|--------|--------|--------|--------|
D|--------|--------|--------|--------|--------|--------|--------|--------|--------|
A|--------|--------|--------|--------|--------|--------|--------|--------|--------|
E|--------|--------|--------|--------|--------|--------|--------|--------|--------|


E|--------|--------|--------|--------|--------|--------|--------|--------|--------|
B|--------|--------|--------|--------|--------|--------|--------|--------|--------|
G|--------|--------|--------|--------|--------|--------|--------|--------|--------|
D|--------|--------|--------|--------|--------|--------|--------|--------|--------|
A|--------|--------|--------|--------|--------|--------|--------|--------|--------|
E|--------|--------|--------|--------|--------|--------|--------|--------|--------|


E|--------|--------|--------|--------|--------|--------|--------|--------|--------|
B|--------|--------|--------|--------|--------|--------|--------|--------|--------|
G|--------|--------|--------|--------|--------|--------|--------|--------|--------|
D|--------|--------|--------|--------|--------|--------|--------|--------|--------|
A|--------|--------|--------|--------|--------|--------|--------|--------|--------|
E|--------|--------|--------|--------|--------|--------|--------|--------|--------|


E|--------|--------|--------|--------|--------|--------|--------|--------|--------|
B|--------|--------|--------|--------|--------|--------|--------|--------|--------|
G|--------|--------|--------|--------|--------|--------|--------|--------|--------|
D|--------|--------|--------|--------|--------|--------|--------|--------|--------|
A|--------|--------|--------|--------|--------|--------|--------|--------|--------|
E|--------|--------|--------|--------|--------|--------|--------|--------|--------|


E|--------|--------|--------|--------|--------|--------|--------|--------|--------|
B|--------|--------|--------|--------|--------|--------|--------|--------|--------|
G|--------|--------|--------|--------|--------|--------|--------|--------|--------|
D|--------|--------|--------|--------|--------|--------|--------|--------|--------|
A|--------|--------|--------|--------|--------|--------|--------|--------|--------|
E|--------|--------|--------|--------|--------|--------|--------|--------|--------|


E|--------|--------|--------|--------|--------|--------|--------|--------|--------|
B|--------|--------|--------|--------|--------|--------|--------|--------|--------|
G|--------|--------|--------|--------|--------|--------|--------|--------|--------|
D|--------|--------|--------|--------|--------|--------|--------|--------|--------|
A|--------|--------|--------|--------|--------|--------|--------|--------|--------|
E|--------|--------|--------|--------|--------|--------|--------|--------|--------|


E|--------|--------|--------|--------|--------|--------|--------|--------|--------|
B|--------|--------|--------|--------|--------|--------|--------|--------|--------|
G|--------|--------|--------|--------|--------|--------|--------|--------|--------|
D|--------|--------|--------|--------|--------|--------|--------|--------|--------|
A|--------|--------|--------|--------|--------|--------|--------|--------|--------|
E|--------|--------|--------|--------|--------|--------|--------|--------|--------|


E|--------|--------|--------|--------|--------|--------|--------|--------|--------|
B|--------|--------|--------|--------|--------|--------|--------|--------|--------|
G|--------|--------|--------|--------|--------|--------|--------|--------|--------|
D|--------|--------|--------|--------|--------|--------|--------|--------|--------|
A|--------|--------|--------|--------|--------|--------|--------|--------|--------|
E|--------|--------|--------|--------|--------|--------|--------|--------|--------|


E|--------|--------|--------|--------|--------|--------|--------|--------|--------|
B|--------|--------|--------|--------|--------|--------|--------|--------|--------|
G|--------|--------|--------|--------|--------|--------|--------|--------|--------|
D|--------|--------|--------|--------|--------|--------|--------|--------|--------|
A|--------|--------|--------|--------|--------|--------|--------|--------|--------|
E|--------|--------|--------|--------|--------|--------|--------|--------|--------|


E|--------|--------|--------|--------|--------|--------|--------|--------|--------|
B|--------|--------|--------|--------|--------|--------|--------|--------|--------|
G|--------|--------|--------|--------|--------|--------|--------|--------|--------|
D|--------|--------|--------|--------|--------|--------|--------|--------|--------|
A|--------|--------|--------|--------|--------|--------|--------|--------|--------|
E|--------|--------|--------|--------|--------|--------|--------|--------|--------|


E|--------|--------|--------|--------|--------|--------|--------|--------|--------|
B|--------|--------|--------|--------|--------|--------|--------|--------|--------|
G|--------|--------|--------|--------|--------|--------|--------|--------|--------|
D|--------|--------|--------|--------|--------|--------|--------|--------|--------|
A|--------|--------|--------|--------|--------|--------|--------|--------|--------|
E|--------|--------|--------|--------|--------|--------|--------|--------|--------|


E|--------|--------|--------|--------|--------|--------|--------|--------|--------|
B|--------|--------|--------|--------|--------|--------|--------|--------|--------|
G|--------|--------|--------|--------|--------|--------|--------|--------|--------|
D|--------|--------|--------|--------|--------|--------|--------|--------|--------|
A|--------|--------|--------|--------|--------|--------|--------|--------|--------|
E|--------|--------|--------|--------|--------|--------|--------|--------|--------|


E|--------|--------|--------|--------|--------|--------|--------|--------|
B|--------|--------|--------|--------|--------|--------|--------|--------|
G|--------|--------|--------|--------|--------|--------|--------|--------|
D|--------|--------|--------|--------|--------|--------|--------|--------|
A|--------|--------|--------|--------|--------|--------|--------|--------|
E|--------|--------|--------|--------|--------|--------|--------|--------|





Track 2: E.G I

E|--------|-----------------|--------------------|-----------------|--------------------|
B|--------|-----------------|--------------------|-----------------|--------------------|
G|--------|-----------------|--------------------|-----------------|--------------------|
D|--------|-----------------|--------------------|-----------------|--------------------|
A|--------|-----------12----|-0------------------|-----------12----|-0------------------|
E|--------|-----------------|-3---5--------------|-----------------|-3---5--------------|


E|-----------------|-----------------------|-----------------|--------------------|
B|-----------------|-----------------------|-----------------|--------------------|
G|-----------------|-----------------------|-----------------|--------------------|
D|-----------------|-----------------------|-----------------|--------------------|
A|-----------12----|-0---------------------|-----------12----|-0------------------|
E|-----------------|-3---5---5-------------|-----------------|-3---5--------------|


E|-----------------|--------------------|-----------------|--------------------|-----------------|
B|-----------------|--------------------|-----------------|--------------------|-----------------|
G|-----------------|--------------------|-----------------|--------------------|-----------------|
D|-----------------|--------------------|-----------------|--------------------|-----------------|
A|-----------12----|-0------------------|-----------12----|-0------------------|-----------12----|
E|-----------------|-3---5--------------|-----------------|-3---5--------------|-----------------|


E|--------------------|-----------------|--------------------|-----------------|--------------------|
B|--------------------|-----------------|--------------------|-----------------|--------------------|
G|--------------------|-----------------|--------------------|-----------------|--------------------|
D|--------------------|-----------------|--------------------|-----------------|--------------------|
A|-0------------------|-----------12----|-0------------------|-----------12----|-0------------------|
E|-3---5--------------|-----------------|-3---5--------------|-----------------|-3---5--------------|


E|-----------------|--------------------|--------------------|--------------------|
B|-----------------|--------------------|--------------------|--------------------|
G|-----------------|--------------------|--------------------|--------------------|
D|-----------------|--------------------|--------------------|--------------------|
A|-----------12----|-0------------------|-----------12--12---|-0------------------|
E|-----------------|-3---5--------------|--------------------|-3---5--------------|


E|-----------------|-----------------|--------|--------|--------|--------|--------|
B|-----------------|-----------------|--------|--------|--------|--------|--------|
G|-----------------|-----------------|--------|--------|--------|--------|--------|
D|-----------------|-----------------|--------|--------|--------|--------|--------|
A|-----------12----|-0---------------|--------|--------|--------|--------|--------|
E|-----------------|-3---------------|--------|--------|--------|--------|--------|


E|--------|--------|-----------------|--------------------|-----------------|--------------------|
B|--------|--------|-----------------|--------------------|-----------------|--------------------|
G|--------|--------|-----------------|--------------------|-----------------|--------------------|
D|--------|--------|-----------------|--------------------|-----------------|--------------------|
A|--------|--------|-----------12----|-0------------------|-----------12----|-0------------------|
E|--------|--------|-----------------|-3---5--------------|-----------------|-3---5--------------|


E|--------------------|--------------------|-----------------|--------------------|
B|--------------------|--------------------|-----------------|--------------------|
G|--------------------|--------------------|-----------------|--------------------|
D|--------------------|--------------------|-----------------|--------------------|
A|-----------12--12---|-0------------------|-----------12----|-0------------------|
E|--------------------|-3---5--------------|-----------------|-3---5--------------|


E|-----------------|--------------------|-----------------|--------------------|--------------------|
B|-----------------|--------------------|-----------------|--------------------|--------------------|
G|-----------------|--------------------|-----------------|--------------------|--------------------|
D|-----------------|--------------------|-----------------|--------------------|--------------------|
A|-----------12----|-0------------------|-----------12----|-0------------------|-----------12--12---|
E|-----------------|-3---5--------------|-----------------|-3---5--------------|--------------------|


E|--------------------|-----------------|--------------------|-----------------|--------------------|
B|--------------------|-----------------|--------------------|-----------------|--------------------|
G|--------------------|-----------------|--------------------|-----------------|--------------------|
D|--------------------|-----------------|--------------------|-----------------|--------------------|
A|-0------------------|-----------12----|-0------------------|-----------12----|-0------------------|
E|-3---5--------------|-----------------|-3---5--------------|-----------------|-3---5--------------|


E|-----------------|--------------------|--------------------|--------------------|
B|-----------------|--------------------|--------------------|--------------------|
G|-----------------|--------------------|--------------------|--------------------|
D|-----------------|--------------------|--------------------|--------------------|
A|-----------12----|-0------------------|-----------12--12---|-0------------------|
E|-----------------|-3---5--------------|--------------------|-3---5--------------|


E|-----------------|--------------------|--------|--------|--------|--------|--------|
B|-----------------|--------------------|--------|--------|--------|--------|--------|
G|-----------------|--------------------|--------|--------|--------|--------|--------|
D|-----------------|--------------------|--------|--------|--------|--------|--------|
A|-----------12----|-0------------------|--------|--------|--------|--------|--------|
E|-----------------|-3---5--------------|--------|--------|--------|--------|--------|


E|--------|--------|--------|--------|-----------------|--------------------|-----------------|
B|--------|--------|--------|--------|-----------------|--------------------|-----------------|
G|--------|--------|--------|--------|-----------------|--------------------|-----------------|
D|--------|--------|--------|--------|-----------------|--------------------|-----------------|
A|--------|--------|--------|--------|-----------12----|-0------------------|-----------12----|
E|--------|--------|--------|--------|-----------------|-3---5--------------|-----------------|


E|--------------------|-----------------|--------------------|-----------------|--------------------|
B|--------------------|-----------------|--------------------|-----------------|--------------------|
G|--------------------|-----------------|--------------------|-----------------|--------------------|
D|--------------------|-----------------|--------------------|-----------------|--------------------|
A|-0------------------|-----------12----|-0------------------|-----------12----|-0------------------|
E|-3---5--------------|-----------------|-3---5--------------|-----------------|-3---5--------------|


E|-----------------|--------------------|--------|--------|-----------------|--------------------|
B|-----------------|--------------------|--------|--------|-----------------|--------------------|
G|-----------------|--------------------|--------|--------|-----------------|--------------------|
D|-----------------|--------------------|--------|--------|-----------------|--------------------|
A|-----------12----|-0------------------|--------|--------|-----------12----|-0------------------|
E|-----------------|-3---5--------------|--------|--------|-----------------|-3---5--------------|


E|--------------------|-----------------|--------|--------|--------|--------|--------|
B|--------------------|-----------------|--------|--------|--------|--------|--------|
G|--------------------|-----------------|--------|--------|--------|--------|--------|
D|--------------------|-----------------|--------|--------|--------|--------|--------|
A|-----------12--12---|-0---------------|--------|--------|--------|--------|--------|
E|--------------------|-3---------------|--------|--------|--------|--------|--------|


E|--------|--------|--------|--------|--------|--------|--------|--------|--------|
B|--------|--------|--------|--------|--------|--------|--------|--------|--------|
G|--------|--------|--------|--------|--------|--------|--------|--------|--------|
D|--------|--------|--------|--------|--------|--------|--------|--------|--------|
A|--------|--------|--------|--------|--------|--------|--------|--------|--------|
E|--------|--------|--------|--------|--------|--------|--------|--------|--------|


E|--------|--------|--------|--------|--------|--------|--------|--------|--------|
B|--------|--------|--------|--------|--------|--------|--------|--------|--------|
G|--------|--------|--------|--------|--------|--------|--------|--------|--------|
D|--------|--------|--------|--------|--------|--------|--------|--------|--------|
A|--------|--------|--------|--------|--------|--------|--------|--------|--------|
E|--------|--------|--------|--------|--------|--------|--------|--------|--------|


E|--------|--------|--------|--------|--------|--------|--------|--------|--------|
B|--------|--------|--------|--------|--------|--------|--------|--------|--------|
G|--------|--------|--------|--------|--------|--------|--------|--------|--------|
D|--------|--------|--------|--------|--------|--------|--------|--------|--------|
A|--------|--------|--------|--------|--------|--------|--------|--------|--------|
E|--------|--------|--------|--------|--------|--------|--------|--------|--------|


E|--------|--------|--------|--------|--------|--------|--------|--------|--------|
B|--------|--------|--------|--------|--------|--------|--------|--------|--------|
G|--------|--------|--------|--------|--------|--------|--------|--------|--------|
D|--------|--------|--------|--------|--------|--------|--------|--------|--------|
A|--------|--------|--------|--------|--------|--------|--------|--------|--------|
E|--------|--------|--------|--------|--------|--------|--------|--------|--------|


E|--------|--------|--------|--------|--------|--------|--------|--------|--------|
B|--------|--------|--------|--------|--------|--------|--------|--------|--------|
G|--------|--------|--------|--------|--------|--------|--------|--------|--------|
D|--------|--------|--------|--------|--------|--------|--------|--------|--------|
A|--------|--------|--------|--------|--------|--------|--------|--------|--------|
E|--------|--------|--------|--------|--------|--------|--------|--------|--------|


E|--------|--------|-------------|--------|--------|--------|-------------|--------|
B|--------|--------|-------------|--------|--------|--------|-------------|--------|
G|--------|--------|-------------|--------|--------|--------|-------------|--------|
D|--------|-11-----|-11----9-----|-7------|-7------|-11-----|-11----9-----|-7------|
A|--------|--------|-------------|--------|--------|--------|-------------|--------|
E|--------|--------|-------------|--------|--------|--------|-------------|--------|


E|--------|-------------|--------------------|--------------------|-----------------|
B|--------|-------------|--------------------|--------------------|-----------------|
G|--------|-------9-----|-9-----9---11--11---|-11--9---9----9-----|-9-----11--11----|
D|-7------|-------------|--------------------|--------------------|-----------------|
A|--------|-------------|--------------------|--------------------|-----------------|
E|--------|-------------|--------------------|--------------------|-----------------|


E|--------|--------|--------|--------|
B|--------|--------|--------|--------|
G|-0------|-0------|-0------|-0------|
D|--------|--------|--------|--------|
A|--------|--------|--------|--------|
E|--------|--------|--------|--------|





Track 3: E.G II

E|--------|--------|--------|--------|--------|--------|--------|--------|--------|
B|--------|--------|--------|--------|--------|--------|--------|--------|--------|
G|--------|--------|--------|--------|--------|--------|--------|--------|--------|
D|--------|--------|--------|--------|--------|--------|--------|--------|--------|
A|--------|--------|--------|--------|--------|--------|--------|--------|--------|
E|--------|--------|--------|--------|--------|--------|--------|--------|--------|


E|--------|---------------------------|-----------------------|---------------------------|
B|--------|-10--10--10------10--------|-10--10------10--------|-10--10--10------10--------|
G|--------|-9---9---9-------9---------|-9---9-------9---------|-9---9---9-------9---------|
D|--------|-7---------------7---------|-7-----------7---------|-7---------------7---------|
A|--------|---------------------------|-----------------------|---------------------------|
E|--------|---------------------------|-----------------------|---------------------------|


E|-----------------------|---------------------------|-----------------------|---------------------------|
B|-10--10------10--------|-10--10--10------10--------|-10--10------10--------|-10--10--10------10--------|
G|-9---9-------9---------|-9---9---9-------9---------|-9---9-------9---------|-9---9---9-------9---------|
D|-7-----------7---------|-7---------------7---------|-7-----------7---------|-7---------------7---------|
A|-----------------------|---------------------------|-----------------------|---------------------------|
E|-----------------------|---------------------------|-----------------------|---------------------------|


E|-----------------------|--------|--------|---------------------------|-----------------------|
B|-10--10------10--------|--------|--------|-10--10--10------10--------|-10--10------10--------|
G|-9---9-------9---------|--------|--------|-9---9---9-------9---------|-9---9-------9---------|
D|-7-----------7---------|--------|--------|-7---------------7---------|-7-----------7---------|
A|-----------------------|--------|--------|---------------------------|-----------------------|
E|-----------------------|--------|--------|---------------------------|-----------------------|


E|---------------------------|-----------------------|---------------------------|
B|-10--10--10------10--------|-10--10------10--------|-----10--10---10-----------|
G|-9---9---9-------9---------|-9---9-------9---------|---------------------------|
D|-7---------------7---------|-7-----------7---------|-11----------------11--12--|
A|---------------------------|-----------------------|---------------------------|
E|---------------------------|-----------------------|---------------------------|


E|-----------------|--------|--------------------|---------------------|--------------------|
B|-----------------|--------|--------------------|-------10--10--------|--------------------|
G|-----------------|--------|--------------------|---------------------|-------11-----------|
D|-12----12----11--|-11-----|-11----11--12--12---|-12-------------12---|-12---------12--11--|
A|-----------------|--------|--------------------|---------------------|--------------------|
E|-----------------|--------|--------------------|---------------------|--------------------|


E|-----------------|--------|--------|--------|--------|--------|--------|--------|
B|-----------------|--------|--------|--------|--------|--------|--------|--------|
G|-------9---9-----|-9------|--------|--------|--------|--------|--------|--------|
D|-11--------------|--------|--------|--------|--------|--------|--------|--------|
A|-----------------|--------|--------|--------|--------|--------|--------|--------|
E|-----------------|--------|--------|--------|--------|--------|--------|--------|


E|--------|--------|--------|--------|--------|--------|--------|--------|--------|
B|--------|--------|--------|--------|--------|--------|--------|--------|--------|
G|--------|--------|--------|--------|--------|--------|--------|--------|--------|
D|--------|--------|--------|--------|--------|--------|--------|--------|--------|
A|--------|--------|--------|--------|--------|--------|--------|--------|--------|
E|--------|--------|--------|--------|--------|--------|--------|--------|--------|


E|--------|--------|--------|--------|--------|--------|--------|--------|--------|
B|--------|--------|--------|--------|--------|--------|--------|--------|--------|
G|--------|--------|--------|--------|--------|--------|--------|--------|--------|
D|--------|--------|--------|--------|--------|--------|--------|--------|--------|
A|--------|--------|--------|--------|--------|--------|--------|--------|--------|
E|--------|--------|--------|--------|--------|--------|--------|--------|--------|


E|---------------------------|-----------------|--------|--------------------|---------------------|
B|-----10--10---10-----------|-----------------|--------|--------------------|-------10--10--------|
G|---------------------------|-----------------|--------|--------------------|---------------------|
D|-11----------------11--12--|-12----12----11--|-11-----|-11----11--12--12---|-12-------------12---|
A|---------------------------|-----------------|--------|--------------------|---------------------|
E|---------------------------|-----------------|--------|--------------------|---------------------|


E|--------------------|-----------------|--------|--------|--------|--------|--------|
B|--------------------|-----------------|--------|--------|--------|--------|--------|
G|-------11-----------|-------9---9-----|-9------|--------|--------|--------|--------|
D|-12---------12--11--|-11--------------|--------|--------|--------|--------|--------|
A|--------------------|-----------------|--------|--------|--------|--------|--------|
E|--------------------|-----------------|--------|--------|--------|--------|--------|


E|--------|--------|--------|--------|--------|--------|--------|--------|--------|
B|--------|--------|--------|--------|--------|--------|--------|--------|--------|
G|--------|--------|--------|--------|--------|--------|--------|--------|--------|
D|--------|--------|--------|--------|--------|--------|--------|--------|--------|
A|--------|--------|--------|--------|--------|--------|--------|--------|--------|
E|--------|--------|--------|--------|--------|--------|--------|--------|--------|


E|--------|--------|--------|--------------------|--------|--------|--------|--------|
B|--------|--------|--------|-----10--10---10----|-10-----|-10-----|-10-----|-10-----|
G|--------|--------|--------|--------------------|--------|--------|--------|--------|
D|--------|--------|--------|-11-----------------|--------|--------|--------|--------|
A|--------|--------|--------|--------------------|--------|--------|--------|--------|
E|--------|--------|--------|--------------------|--------|--------|--------|--------|


E|--------|--------|--------|-------------------------------------------|-------------------------------------------|
B|-10-----|-10-----|-10-----|-------------------------------------------|-------------------------------------------|
G|--------|--------|--------|-------------------------------------------|-------------------------------------------|
D|--------|--------|--------|-7--7---6--7--7---6--7--8--9--11-9--9--11--|-7--7---6--7--7---6--7--8--9--11-9--9--11--|
A|--------|--------|--------|-------------------------------------------|-------------------------------------------|
E|--------|--------|--------|-------------------------------------------|-------------------------------------------|


E|-------------------------------------------|-------------------------------------------|
B|-------------------------------------------|-------------------------------------------|
G|-------------------------------------------|-------------------------------------------|
D|-7--7---6--7--7---6--7--8--9--11-9--9--11--|-7--7---6--7--7---6--7--8--9--11-9--9--11--|
A|-------------------------------------------|-------------------------------------------|
E|-------------------------------------------|-------------------------------------------|


E|-------------------------------------------|-------------------------------------------|
B|-------------------------------------------|-------------------------------------------|
G|-------------------------------------------|-------------------------------------------|
D|-7--7---6--7--7---6--7--8--9--11-9--9--11--|-7--7---6--7--7---6--7--8--9--11-9--9--11--|
A|-------------------------------------------|-------------------------------------------|
E|-------------------------------------------|-------------------------------------------|


E|-------------------------------------------|-------------------------------------------|
B|-------------------------------------------|-------------------------------------------|
G|-------------------------------------------|-------------------------------------------|
D|-7--7---6--7--7---6--7--8--9--11-9--9--11--|-7--7---6--7--7---6--7--8--9--11-9--9--11--|
A|-------------------------------------------|-------------------------------------------|
E|-------------------------------------------|-------------------------------------------|


E|-------------------------------------------|-------------------------------------------|
B|-------------------------------------------|-------------------------------------------|
G|-------------------------------------------|-------------------------------------------|
D|-7--7---6--7--7---6--7--8--9--11-9--9--11--|-7--7---6--7--7---6--7--8--9--11-9--9--11--|
A|-------------------------------------------|-------------------------------------------|
E|-------------------------------------------|-------------------------------------------|


E|-------------------------------------------|-------------------------------------------|
B|-------------------------------------------|-------------------------------------------|
G|-------------------------------------------|-------------------------------------------|
D|-7--7---6--7--7---6--7--8--9--11-9--9--11--|-7--7---6--7--7---6--7--8--9--11-9--9--11--|
A|-------------------------------------------|-------------------------------------------|
E|-------------------------------------------|-------------------------------------------|


E|-------------------------------------------|-------------------------------------------|
B|-------------------------------------------|-------------------------------------------|
G|-------------------------------------------|-------------------------------------------|
D|-7--7---6--7--7---6--7--8--9--11-9--9--11--|-7--7---6--7--7---6--7--8--9--11-9--9--11--|
A|-------------------------------------------|-------------------------------------------|
E|-------------------------------------------|-------------------------------------------|


E|-------------------------------------------|-------------------------------------------|
B|-------------------------------------------|-------------------------------------------|
G|-------------------------------------------|-------------------------------------------|
D|-7--7---6--7--7---6--7--8--9--11-9--9--11--|-7--7---6--7--7---6--7--8--9--11-9--9--11--|
A|-------------------------------------------|-------------------------------------------|
E|-------------------------------------------|-------------------------------------------|


E|-------------------------------------------|-------------------------------------------|
B|-------------------------------------------|-------------------------------------------|
G|-------------------------------------------|-------------------------------------------|
D|-7--7---6--7--7---6--7--7---6--7--8--9--11-|-7--7---6--7--7---6--7--7---6--7--8--9--11-|
A|-------------------------------------------|-------------------------------------------|
E|-------------------------------------------|-------------------------------------------|


E|-------------------------------------------|-------------------------------------------|
B|-------------------------------------------|-------------------------------------------|
G|-------------------------------------------|-------------------------------------------|
D|-7--7---6--7--7---6--7--7---6--7--8--9--11-|-7--7---6--7--7---6--7--7---6--7--8--9--11-|
A|-------------------------------------------|-------------------------------------------|
E|-------------------------------------------|-------------------------------------------|


E|--------------------|--------|--------|--------|--------|--------|--------|--------|
B|-----10--10---10----|-10-----|-10-----|-10-----|-10-----|-10-----|-10-----|-10-----|
G|--------------------|--------|--------|--------|--------|--------|--------|--------|
D|-11-----------------|--------|--------|--------|--------|--------|--------|--------|
A|--------------------|--------|--------|--------|--------|--------|--------|--------|
E|--------------------|--------|--------|--------|--------|--------|--------|--------|


E|--------------------|--------|--------|--------|--------|--------|--------|--------|
B|-----10--10---10----|-10-----|-10-----|-10-----|-10-----|-10-----|-10-----|-10-----|
G|--------------------|--------|--------|--------|--------|--------|--------|--------|
D|-11-----------------|--------|--------|--------|--------|--------|--------|--------|
A|--------------------|--------|--------|--------|--------|--------|--------|--------|
E|--------------------|--------|--------|--------|--------|--------|--------|--------|


E|--------------------|--------|--------|--------|--------|--------|--------|--------|
B|-----10--10---10----|-10-----|-10-----|-10-----|-10-----|-10-----|-10-----|-10-----|
G|--------------------|--------|--------|--------|--------|--------|--------|--------|
D|-11-----------------|--------|--------|--------|--------|--------|--------|--------|
A|--------------------|--------|--------|--------|--------|--------|--------|--------|
E|--------------------|--------|--------|--------|--------|--------|--------|--------|


E|--------|--------|--------|--------|--------|--------|--------|--------|--------|
B|--------|--------|--------|--------|--------|--------|--------|--------|--------|
G|--------|--------|--------|--------|--------|--------|--------|--------|--------|
D|--------|--------|--------|--------|--------|--------|--------|--------|--------|
A|--------|--------|--------|--------|--------|--------|--------|--------|--------|
E|--------|--------|--------|--------|--------|--------|--------|--------|--------|


E|--------|--------|--------|--------|--------|--------|--------|
B|--------|--------|--------|--------|--------|--------|--------|
G|--------|--------|--------|--------|--------|--------|--------|
D|--------|--------|--------|--------|--------|--------|--------|
A|--------|--------|--------|--------|--------|--------|--------|
E|--------|--------|--------|--------|--------|--------|--------|





Track 4: E.G I

E|--------|--------|--------|--------|--------|--------|--------|--------|--------|
B|--------|--------|--------|--------|--------|--------|--------|--------|--------|
G|--------|--------|--------|--------|--------|--------|--------|--------|--------|
D|--------|--------|--------|--------|--------|--------|--------|--------|--------|
A|--------|--------|--------|--------|--------|--------|--------|--------|--------|
E|--------|--------|--------|--------|--------|--------|--------|--------|--------|


E|--------|--------|--------|--------|--------|--------|--------|--------|--------|
B|--------|--------|--------|--------|--------|--------|--------|--------|--------|
G|--------|--------|--------|--------|--------|--------|--------|--------|--------|
D|--------|--------|--------|--------|--------|--------|--------|--------|--------|
A|--------|--------|--------|--------|--------|--------|--------|--------|--------|
E|--------|--------|--------|--------|--------|--------|--------|--------|--------|


E|--------|--------|--------|--------|--------|--------|--------|--------|--------|
B|--------|--------|--------|--------|--------|--------|--------|--------|--------|
G|--------|--------|--------|--------|--------|--------|--------|--------|--------|
D|--------|--------|--------|--------|--------|--------|--------|--------|--------|
A|--------|--------|--------|--------|--------|--------|--------|--------|--------|
E|--------|--------|--------|--------|--------|--------|--------|--------|--------|


E|--------|--------|--------|--------|--------|--------|--------|--------|--------|
B|--------|--------|--------|--------|--------|--------|--------|--------|--------|
G|--------|--------|--------|--------|--------|--------|--------|--------|--------|
D|--------|--------|--------|--------|--------|--------|--------|--------|--------|
A|--------|--------|--------|--------|--------|--------|--------|--------|--------|
E|--------|--------|--------|--------|--------|--------|--------|--------|--------|


E|--------|--------|--------|--------|--------|--------|--------|--------|--------|
B|--------|--------|--------|--------|--------|--------|--------|--------|--------|
G|--------|--------|--------|--------|--------|--------|--------|--------|--------|
D|--------|--------|--------|--------|--------|--------|--------|--------|--------|
A|--------|--------|--------|--------|--------|--------|--------|--------|--------|
E|--------|--------|--------|--------|--------|--------|--------|--------|--------|


E|--------|--------|--------|--------|--------|--------|--------|--------|--------|
B|--------|--------|--------|--------|--------|--------|--------|--------|--------|
G|--------|--------|--------|--------|--------|--------|--------|--------|--------|
D|--------|--------|--------|--------|--------|--------|--------|--------|--------|
A|--------|--------|--------|--------|--------|--------|--------|--------|--------|
E|--------|--------|--------|--------|--------|--------|--------|--------|--------|


E|--------|--------|--------|--------|--------|--------|--------|--------|--------|
B|--------|--------|--------|--------|--------|--------|--------|--------|--------|
G|--------|--------|--------|--------|--------|--------|--------|--------|--------|
D|--------|--------|--------|--------|--------|--------|--------|--------|--------|
A|--------|--------|--------|--------|--------|--------|--------|--------|--------|
E|--------|--------|--------|--------|--------|--------|--------|--------|--------|


E|--------|--------|--------|--------|--------|--------|--------|--------|--------|
B|--------|--------|--------|--------|--------|--------|--------|--------|--------|
G|--------|--------|--------|--------|--------|--------|--------|--------|--------|
D|--------|--------|--------|--------|--------|--------|--------|--------|--------|
A|--------|--------|--------|--------|--------|--------|--------|--------|--------|
E|--------|--------|--------|--------|--------|--------|--------|--------|--------|


E|--------|--------|--------|--------|--------|--------|--------|--------|--------|
B|--------|--------|--------|--------|--------|--------|--------|--------|--------|
G|--------|--------|--------|--------|--------|--------|--------|--------|--------|
D|--------|--------|--------|--------|--------|--------|--------|--------|--------|
A|--------|--------|--------|--------|--------|--------|--------|--------|--------|
E|--------|--------|--------|--------|--------|--------|--------|--------|--------|


E|--------|--------|--------|--------|--------|--------|--------|--------|--------|
B|--------|--------|--------|--------|--------|--------|--------|--------|--------|
G|--------|--------|--------|--------|--------|--------|--------|--------|--------|
D|--------|--------|--------|--------|--------|--------|--------|--------|--------|
A|--------|--------|--------|--------|--------|--------|--------|--------|--------|
E|--------|--------|--------|--------|--------|--------|--------|--------|--------|


E|--------|--------|--------|--------|--------|--------|--------|--------|--------|
B|--------|--------|--------|--------|--------|--------|--------|--------|--------|
G|--------|--------|--------|--------|--------|--------|--------|--------|--------|
D|--------|--------|--------|--------|--------|--------|--------|--------|--------|
A|--------|--------|--------|--------|--------|--------|--------|--------|--------|
E|--------|--------|--------|--------|--------|--------|--------|--------|--------|


E|--------|--------|--------|--------|--------|--------|--------|--------|--------|
B|--------|--------|--------|--------|--------|--------|--------|--------|--------|
G|--------|--------|--------|--------|--------|--------|--------|--------|--------|
D|--------|--------|--------|--------|--------|--------|--------|--------|--------|
A|--------|--------|--------|--------|--------|--------|--------|--------|--------|
E|--------|--------|--------|--------|--------|--------|--------|--------|--------|


E|--------|--------|--------|--------|--------|--------|--------|--------|--------|
B|--------|--------|--------|--------|--------|--------|--------|--------|--------|
G|--------|--------|--------|--------|--------|--------|--------|--------|--------|
D|--------|--------|--------|--------|--------|--------|--------|--------|--------|
A|--------|--------|--------|--------|--------|--------|--------|--------|--------|
E|--------|--------|--------|--------|--------|--------|--------|--------|--------|


E|--------|--------|--------|--------|--------|--------|--------|--------|--------|
B|--------|--------|--------|--------|--------|--------|--------|--------|--------|
G|--------|--------|--------|--------|--------|--------|--------|--------|--------|
D|--------|--------|--------|--------|--------|--------|--------|--------|--------|
A|--------|--------|--------|--------|--------|--------|--------|--------|--------|
E|--------|--------|--------|--------|--------|--------|--------|--------|--------|


E|--------|--------|--------|--------|--------|--------|--------|--------|--------|
B|--------|--------|--------|--------|--------|--------|--------|--------|--------|
G|--------|--------|--------|--------|--------|--------|--------|--------|--------|
D|--------|--------|--------|--------|--------|--------|--------|--------|--------|
A|--------|--------|--------|--------|--------|--------|--------|--------|--------|
E|--------|--------|--------|--------|--------|--------|--------|--------|--------|


E|--------|--------|--------|--------|--------|--------|--------|--------|--------|
B|--------|--------|--------|--------|--------|--------|--------|--------|--------|
G|--------|--------|--------|--------|--------|--------|--------|--------|--------|
D|--------|--------|--------|--------|--------|--------|--------|--------|--------|
A|--------|--------|--------|--------|--------|--------|--------|--------|--------|
E|--------|--------|--------|--------|--------|--------|--------|--------|--------|


E|--------|--------|--------|--------|
B|--------|--------|--------|--------|
G|--------|--------|--------|--------|
D|--------|--------|--------|--------|
A|--------|--------|--------|--------|
E|--------|--------|--------|--------|





Track 5: Synth II

E|--------|--------|--------|--------|--------|--------|--------|--------|--------|
B|--------|--------|--------|--------|--------|--------|--------|--------|--------|
G|--------|--------|--------|--------|--------|--------|--------|--------|--------|
D|--------|--------|--------|--------|--------|--------|--------|--------|--------|
A|--------|--------|--------|--------|--------|--------|--------|--------|--------|
E|--------|--------|--------|--------|--------|--------|--------|--------|--------|


E|--------|--------|--------|--------|--------|--------|--------|--------|--------|
B|--------|--------|--------|--------|--------|--------|--------|--------|--------|
G|--------|--------|--------|--------|--------|--------|--------|--------|--------|
D|--------|--------|--------|--------|--------|--------|--------|--------|--------|
A|--------|--------|--------|--------|--------|--------|--------|--------|--------|
E|--------|--------|--------|--------|--------|--------|--------|--------|--------|


E|--------|--------|--------|--------|--------|--------|-5------|-5------|-5------5----|
B|--------|--------|--------|--------|--------|--------|-3------|-3------|-5------5----|
G|--------|--------|--------|--------|--------|--------|-4------|-4------|-6------6----|
D|--------|--------|--------|--------|--------|--------|--------|--------|-------------|
A|--------|--------|--------|--------|--------|--------|--------|--------|-------------|
E|--------|--------|--------|--------|--------|--------|--------|--------|-------------|


E|-5------|-5------|-5------|-5------5----|-5------|--------|--------|--------|--------|
B|-5------|-3------|-3------|-5------5----|-5------|--------|--------|--------|--------|
G|-6------|-4------|-4------|-6------6----|-6------|--------|--------|--------|--------|
D|--------|--------|--------|-------------|--------|--------|--------|--------|--------|
A|--------|--------|--------|-------------|--------|--------|--------|--------|--------|
E|--------|--------|--------|-------------|--------|--------|--------|--------|--------|


E|--------|--------|--------|--------|--------|--------|--------|--------|--------|
B|--------|--------|--------|--------|--------|--------|--------|--------|--------|
G|--------|--------|--------|--------|--------|--------|--------|--------|--------|
D|--------|--------|--------|--------|--------|--------|--------|--------|--------|
A|--------|--------|--------|--------|--------|--------|--------|--------|--------|
E|--------|--------|--------|--------|--------|--------|--------|--------|--------|


E|--------|--------|--------|--------|--------|--------|--------|--------|--------|
B|--------|--------|--------|--------|--------|--------|--------|--------|--------|
G|--------|--------|--------|--------|--------|--------|--------|--------|--------|
D|--------|--------|--------|--------|--------|--------|--------|--------|--------|
A|--------|--------|--------|--------|--------|--------|--------|--------|--------|
E|--------|--------|--------|--------|--------|--------|--------|--------|--------|


E|--------|--------|-5------|-5------|-5------|-5------|-5------|-5------|-5------|
B|--------|--------|-3------|-3------|-5------|-5------|-3------|-3------|-5------|
G|--------|--------|-4------|-4------|-6------|-6------|-4------|-4------|-6------|
D|--------|--------|--------|--------|--------|--------|--------|--------|--------|
A|--------|--------|--------|--------|--------|--------|--------|--------|--------|
E|--------|--------|--------|--------|--------|--------|--------|--------|--------|


E|-5------|--------|--------|--------|--------|--------|--------|--------|--------|
B|-5------|--------|--------|--------|--------|--------|--------|--------|--------|
G|-6------|--------|--------|--------|--------|--------|--------|--------|--------|
D|--------|--------|--------|--------|--------|--------|--------|--------|--------|
A|--------|--------|--------|--------|--------|--------|--------|--------|--------|
E|--------|--------|--------|--------|--------|--------|--------|--------|--------|


E|--------|--------|--------|--------|--------|--------|--------|--------|-5------|
B|--------|--------|--------|--------|--------|--------|--------|--------|-3------|
G|--------|--------|--------|--------|--------|--------|--------|--------|-4------|
D|--------|--------|--------|--------|--------|--------|--------|--------|--------|
A|--------|--------|--------|--------|--------|--------|--------|--------|--------|
E|--------|--------|--------|--------|--------|--------|--------|--------|--------|


E|-5------|-5------|-5------|-5------|-5------|-5------|-5------|--------|--------|
B|-3------|-5------|-5------|-3------|-3------|-5------|-5------|--------|--------|
G|-4------|-6------|-6------|-4------|-4------|-6------|-6------|--------|--------|
D|--------|--------|--------|--------|--------|--------|--------|--------|--------|
A|--------|--------|--------|--------|--------|--------|--------|--------|--------|
E|--------|--------|--------|--------|--------|--------|--------|--------|--------|


E|--------|--------|--------|--------|--------|--------|--------|--------|--------|
B|--------|--------|--------|--------|--------|--------|--------|--------|--------|
G|--------|--------|--------|--------|--------|--------|--------|--------|--------|
D|--------|--------|--------|--------|--------|--------|--------|--------|--------|
A|--------|--------|--------|--------|--------|--------|--------|--------|--------|
E|--------|--------|--------|--------|--------|--------|--------|--------|--------|


E|--------|--------|--------|--------|--------|--------|--------|--------|--------|
B|--------|--------|--------|--------|--------|--------|--------|--------|--------|
G|--------|--------|--------|--------|--------|--------|--------|--------|--------|
D|--------|--------|--------|--------|--------|--------|--------|--------|--------|
A|--------|--------|--------|--------|--------|--------|--------|--------|--------|
E|--------|--------|--------|--------|--------|--------|--------|--------|--------|


E|-17-----|-17-----|-17-----|-17-----|-17-----|-17-----|-17-----|-17-----|-17-----|
B|-15-----|-15-----|-17-----|-17-----|-15-----|-15-----|-17-----|-17-----|-15-----|
G|-16-----|-16-----|-18-----|-18-----|-16-----|-16-----|-18-----|-18-----|-16-----|
D|--------|--------|--------|--------|--------|--------|--------|--------|--------|
A|--------|--------|--------|--------|--------|--------|--------|--------|--------|
E|--------|--------|--------|--------|--------|--------|--------|--------|--------|


E|-17-----|-17-----|-17-----|-17-----|-17-----|-17-----|-17-----|-17-----|-17-----|
B|-15-----|-17-----|-17-----|-15-----|-15-----|-17-----|-17-----|-15-----|-15-----|
G|-16-----|-18-----|-18-----|-16-----|-16-----|-18-----|-18-----|-16-----|-16-----|
D|--------|--------|--------|--------|--------|--------|--------|--------|--------|
A|--------|--------|--------|--------|--------|--------|--------|--------|--------|
E|--------|--------|--------|--------|--------|--------|--------|--------|--------|


E|-17-----|-17-----|-17-----|-17-----|-17-----|-17-----|--------|--------|--------|
B|-17-----|-17-----|-15-----|-15-----|-17-----|-17-----|--------|--------|--------|
G|-18-----|-18-----|-16-----|-16-----|-18-----|-18-----|--------|--------|--------|
D|--------|--------|--------|--------|--------|--------|--------|--------|--------|
A|--------|--------|--------|--------|--------|--------|--------|--------|--------|
E|--------|--------|--------|--------|--------|--------|--------|--------|--------|


E|--------|--------|--------|--------|--------|--------|--------|--------|--------|
B|--------|--------|--------|--------|--------|--------|--------|--------|--------|
G|--------|--------|--------|--------|--------|--------|--------|--------|--------|
D|--------|--------|--------|--------|--------|--------|--------|--------|--------|
A|--------|--------|--------|--------|--------|--------|--------|--------|--------|
E|--------|--------|--------|--------|--------|--------|--------|--------|--------|


E|-0------|-0------|-0------|-0------|
B|-2------|-2------|-2------|-2------|
G|-0------|-0------|-0------|-0------|
D|--------|--------|--------|--------|
A|--------|--------|--------|--------|
E|--------|--------|--------|--------|





Track 6: Synth I

G|--------|--------|--------|--------|--------|--------|--------|--------|--------|
D|--------|--------|--------|--------|--------|--------|--------|--------|--------|
A|--------|--------|--------|--------|--------|--------|--------|--------|--------|
E|--------|--------|--------|--------|--------|--------|--------|--------|--------|


G|--------|--------|--------|--------|--------|---------------------------|-----------------------|
D|--------|--------|--------|--------|--------|---------------------------|-----------------------|
A|--------|--------|--------|--------|--------|-7---7---7----7---7---7----|-7---7---7---7---------|
E|--------|--------|--------|--------|--------|-0---0---0----0---0---0----|-0---0---0---0---------|


G|---------------------------|-----------------------|---------------------------|
D|---------------------------|-----------------------|---------------------------|
A|-7---7---7----7---7---7----|-7---7---7---7---------|-7---7---7----7---7---7----|
E|-0---0---0----0---0---0----|-0---0---0---0---------|-0---0---0----0---0---0----|


G|-----------------------|--------|--------|---------------------------|-----------------------|
D|-----------------------|--------|--------|---------------------------|-----------------------|
A|-7---7---7---7---------|--------|--------|-7---7---7----7---7---7----|-7---7---7---7---------|
E|-0---0---0---0---------|--------|--------|-0---0---0----0---0---0----|-0---0---0---0---------|


G|--------|--------|--------|--------|--------|--------|--------|--------|--------|
D|--------|--------|--------|--------|--------|--------|--------|--------|--------|
A|--------|--------|--------|--------|--------|--------|--------|--------|--------|
E|--------|--------|--------|--------|--------|--------|--------|--------|--------|


G|--------|--------|--------|--------|--------|--------|--------|--------|--------|
D|--------|--------|--------|--------|--------|--------|--------|--------|--------|
A|--------|--------|--------|--------|--------|--------|--------|--------|--------|
E|--------|--------|--------|--------|--------|--------|--------|--------|--------|


G|--------|--------|--------|--------|--------|--------|--------|--------|--------|
D|--------|--------|--------|--------|--------|--------|--------|--------|--------|
A|--------|--------|--------|--------|--------|--------|--------|--------|--------|
E|--------|--------|--------|--------|--------|--------|--------|--------|--------|


G|--------|--------|--------|--------|--------|--------|--------|--------|--------|
D|--------|--------|--------|--------|--------|--------|--------|--------|--------|
A|--------|--------|--------|--------|--------|--------|--------|--------|--------|
E|--------|--------|--------|--------|--------|--------|--------|--------|--------|


G|--------|--------|--------|--------|--------|--------|--------|--------|--------|
D|--------|--------|--------|--------|--------|--------|--------|--------|--------|
A|--------|--------|--------|--------|--------|--------|--------|--------|--------|
E|--------|--------|--------|--------|--------|--------|--------|--------|--------|


G|--------|--------|--------|--------|--------|--------|--------|--------|--------|
D|--------|--------|--------|--------|--------|--------|--------|--------|--------|
A|--------|--------|--------|--------|--------|--------|--------|--------|--------|
E|--------|--------|--------|--------|--------|--------|--------|--------|--------|


G|--------|--------|--------|--------|--------|--------|--------|--------|--------|
D|--------|--------|--------|--------|--------|--------|--------|--------|--------|
A|--------|--------|--------|--------|--------|--------|--------|--------|--------|
E|--------|--------|--------|--------|--------|--------|--------|--------|--------|


G|--------|--------|--------|--------|--------|--------|--------|--------|--------|
D|--------|--------|--------|--------|--------|--------|--------|--------|--------|
A|--------|--------|--------|--------|--------|--------|--------|--------|--------|
E|--------|--------|--------|--------|--------|--------|--------|--------|--------|


G|--------|--------|--------|--------|--------|--------|--------|--------|--------|
D|--------|--------|--------|--------|--------|--------|--------|--------|--------|
A|--------|--------|--------|--------|--------|--------|--------|--------|--------|
E|--------|--------|--------|--------|--------|--------|--------|--------|--------|


G|--------|--------|--------|--------|--------|--------|--------|--------|--------|
D|--------|--------|--------|--------|--------|--------|--------|--------|--------|
A|--------|--------|--------|--------|--------|--------|--------|--------|--------|
E|--------|--------|--------|--------|--------|--------|--------|--------|--------|


G|--------|--------|--------|--------|--------|--------|--------|--------|--------|
D|--------|--------|--------|--------|--------|--------|--------|--------|--------|
A|--------|--------|--------|--------|--------|--------|--------|--------|--------|
E|--------|--------|--------|--------|--------|--------|--------|--------|--------|


G|--------|--------|--------|--------|--------|--------|--------|--------|--------|
D|--------|--------|--------|--------|--------|--------|--------|--------|--------|
A|--------|--------|--------|--------|--------|--------|--------|--------|--------|
E|--------|--------|--------|--------|--------|--------|--------|--------|--------|


G|--------|--------|--------|--------|--------|--------|--------|--------|--------|
D|--------|--------|--------|--------|--------|--------|--------|--------|--------|
A|--------|--------|--------|--------|--------|--------|--------|--------|--------|
E|--------|--------|--------|--------|--------|--------|--------|--------|--------|


G|--------|--------|--------|--------|--------|--------|--------|
D|--------|--------|--------|--------|--------|--------|--------|
A|--------|--------|--------|--------|--------|--------|--------|
E|--------|--------|--------|--------|--------|--------|--------|





Track 7: Bass

G|--------|--------|--------|--------|--------|--------|--------|--------|--------|
D|--------|--------|--------|--------|--------|--------|--------|--------|--------|
A|--------|--------|--------|--------|--------|--------|--------|--------|--------|
E|--------|--------|--------|--------|--------|--------|--------|--------|--------|


G|--------|--------|--------|--------|--------|--------|--------|---------------------------------|
D|--------|--------|--------|--------|--------|--------|--------|---------------------------------|
A|--------|--------|--------|--------|--------|--------|--------|-0---0---------------------------|
E|--------|--------|--------|--------|--------|--------|--------|-------------4---5---5-------4---|


G|------------------------------|---------------------------------|------------------------------|
D|------------------------------|---------------------------------|------------------------------|
A|------------------------------|-0---0---------------------------|------------------------------|
E|-5---4---4---2---4---2--------|-------------4---5---5-------4---|-5---4---4---2---4---2--------|


G|---------------------------------|---------------------------------|---------------------------------|
D|---------------------------------|-0---0---------------------------|---------------------------------|
A|---------------------------------|-------------4---5---5-------4---|---------------------------------|
E|-4---4-------2---4---4-------2---|---------------------------------|-5---5-------4---5---5-------4---|


G|------------------------------|---------------------|---------------------|---------------------------------|
D|------------------------------|-6----4--------------|---------------------|---------------------------------|
A|------------------------------|-----------5----4----|-5----4--------------|---------------------------------|
E|-5---4---4---2---4---2--------|---------------------|-----------5----4----|-5---5-------4---5---5-------4---|


G|------------------------------|---------------------|---------------------|---------------------------------|
D|------------------------------|-6----4--------------|---------------------|---------------------------------|
A|------------------------------|-----------5----4----|-5----4--------------|---------------------------------|
E|-5---4---4---2---4---2--------|---------------------|-----------5----4----|-5---5-------4---5---5-------4---|


G|------------------------------|---------------------------------|------------------------------|
D|------------------------------|---------------------------------|------------------------------|
A|------------------------------|---------------------------------|------------------------------|
E|-5---4---4---2---4---2--------|-5---5-------4---5---5-------4---|-5---4---4---2---4---2--------|


G|---------------------------------|------------------------------|---------------------------------|
D|---------------------------------|------------------------------|---------------------------------|
A|---------------------------------|------------------------------|---------------------------------|
E|-5---5-------4---5---5-------4---|-5---4---4---2---4---2--------|-4---4-------2---4---4-------2---|


G|---------------------------------|---------------------------------|------------------------------|
D|---------------------------------|---------------------------------|------------------------------|
A|-5---5-------4---5---5-------4---|---------------------------------|------------------------------|
E|---------------------------------|-5---5-------4---5---5-------4---|-5---4---4---2---4---2--------|


G|---------------------------------|------------------------------|---------------------------------|
D|---------------------------------|------------------------------|---------------------------------|
A|---------------------------------|------------------------------|---------------------------------|
E|-5---5-------4---5---5-------4---|-5---4---4---2---4---2--------|-5---5-------4---5---5-------4---|


G|------------------------------|---------------------------------|---------------------------------|
D|------------------------------|---------------------------------|---------------------------------|
A|------------------------------|---------------------------------|-5---5-------4---5---5-------4---|
E|-5---4---4---2---4---2--------|-4---4-------2---4---4-------2---|---------------------------------|


G|---------------------------------|------------------------------|---------------------------------|
D|---------------------------------|------------------------------|---------------------------------|
A|---------------------------------|------------------------------|---------------------------------|
E|-5---5-------4---5---5-------4---|-5---4---4---2---4---2--------|-5---5-------4---5---5-------4---|


G|------------------------------|---------------------------------|------------------------------|
D|------------------------------|---------------------------------|------------------------------|
A|------------------------------|---------------------------------|------------------------------|
E|-5---4---4---2---4---2--------|-5---5-------4---5---5-------4---|-5---4---4---2---4---2--------|


G|---------------------------------|---------------------------------|---------------------------------|
D|---------------------------------|---------------------------------|---------------------------------|
A|---------------------------------|-5---5-------4---5---5-------4---|---------------------------------|
E|-4---4-------2---4---4-------2---|---------------------------------|-5---5-------4---5---5-------4---|


G|------------------------------|---------------------|---------------------|---------------------------------|
D|------------------------------|-6----4--------------|---------------------|---------------------------------|
A|------------------------------|-----------5----4----|-5----4--------------|---------------------------------|
E|-5---4---4---2---4---2--------|---------------------|-----------5----4----|-5---5-------4---5---5-------4---|


G|------------------------------|---------------------|---------------------|---------------------------------|
D|------------------------------|-6----4--------------|---------------------|---------------------------------|
A|------------------------------|-----------5----4----|-5----4--------------|---------------------------------|
E|-5---4---4---2---4---2--------|---------------------|-----------5----4----|-5---5-------4---5---5-------4---|


G|------------------------------|---------------------------------|------------------------------|
D|------------------------------|---------------------------------|------------------------------|
A|------------------------------|---------------------------------|------------------------------|
E|-5---4---4---2---4---2--------|-5---5-------4---5---5-------4---|-5---4---4---2---4---2--------|


G|---------------------------------|------------------------------|---------------------------------|
D|---------------------------------|------------------------------|---------------------------------|
A|---------------------------------|------------------------------|---------------------------------|
E|-5---5-------4---5---5-------4---|-5---4---4---2---4---2--------|-4---4-------2---4---4-------2---|


G|---------------------------------|---------------------------------|------------------------------|
D|---------------------------------|---------------------------------|------------------------------|
A|-5---5-------4---5---5-------4---|---------------------------------|------------------------------|
E|---------------------------------|-5---5-------4---5---5-------4---|-5---4---4---2---4---2--------|


G|---------------------------------|------------------------------|---------------------------------|
D|---------------------------------|------------------------------|---------------------------------|
A|---------------------------------|------------------------------|---------------------------------|
E|-5---5-------4---5---5-------4---|-5---4---4---2---4---2--------|-5---5-------4---5---5-------4---|


G|------------------------------|---------------------------------|---------------------------------|
D|------------------------------|---------------------------------|---------------------------------|
A|------------------------------|---------------------------------|-5---5-------4---5---5-------4---|
E|-5---4---4---2---4---2--------|-4---4-------2---4---4-------2---|---------------------------------|


G|---------------------------------|------------------------------|---------------------|
D|---------------------------------|------------------------------|-6----4--------------|
A|---------------------------------|------------------------------|-----------5----4----|
E|-5---5-------4---5---5-------4---|-5---4---4---2---4---2--------|---------------------|


G|---------------------|---------------------------------|------------------------------|
D|---------------------|---------------------------------|------------------------------|
A|-5----4--------------|---------------------------------|------------------------------|
E|-----------5----4----|-5---5-------4---5---5-------4---|-5---4---4---2---4---2--------|


G|---------------------|---------------------|---------------------------------|------------------------------|
D|-6----4--------------|---------------------|---------------------------------|------------------------------|
A|-----------5----4----|-5----4--------------|---------------------------------|------------------------------|
E|---------------------|-----------5----4----|-5---5-------4---5---5-------4---|-5---4---4---2---4---2--------|


G|--------|--------|--------|--------|--------|--------|--------|--------|--------|
D|--------|--------|--------|--------|--------|--------|--------|--------|--------|
A|--------|--------|--------|--------|--------|--------|--------|--------|--------|
E|--------|--------|--------|--------|--------|--------|--------|--------|--------|


G|--------|--------|--------|---------------------------------|------------------------------|
D|--------|--------|--------|---------------------------------|------------------------------|
A|--------|--------|--------|---------------------------------|------------------------------|
E|--------|--------|--------|-5---5-------4---5---5-------4---|-5---4---4---2---4---2--------|


G|---------------------------------|------------------------------|---------------------------------|
D|---------------------------------|------------------------------|---------------------------------|
A|---------------------------------|------------------------------|---------------------------------|
E|-5---5-------4---5---5-------4---|-5---4---4---2---4---2--------|-4---4-------2---4---4-------2---|


G|---------------------------------|---------------------------------|------------------------------|
D|---------------------------------|---------------------------------|------------------------------|
A|-5---5-------4---5---5-------4---|---------------------------------|------------------------------|
E|---------------------------------|-5---5-------4---5---5-------4---|-5---4---4---2---4---2--------|


G|---------------------|---------------------|---------------------------------|------------------------------|
D|-6----4--------------|---------------------|---------------------------------|------------------------------|
A|-----------5----4----|-5----4--------------|---------------------------------|------------------------------|
E|---------------------|-----------5----4----|-5---5-------4---5---5-------4---|-5---4---4---2---4---2--------|


G|---------------------|---------------------|---------------------------------|------------------------------|
D|-6----4--------------|---------------------|---------------------------------|------------------------------|
A|-----------5----4----|-5----4--------------|---------------------------------|------------------------------|
E|---------------------|-----------5----4----|-5---5-------4---5---5-------4---|-5---4---4---2---4---2--------|


G|---------------------|---------------------|---------------------------------|------------------------------|
D|-6----4--------------|---------------------|---------------------------------|------------------------------|
A|-----------5----4----|-5----4--------------|---------------------------------|------------------------------|
E|---------------------|-----------5----4----|-5---5-------4---5---5-------4---|-5---4---4---2---4---2--------|


G|---------------------|---------------------|---------------------------------|------------------------------|
D|-6----4--------------|---------------------|---------------------------------|------------------------------|
A|-----------5----4----|-5----4--------------|---------------------------------|------------------------------|
E|---------------------|-----------5----4----|-5---5-------4---5---5-------4---|-5---4---4---2---4---2--------|


G|---------------------|---------------------|---------------------------------|------------------------------|
D|-6----4--------------|---------------------|---------------------------------|------------------------------|
A|-----------5----4----|-5----4--------------|---------------------------------|------------------------------|
E|---------------------|-----------5----4----|-5---5-------4---5---5-------4---|-5---4---4---2---4---2--------|


G|---------------------|---------------------|---------------------------------|------------------------------|
D|-6----4--------------|---------------------|---------------------------------|------------------------------|
A|-----------5----4----|-5----4--------------|---------------------------------|------------------------------|
E|---------------------|-----------5----4----|-5---5-------4---5---5-------4---|-5---4---4---2---4---2--------|


G|---------------------------------|------------------------------|---------------------------------|
D|---------------------------------|------------------------------|---------------------------------|
A|---------------------------------|------------------------------|---------------------------------|
E|-5---5-------4---5---5-------4---|-5---4---4---2---4---2--------|-5---5-------4---5---5-------4---|


G|------------------------------|---------------------------------|------------------------------|
D|------------------------------|---------------------------------|------------------------------|
A|------------------------------|---------------------------------|------------------------------|
E|-5---4---4---2---4---2--------|-5---5-------4---5---5-------4---|-5---4---4---2---4---2--------|


G|---------------------------------|------------------------------|---------------------------------|
D|---------------------------------|------------------------------|---------------------------------|
A|---------------------------------|------------------------------|---------------------------------|
E|-5---5-------4---5---5-------4---|-5---4---4---2---4---2--------|-5---5-------4---5---5-------4---|


G|------------------------------|---------------------------------|------------------------------|
D|------------------------------|---------------------------------|------------------------------|
A|------------------------------|---------------------------------|------------------------------|
E|-5---4---4---2---4---2--------|-5---5-------4---5---5-------4---|-5---4---4---2---4---2--------|


G|--------|--------|--------|--------|
D|--------|--------|--------|--------|
A|-0------|-0------|-0------|-0------|
E|--------|--------|--------|--------|