Site menu:

    

Browse: 0-9 A B C D E F G H I J K L N O P Q R S T U V W X Y Z

u2 - wire:



Title: WIRE
Artist: 
Album: The Unforgettable Fire
Author: U2


Track 1: Muted Guitar

E|-12-----12-12----12-----12-----12-----12-|-12----12-----12-----15-----15-15----17-15-|
B|-----12-------12-----12-----12-----12----|----12-----12-----12-----15-------15-------|
G|-----------------------------------------|-------------------------------------------|
D|-----------------------------------------|-------------------------------------------|
A|-----------------------------------------|-------------------------------------------|
E|-----------------------------------------|-------------------------------------------|


E|-12-----12-12----12-----12-----12-----12-|-12----12-----12-----15-----15-15----17-15-|
B|-----12-------12-----12-----12-----12----|----12-----12-----12-----15-------15-------|
G|-----------------------------------------|-------------------------------------------|
D|-----------------------------------------|-------------------------------------------|
A|-----------------------------------------|-------------------------------------------|
E|-----------------------------------------|-------------------------------------------|


E|-12-----12-12----12-----12-----12-----12-|-12----12-----12-----15-----15-15----17-15-|
B|-----12-------12-----12-----12-----12----|----12-----12-----12-----15-------15-------|
G|-----------------------------------------|-------------------------------------------|
D|-----------------------------------------|-------------------------------------------|
A|-----------------------------------------|-------------------------------------------|
E|-----------------------------------------|-------------------------------------------|


E|-12-----12-12----12-----12-----12-----12-|-12----12-----12-----15-----15-15----17-15-|
B|-----12-------12-----12-----12-----12----|----12-----12-----12-----15-------15-------|
G|-----------------------------------------|-------------------------------------------|
D|-----------------------------------------|-------------------------------------------|
A|-----------------------------------------|-------------------------------------------|
E|-----------------------------------------|-------------------------------------------|


E|-12-----12-12----12-----12-----12-----12-|-12----12-----12-----15-----15-15----17-15-|
B|-----12-------12-----12-----12-----12----|----12-----12-----12-----15-------15-------|
G|-----------------------------------------|-------------------------------------------|
D|-----------------------------------------|-------------------------------------------|
A|-----------------------------------------|-------------------------------------------|
E|-----------------------------------------|-------------------------------------------|


E|-12-----12-12----12-----12-----12-----12-|-12----12-----12-----15-----15-15----17-15-|
B|-----12-------12-----12-----12-----12----|----12-----12-----12-----15-------15-------|
G|-----------------------------------------|-------------------------------------------|
D|-----------------------------------------|-------------------------------------------|
A|-----------------------------------------|-------------------------------------------|
E|-----------------------------------------|-------------------------------------------|


E|-12-----12-12----12-----12-----12-----12-|-12----12-----12-----15-----15-15----17-15-|
B|-----12-------12-----12-----12-----12----|----12-----12-----12-----15-------15-------|
G|-----------------------------------------|-------------------------------------------|
D|-----------------------------------------|-------------------------------------------|
A|-----------------------------------------|-------------------------------------------|
E|-----------------------------------------|-------------------------------------------|


E|-12-----12-12----12-----12-----12-----12-|-12----12-----12-----15-----15-15----17-15-|
B|-----12-------12-----12-----12-----12----|----12-----12-----12-----15-------15-------|
G|-----------------------------------------|-------------------------------------------|
D|-----------------------------------------|-------------------------------------------|
A|-----------------------------------------|-------------------------------------------|
E|-----------------------------------------|-------------------------------------------|


E|-12-----12-12----12-----12-----12-----12-|-12----12-----12-----15-----15-15----17-15-|
B|-----12-------12-----12-----12-----12----|----12-----12-----12-----15-------15-------|
G|-----------------------------------------|-------------------------------------------|
D|-----------------------------------------|-------------------------------------------|
A|-----------------------------------------|-------------------------------------------|
E|-----------------------------------------|-------------------------------------------|


E|--------|--------|--------|--------|--------|--------|--------|--------|--------|
B|--------|--------|--------|--------|--------|--------|--------|--------|--------|
G|--------|--------|--------|--------|--------|--------|--------|--------|--------|
D|--------|--------|--------|--------|--------|--------|--------|--------|--------|
A|--------|--------|--------|--------|--------|--------|--------|--------|--------|
E|--------|--------|--------|--------|--------|--------|--------|--------|--------|


E|--------|--------|--------|--------|--------|--------|--------|--------|--------|
B|--------|--------|--------|--------|--------|--------|--------|--------|--------|
G|--------|--------|--------|--------|--------|--------|--------|--------|--------|
D|--------|--------|--------|--------|--------|--------|--------|--------|--------|
A|--------|--------|--------|--------|--------|--------|--------|--------|--------|
E|--------|--------|--------|--------|--------|--------|--------|--------|--------|


E|--------|--------|--------|--------|--------|--------|--------|--------|--------|
B|--------|--------|--------|--------|--------|--------|--------|--------|--------|
G|--------|--------|--------|--------|--------|--------|--------|--------|--------|
D|--------|--------|--------|--------|--------|--------|--------|--------|--------|
A|--------|--------|--------|--------|--------|--------|--------|--------|--------|
E|--------|--------|--------|--------|--------|--------|--------|--------|--------|


E|--------|--------|--------|--------|--------|--------|--------|--------|--------|
B|--------|--------|--------|--------|--------|--------|--------|--------|--------|
G|--------|--------|--------|--------|--------|--------|--------|--------|--------|
D|--------|--------|--------|--------|--------|--------|--------|--------|--------|
A|--------|--------|--------|--------|--------|--------|--------|--------|--------|
E|--------|--------|--------|--------|--------|--------|--------|--------|--------|


E|--------|--------|--------|--------|--------|--------|--------|--------|--------|
B|--------|--------|--------|--------|--------|--------|--------|--------|--------|
G|--------|--------|--------|--------|--------|--------|--------|--------|--------|
D|--------|--------|--------|--------|--------|--------|--------|--------|--------|
A|--------|--------|--------|--------|--------|--------|--------|--------|--------|
E|--------|--------|--------|--------|--------|--------|--------|--------|--------|


E|--------|--------|--------|--------|--------|--------|--------|--------|--------|
B|--------|--------|--------|--------|--------|--------|--------|--------|--------|
G|--------|--------|--------|--------|--------|--------|--------|--------|--------|
D|--------|--------|--------|--------|--------|--------|--------|--------|--------|
A|--------|--------|--------|--------|--------|--------|--------|--------|--------|
E|--------|--------|--------|--------|--------|--------|--------|--------|--------|


E|--------|--------|--------|--------|--------|--------|-12-----12-12----12-----12-----12-----12-|
B|--------|--------|--------|--------|--------|--------|-----12-------12-----12-----12-----12----|
G|--------|--------|--------|--------|--------|--------|-----------------------------------------|
D|--------|--------|--------|--------|--------|--------|-----------------------------------------|
A|--------|--------|--------|--------|--------|--------|-----------------------------------------|
E|--------|--------|--------|--------|--------|--------|-----------------------------------------|


E|-12----12-----12-----15-----15-15----17-15-|-12-----12-12----12-----12-----12-----12-|
B|----12-----12-----12-----15-------15-------|-----12-------12-----12-----12-----12----|
G|-------------------------------------------|-----------------------------------------|
D|-------------------------------------------|-----------------------------------------|
A|-------------------------------------------|-----------------------------------------|
E|-------------------------------------------|-----------------------------------------|


E|-12----12-----12-----15-----15-15----17-15-|-12-----12-12----12-----12-----12-----12-|
B|----12-----12-----12-----15-------15-------|-----12-------12-----12-----12-----12----|
G|-------------------------------------------|-----------------------------------------|
D|-------------------------------------------|-----------------------------------------|
A|-------------------------------------------|-----------------------------------------|
E|-------------------------------------------|-----------------------------------------|


E|-12----12-----12-----15-----15-15----17-15-|-12-----12-12----12-----12-----12-----12-|
B|----12-----12-----12-----15-------15-------|-----12-------12-----12-----12-----12----|
G|-------------------------------------------|-----------------------------------------|
D|-------------------------------------------|-----------------------------------------|
A|-------------------------------------------|-----------------------------------------|
E|-------------------------------------------|-----------------------------------------|


E|-12----12-----12-----15-----15-15----17-15-|-12-----12-12----12-----12-----12-----12-|
B|----12-----12-----12-----15-------15-------|-----12-------12-----12-----12-----12----|
G|-------------------------------------------|-----------------------------------------|
D|-------------------------------------------|-----------------------------------------|
A|-------------------------------------------|-----------------------------------------|
E|-------------------------------------------|-----------------------------------------|


E|-12----12-----12-----15-----15-15----17-15-|-12-----12-12----12-----12-----12-----12-|
B|----12-----12-----12-----15-------15-------|-----12-------12-----12-----12-----12----|
G|-------------------------------------------|-----------------------------------------|
D|-------------------------------------------|-----------------------------------------|
A|-------------------------------------------|-----------------------------------------|
E|-------------------------------------------|-----------------------------------------|


E|-12----12-----12-----15-----15-15----17-15-|-12-----12-12----12-----12-----12-----12-|
B|----12-----12-----12-----15-------15-------|-----12-------12-----12-----12-----12----|
G|-------------------------------------------|-----------------------------------------|
D|-------------------------------------------|-----------------------------------------|
A|-------------------------------------------|-----------------------------------------|
E|-------------------------------------------|-----------------------------------------|


E|-12----12-----12-----15-----15-15----17-15-|-12-----12-12----12-----12-----12-----12-|
B|----12-----12-----12-----15-------15-------|-----12-------12-----12-----12-----12----|
G|-------------------------------------------|-----------------------------------------|
D|-------------------------------------------|-----------------------------------------|
A|-------------------------------------------|-----------------------------------------|
E|-------------------------------------------|-----------------------------------------|


E|-12----12-----12-----15-----15-15----17-15-|-12-----12-12----12-----12-----12-----12-|
B|----12-----12-----12-----15-------15-------|-----12-------12-----12-----12-----12----|
G|-------------------------------------------|-----------------------------------------|
D|-------------------------------------------|-----------------------------------------|
A|-------------------------------------------|-----------------------------------------|
E|-------------------------------------------|-----------------------------------------|


E|-12----12-----12-----15-----15-15----17-15-|-12-----12-12----12-----12-----12-----12-|
B|----12-----12-----12-----15-------15-------|-----12-------12-----12-----12-----12----|
G|-------------------------------------------|-----------------------------------------|
D|-------------------------------------------|-----------------------------------------|
A|-------------------------------------------|-----------------------------------------|
E|-------------------------------------------|-----------------------------------------|


E|-12----12-----12-----15-----15-15----17-15-|-12-----12-12----12-----12-----12-----12-|
B|----12-----12-----12-----15-------15-------|-----12-------12-----12-----12-----12----|
G|-------------------------------------------|-----------------------------------------|
D|-------------------------------------------|-----------------------------------------|
A|-------------------------------------------|-----------------------------------------|
E|-------------------------------------------|-----------------------------------------|


E|-12----12-----12-----15-----15-15----17-15-|-12-----12-12----12-----12-----12-----12-|
B|----12-----12-----12-----15-------15-------|-----12-------12-----12-----12-----12----|
G|-------------------------------------------|-----------------------------------------|
D|-------------------------------------------|-----------------------------------------|
A|-------------------------------------------|-----------------------------------------|
E|-------------------------------------------|-----------------------------------------|


E|-12----12-----12-----15-----15-15----17-15-|--------|--------|--------|--------|
B|----12-----12-----12-----15-------15-------|--------|--------|--------|--------|
G|-------------------------------------------|--------|--------|--------|--------|
D|-------------------------------------------|--------|--------|--------|--------|
A|-------------------------------------------|--------|--------|--------|--------|
E|-------------------------------------------|--------|--------|--------|--------|


E|--------|--------|--------|--------|--------|--------|--------|--------|--------|
B|--------|--------|--------|--------|--------|--------|--------|--------|--------|
G|--------|--------|--------|--------|--------|--------|--------|--------|--------|
D|--------|--------|--------|--------|--------|--------|--------|--------|--------|
A|--------|--------|--------|--------|--------|--------|--------|--------|--------|
E|--------|--------|--------|--------|--------|--------|--------|--------|--------|


E|--------|--------|--------|--------|--------|--------|--------|--------|--------|
B|--------|--------|--------|--------|--------|--------|--------|--------|--------|
G|--------|--------|--------|--------|--------|--------|--------|--------|--------|
D|--------|--------|--------|--------|--------|--------|--------|--------|--------|
A|--------|--------|--------|--------|--------|--------|--------|--------|--------|
E|--------|--------|--------|--------|--------|--------|--------|--------|--------|


E|--------|--------|--------|--------|--------|--------|--------|--------|--------|
B|--------|--------|--------|--------|--------|--------|--------|--------|--------|
G|--------|--------|--------|--------|--------|--------|--------|--------|--------|
D|--------|--------|--------|--------|--------|--------|--------|--------|--------|
A|--------|--------|--------|--------|--------|--------|--------|--------|--------|
E|--------|--------|--------|--------|--------|--------|--------|--------|--------|


E|--------|--------|--------|-12-----12-12----12-----12-----12-----12-|-12----12-----12-----15-----15-15----17-15-|
B|--------|--------|--------|-----12-------12-----12-----12-----12----|----12-----12-----12-----15-------15-------|
G|--------|--------|--------|-----------------------------------------|-------------------------------------------|
D|--------|--------|--------|-----------------------------------------|-------------------------------------------|
A|--------|--------|--------|-----------------------------------------|-------------------------------------------|
E|--------|--------|--------|-----------------------------------------|-------------------------------------------|


E|-12-----12-12----12-----12-----12-----12-|-12----12-----12-----15-----15-15----17-15-|
B|-----12-------12-----12-----12-----12----|----12-----12-----12-----15-------15-------|
G|-----------------------------------------|-------------------------------------------|
D|-----------------------------------------|-------------------------------------------|
A|-----------------------------------------|-------------------------------------------|
E|-----------------------------------------|-------------------------------------------|


E|-12-----12-12----12-----12-----12-----12-|-12----12-----12-----15-----15-15----17-15-|
B|-----12-------12-----12-----12-----12----|----12-----12-----12-----15-------15-------|
G|-----------------------------------------|-------------------------------------------|
D|-----------------------------------------|-------------------------------------------|
A|-----------------------------------------|-------------------------------------------|
E|-----------------------------------------|-------------------------------------------|


E|-12-----12-12----12-----12-----12-----12-|-12----12-----12-----15-----15-15----17-15-|
B|-----12-------12-----12-----12-----12----|----12-----12-----12-----15-------15-------|
G|-----------------------------------------|-------------------------------------------|
D|-----------------------------------------|-------------------------------------------|
A|-----------------------------------------|-------------------------------------------|
E|-----------------------------------------|-------------------------------------------|


E|-12-----12-12----12-----12-----12-----12-|-12----12-----12-----15-----15-15----17-15-|
B|-----12-------12-----12-----12-----12----|----12-----12-----12-----15-------15-------|
G|-----------------------------------------|-------------------------------------------|
D|-----------------------------------------|-------------------------------------------|
A|-----------------------------------------|-------------------------------------------|
E|-----------------------------------------|-------------------------------------------|


E|-12-----12-12----12-----12-----12-----12-|-12----12-----12-----15-----15-15----17-15-|
B|-----12-------12-----12-----12-----12----|----12-----12-----12-----15-------15-------|
G|-----------------------------------------|-------------------------------------------|
D|-----------------------------------------|-------------------------------------------|
A|-----------------------------------------|-------------------------------------------|
E|-----------------------------------------|-------------------------------------------|


E|--------|
B|--------|
G|--------|
D|--------|
A|--------|
E|--------|





Track 2: O.D

E|--------|--------|--------|--------|--------|--------|--------|--------|--------|
B|--------|--------|--------|--------|--------|--------|--------|--------|--------|
G|--------|--------|--------|--------|--------|--------|--------|--------|--------|
D|--------|--------|--------|--------|--------|--------|--------|--------|--------|
A|--------|--------|--------|--------|--------|--------|--------|--------|--------|
E|--------|--------|--------|--------|--------|--------|--------|--------|--------|


E|--------|-9--9--9--9--9--9--9--9--9--9--9--9--9--9--9--9--|-9--9--9--9--9--9--9--9--9--9--9--9--9--9--9--9--|
B|--------|-9--9--9--9--9--9--9--9--9--9--9--9--9--9--9--9--|-9--9--9--9--9--9--9--9--9--9--9--9--9--9--9--9--|
G|--------|-9--9--9-----9--9--9-----9--9--9-----9--9--9-----|-9--9--9-----9--9--9-----9--9--9-----9--9--9-----|
D|--------|-------------------------------------------------|-------------------------------------------------|
A|--------|-------------------------------------------------|-------------------------------------------------|
E|--------|-------------------------------------------------|-------------------------------------------------|


E|-9--9--9--9--9--9--9--9--9--9--9--9--9--9--9--9--|-9--9--9--9--9--9--9--9--9--9--9--9--9--9--9--9--|
B|-9--9--9--9--9--9--9--9--9--9--9--9--9--9--9--9--|-9--9--9--9--9--9--9--9--9--9--9--9--9--9--9--9--|
G|-9--9--9-----9--9--9-----9--9--9-----9--9--9-----|-9--9--9-----9--9--9-----9--9--9-----9--9--9-----|
D|-------------------------------------------------|-------------------------------------------------|
A|-------------------------------------------------|-------------------------------------------------|
E|-------------------------------------------------|-------------------------------------------------|


E|-9--9--9--9--9--9--9--9--9--9--9--9--9--9--9--9--|-9--9--9--9--9--9--9--9--9--9--9--9--9--9--9--9--|
B|-9--9--9--9--9--9--9--9--9--9--9--9--9--9--9--9--|-9--9--9--9--9--9--9--9--9--9--9--9--9--9--9--9--|
G|-9--9--9-----9--9--9-----9--9--9-----9--9--9-----|-9--9--9-----9--9--9-----9--9--9-----9--9--9-----|
D|-------------------------------------------------|-------------------------------------------------|
A|-------------------------------------------------|-------------------------------------------------|
E|-------------------------------------------------|-------------------------------------------------|


E|-9--9--9--9--9--9--9--9--9--9--9--9--9--9--9--9--|-9--9--9--9--9--9--9--9--9---12-12-12-12-12-12-|
B|-9--9--9--9--9--9--9--9--9--9--9--9--9--9--9--9--|-9--9--9--9--9--9--9--9--9---12-12-12-12-12-12-|
G|-9--9--9--9--9--9--9--9--9--9--9--9--9--9--9--9--|-9--9--9--9--9--9--9--9--9---9--9--9--9--9--9--|
D|-------------------------------------------------|-----------------------------------------------|
A|-------------------------------------------------|-----------------------------------------------|
E|-------------------------------------------------|-----------------------------------------------|


E|--------|--------|--------|-----------------------------|-------------10--10----|
B|--------|--------|--------|-----------9--9-----9--9--9--|-9----9--9---8---8-----|
G|--------|--------|--------|-----------9--9-----9--9--9--|-9----9--9---9---9-----|
D|--------|--------|--------|-----------9--9-----9--9--9--|-9-------9---9---9-----|
A|--------|--------|--------|-----------------------------|-----------------------|
E|--------|--------|--------|-----------------------------|-----------------------|


E|-10--------------------------|-------------10--10----|-10---12-12-12-12-12-12-12-12-12-12-12-12-|
B|-8---------9--9-----9--9--9--|-9----9--9---8---8-----|-8----12-12-12-12-12-12-12-12-12-12-12-12-|
G|-9---------9--9-----9--9--9--|-9----9--9---9---9-----|-9----9-----9-----9-----9--9-----9--9--9--|
D|-9---------9-----------9--9--|-9-------9---9---9-----|-9----------------------------------------|
A|-----------------------------|-----------------------|------------------------------------------|
E|-----------------------------|-----------------------|------------------------------------------|


E|-12-12-12-12-----10--10----|-10--------------------------|-----------------10--10----|
B|-12-12-12-12-----8---8-----|-8-----9---9--9--9--9--9--9--|-9--9--9--9--9---8---8-----|
G|-9--9--9--9------9---9-----|-9-----9---9--9--9--9--9--9--|-9--9--9--9--9---9---9-----|
D|-----------------9---9-----|-9-----9---9-----9--9--9-----|-9--9--9-----9---9---9-----|
A|---------------------------|-----------------------------|---------------------------|
E|---------------------------|-----------------------------|---------------------------|


E|-10---12--12-12-12-12-12-12-12-12-12-12-|-12-12-12-12-----10--10----|-10--------------------------|
B|-8----12--12-12-12-12-12-12-12-12-12-12-|-12-12-12-12-9---8---8-----|-8-----9---9--9--9--9--9--9--|
G|-9----9---9-----9-----9--9--9--9--9--9--|-9--9--9--9--9---9---9-----|-9-----9---9--9--9--9--9--9--|
D|-9--------------------------------------|-------------9---9---9-----|-9-----9---9-----9--9--9-----|
A|----------------------------------------|---------------------------|-----------------------------|
E|----------------------------------------|---------------------------|-----------------------------|


E|-----------------10--10----|-10----12-12-12-12-12-12-12-12-|------------------------------|
B|-9--9--9--9--9---8---8-----|-8-----12-12-12-12-12-12-12-12-|------5-----------------------|
G|-9--9--9--9--9---9---9-----|-9-----9-----9--9--9--9--9--9--|----------4---4---------------|
D|-9--9--9-----9---9---9-----|-9-----------------------------|-6----------------6---6---7---|
A|---------------------------|-------------------------------|------------------------------|
E|---------------------------|-------------------------------|------------------------------|


E|---------------------------------|---------------------------------|---------------------------------|
B|-----5---5-----------------------|-----5---5-----------------------|-----5---5-----------------------|
G|-------------4---4---------------|-------------4---4---------------|-------------4---4---------------|
D|-7-------------------7---7---6---|-6-------------------6---6---4---|-4-------------------4---4---6---|
A|---------------------------------|---------------------------------|---------------------------------|
E|---------------------------------|---------------------------------|---------------------------------|


E|---------------------------------|------------------------------|--------|--------|
B|-----5---5-----------------------|-----5---5--------------------|--------|--------|
G|-------------4---4---------------|-------------4---4------------|--------|--------|
D|-6-------------------6---6---7---|-7-------------------7---7----|--------|--------|
A|---------------------------------|------------------------------|--------|--------|
E|---------------------------------|------------------------------|--------|--------|


E|--------|--------|--------|--------|------12---12----|-12-----|-------------10--10----|
B|--------|--------|--------|--------|------12---12----|-12-----|-9----9------8---8-----|
G|--------|--------|--------|--------|-----------------|--------|-9----9------9---9-----|
D|--------|--------|--------|--------|-----------------|--------|-9----9------9---9-----|
A|--------|--------|--------|--------|-----------------|--------|-----------------------|
E|--------|--------|--------|--------|-----------------|--------|-----------------------|


E|-10--------------------------|-------------10--10----|-10----12-12-12-12-12-12-12-12-|
B|-8-----9---9--9--9--9--9--9--|-9----9--9---8---8-----|-8-----12-12-12-12-12-12-12-12-|
G|-9-----9---9--9--9--9--9--9--|-9----9--9---9---9-----|-9-----9--9--9--9--9--9--9--9--|
D|-9-----9---9-----9--9--9-----|-9-------9---9---9-----|-9-----------------------------|
A|-----------------------------|-----------------------|-------------------------------|
E|-----------------------------|-----------------------|-------------------------------|


E|-12-12-12-12-----10--10----|-10--------------------------|-----------------10--10----|
B|-12-12-12-12-----8---8-----|-8---------9--9--9--9--9--9--|-9--9--9--9--9---8---8-----|
G|-9--9--9--9------9---9-----|-9---------9--9--9--9--9--9--|-9--9--9--9--9---9---9-----|
D|-----------------9---9-----|-9---------9--9--9--9--9--9--|-9--9--9-----9---9---9-----|
A|---------------------------|-----------------------------|---------------------------|
E|---------------------------|-----------------------------|---------------------------|


E|-10--------12-12-12-12-12-12-|-12-12-12-12-12--10--10----|-10----------------------------|
B|-8---------12-12-12-12-12-12-|-12-12-12-12-12--8---8-----|-8-----9--9--9--9--9--9--9--9--|
G|-9---------9--9--9--9--9--9--|-9--9--9--9--9---9---9-----|-9-----9--9--9--9--9--9--9--9--|
D|-9---------------------------|-----------------9---9-----|-9-----9--9--9--9--9--9--9--9--|
A|-----------------------------|---------------------------|-------------------------------|
E|-----------------------------|---------------------------|-------------------------------|


E|-------------------10--10----|-10--9--9--9--9--9--9--9--9--12-12-12-12-12-12-|------------------------------|
B|-9--9--9--9--9--9--8---8-----|-8---9--9--9--9--9--9--9--9--12-12-12-12-12-12-|------5-----------------------|
G|-9--9--9--9--9--9--9---9-----|-9---9--9--9--9--9--9--9--9--9--9--9--9--9--9--|----------4---4---------------|
D|-9--9--9--9--9--9--9---9-----|-9---------------------------------------------|-6----------------6---6---7---|
A|-----------------------------|-----------------------------------------------|------------------------------|
E|-----------------------------|-----------------------------------------------|------------------------------|


E|---------------------------------|---------------------------------|---------------------------------|
B|-----5---5-----------------------|-----5---5-----------------------|-----5---5-----------------------|
G|-------------4---4---------------|-------------4---4---------------|-------------4---4---------------|
D|-7-------------------7---7---6---|-6-------------------6---6---4---|-4-------------------4---4---6---|
A|---------------------------------|---------------------------------|---------------------------------|
E|---------------------------------|---------------------------------|---------------------------------|


E|---------------------------------|------------------------------|--------|--------|
B|-----5---5-----------------------|-----5---5--------------------|--------|--------|
G|-------------4---4---------------|-------------4---4------------|--------|--------|
D|-6-------------------6---6---7---|-7-------------------7---7----|--------|--------|
A|---------------------------------|------------------------------|--------|--------|
E|---------------------------------|------------------------------|--------|--------|


E|--------|--------|---------------10--10----|-10---10---------|---------------10--10----|
B|--------|--------|-9--9---9--9---8---8-----|-8----8----------|-9--9---9--9---8---8-----|
G|--------|--------|-9--9---9--9---9---9-----|-9----9----------|-9--9---9--9---9---9-----|
D|--------|--------|-9--9---9--9---9---9-----|-9---------------|-9--9---9--9---9---9-----|
A|--------|--------|-------------------------|-----------------|-------------------------|
E|--------|--------|-------------------------|-----------------|-------------------------|


E|-10---10---------|---------------10--10----|-10---10---------|---------------10--10----|
B|-8----8----------|-9--9---9--9---8---8-----|-8----8----------|-9--9---9--9---8---8-----|
G|-9----9----------|-9--9---9--9---9---9-----|-9----9----------|-9--9---9--9---9---9-----|
D|-9---------------|-9--9---9--9---9---9-----|-9---------------|-9--9---9--9---9---9-----|
A|-----------------|-------------------------|-----------------|-------------------------|
E|-----------------|-------------------------|-----------------|-------------------------|


E|-10---10---------|--------|--------|--------|--------|--------|--------|--------|
B|-8----8----------|--------|--------|--------|--------|--------|--------|--------|
G|-9----9----------|--------|--------|--------|--------|--------|--------|--------|
D|-9---------------|--------|--------|--------|--------|--------|--------|--------|
A|-----------------|--------|--------|--------|--------|--------|--------|--------|
E|-----------------|--------|--------|--------|--------|--------|--------|--------|


E|--------|---------------10--10----|-10--------------------------|-----------------10--10----|
B|--------|-9---9--9--9---8---8-----|-8-----9---9--9--9--9--9--9--|-9--9--9--9--9---8---8-----|
G|--------|-9---9--9--9---9---9-----|-9-----9---9--9--9--9--9--9--|-9--9--9--9--9---9---9-----|
D|--------|-9---9--9--9---9---9-----|-9-----9---9--9--9--9--9--9--|-9--9--9--9--9---9---9-----|
A|--------|-------------------------|-----------------------------|---------------------------|
E|--------|-------------------------|-----------------------------|---------------------------|


E|-10----12-12-12-12-12-12-12-12-|-12--12-12-12--10--10----|-10--------------------------|
B|-8-----12-12-12-12-12-12-12-12-|-12--12-12-12--8---8-----|-8-----9---9--9--9--9--9--9--|
G|-9-----9--9--9--9--9--9--9--9--|-9---9--9--9---9---9-----|-9-----9---9--9--9--9--9--9--|
D|-9-----------------------------|---------------9---9-----|-9-----9---9--9--9--9--9--9--|
A|-------------------------------|-------------------------|-----------------------------|
E|-------------------------------|-------------------------|-----------------------------|


E|-----------------10--10----|-10-------12-12-12--12-12-12-12-12-12-|-12-12-12-12-12--10--10----|
B|-9--9--9--9--9---8---8-----|-8--------12-12-12--12-12-12-12-12-12-|-12-12-12-12-12--8---8-----|
G|-9--9--9--9--9---9---9-----|-9--------9-----9---9--9--9--9--9--9--|-9--9--9--9--9---9---9-----|
D|-9-----9-----9---9---9-----|-9------------------------------------|-----------------9---9-----|
A|---------------------------|--------------------------------------|---------------------------|
E|---------------------------|--------------------------------------|---------------------------|


E|-10--------------------------|-----------------10--10----|-10--------12-12-12-12-12-12-|
B|-8-----9---9--9--9--9--9--9--|-9--9--9--9--9---8---8-----|-8---------12-12-12-12-12-12-|
G|-9-----9---9--9--9--9--9--9--|-9--9--9--9--9---9---9-----|-9---------9--9--9--9--9--9--|
D|-9-----9---9-----9-----9-----|-9-----9-----9---9---9-----|-9---------------------------|
A|-----------------------------|---------------------------|-----------------------------|
E|-----------------------------|---------------------------|-----------------------------|


E|-12-12-12-12-12--10--10----|-10--------------------------|-----------------10--10----|
B|-12-12-12-12-12--8---8-----|-8-----9---9--9--9--9--9--9--|-9--9--9--9--9---8---8-----|
G|-9--9--9--9--9---9---9-----|-9-----9---9--9--9--9--9--9--|-9--9--9--9--9---9---9-----|
D|-----------------9---9-----|-9-----9---9-----9-----9-----|-9-----9-----9---9---9-----|
A|---------------------------|-----------------------------|---------------------------|
E|---------------------------|-----------------------------|---------------------------|


E|-10--------12-12-12-12-12-12-|------------------------------|---------------------------------|
B|-8---------12-12-12-12-12-12-|------5-----------------------|-----5---5-----------------------|
G|-9---------9--9--9--9--9--9--|----------4---4---------------|-------------4---4---------------|
D|-9---------------------------|-6----------------6---6---7---|-7-------------------7---7---6---|
A|-----------------------------|------------------------------|---------------------------------|
E|-----------------------------|------------------------------|---------------------------------|


E|---------------------------------|---------------------------------|---------------------------------|
B|-----5---5-----------------------|-----5---5-----------------------|-----5---5-----------------------|
G|-------------4---4---------------|-------------4---4---------------|-------------4---4---------------|
D|-6-------------------6---6---4---|-4-------------------4---4---6---|-6-------------------6---6---7---|
A|---------------------------------|---------------------------------|---------------------------------|
E|---------------------------------|---------------------------------|---------------------------------|


E|------------------------------|--------|--------|--------|--------|--------|--------|
B|-----5---5--------------------|--------|--------|--------|--------|--------|--------|
G|-------------4---4------------|--------|--------|--------|--------|--------|--------|
D|-7-------------------7---7----|--------|--------|--------|--------|--------|--------|
A|------------------------------|--------|--------|--------|--------|--------|--------|
E|------------------------------|--------|--------|--------|--------|--------|--------|


E|--------|--------|-0-----0---0----0----|-0---0---0----0---0---0----|-0-----0---0----0----|
B|--------|--------|-3-----3---3----3----|-3---3---3----3---3---3----|-3-----3---3----3----|
G|--------|--------|-0-----0---0----0----|-0---0---0----0---0---0----|-0-----0---0----0----|
D|--------|--------|---------------------|---------------------------|---------------------|
A|--------|--------|---------------------|---------------------------|---------------------|
E|--------|--------|---------------------|---------------------------|---------------------|


E|-0---0---0----0-----|---------------------------12--12---|-12------------------------12--12---|
B|-3---3---3----3-----|---------------------------12--12---|-12------------------------12--12---|
G|-0---0---0----0-----|------------------------------------|------------------------------------|
D|--------------------|-----12-12-12-12-12-12-12-----------|-----12-12-12-12-12-12-12-----------|
A|--------------------|------------------------------------|------------------------------------|
E|--------------------|------------------------------------|------------------------------------|


E|-12------------------------12--12---|-12------------------------12--12---|-0-----0---0----0----|
B|-12------------------------12--12---|-12------------------------12--12---|-3-----3---3----3----|
G|------------------------------------|------------------------------------|-0-----0---0----0----|
D|-----12-12-12-12-12-12-12-----------|-----12-12-12-12-12-12-12-----------|---------------------|
A|------------------------------------|------------------------------------|---------------------|
E|------------------------------------|------------------------------------|---------------------|


E|-0---0---0----0-----|-0-----0---0----0----|-0---0---0----0-----|-----------------10--10----|
B|-3---3---3----3-----|-3-----3---3----3----|-3---3---3----3-----|-9--9--9--9--9---8---8-----|
G|-0---0---0----0-----|-0-----0---0----0----|-0---0---0----0-----|-9--9--9--9--9---9---9-----|
D|--------------------|---------------------|--------------------|-9-----9-----9---9---9-----|
A|--------------------|---------------------|--------------------|---------------------------|
E|--------------------|---------------------|--------------------|---------------------------|


E|-10-----|-----------------10--10----|-10-----|-----------------10--10----|-10-----|
B|-8------|-9--9--9--9--9---8---8-----|-8------|-9--9--9--9--9---8---8-----|-8------|
G|-9------|-9--9--9--9--9---9---9-----|-9------|-9--9--9--9--9---9---9-----|-9------|
D|-9------|-9-----9-----9---9---9-----|-9------|-9-----9-----9---9---9-----|-9------|
A|--------|---------------------------|--------|---------------------------|--------|
E|--------|---------------------------|--------|---------------------------|--------|


E|-----------------10--10----|-10-----|-10-10-10-10-10-10-10-10-10-10-10-10-10-10-10-10-|
B|-9--9--9--9--9---8---8-----|-8------|-12-12-12-12-12-12-12-12-12-12-12-12-12-12-12-12-|
G|-9--9--9--9--9---9---9-----|-9------|-9--9--9--9--9--9--9-----9--9--9--9--9--9--9-----|
D|-9-----9-----9---9---9-----|-9------|-9-----9-----------9-----9-----9-----------9-----|
A|---------------------------|--------|-------------------------------------------------|
E|---------------------------|--------|-------------------------------------------------|


E|-10-10-10-10-10-10-10-10-10-10-10-10-10-10-10-10-|-10-10-10-10-10-10-10-10-10-10-10-10-10-10-10-10-|
B|-12-12-12-12-12-12-12-12-12-12-12-12-12-12-12-12-|-12-12-12-12-12-12-12-12-12-12-12-12-12-12-12-12-|
G|-9--9--9--9--9--9--9-----9--9--9-----9--9--9-----|-9--9--9--9--9--9--9-----9--9--9--9--9--9--9-----|
D|-9-----9-----------9-----9-----9-----9-----9-----|-9-----9-----------9-----9-----9-----------9-----|
A|-------------------------------------------------|-------------------------------------------------|
E|-------------------------------------------------|-------------------------------------------------|


E|-10-10-10-10-10-10-10-10-10-10-10-10-10-10-10-10-|-10-10-10-10-10-10-10-10-10-10-10-10-10-10-10-10-|
B|-12-12-12-12-12-12-12-12-12-12-12-12-12-12-12-12-|-12-12-12-12-12-12-12-12-12-12-12-12-12-12-12-12-|
G|-9--9--9--9--9--9--9-----9--9--9-----9--9--9-----|-9--9--9--9--9--9--9-----9--9--9--9--9--9--9-----|
D|-9-----9-----------9-----9-----9-----9-----9-----|-9-----9-----------9-----9-----9-----------9-----|
A|-------------------------------------------------|-------------------------------------------------|
E|-------------------------------------------------|-------------------------------------------------|


E|-10-10-10-10-10-10-10-10-10-10-10-10-10-10-10-10-|-10-10-10-10-10-10-10-10-10-10-10-10-10-10-10-10-|
B|-12-12-12-12-12-12-12-12-12-12-12-12-12-12-12-12-|-12-12-12-12-12-12-12-12-12-12-12-12-12-12-12-12-|
G|-9--9--9--9--9--9--9-----9--9--9-----9--9--9-----|-9--9--9--9--9--9--9-----9--9--9--9--9--9--9-----|
D|-9-----9-----------9-----9-----9-----9-----9-----|-9-----9-----------9-----9-----9-----------9-----|
A|-------------------------------------------------|-------------------------------------------------|
E|-------------------------------------------------|-------------------------------------------------|


E|-10-10-10-10-10-10-10-10-10-10-10-10-10-10-10-10-|-10-10-10-10-10-10-10-10-10-10-10-10-10-10-10-10-|
B|-12-12-12-12-12-12-12-12-12-12-12-12-12-12-12-12-|-12-12-12-12-12-12-12-12-12-12-12-12-12-12-12-12-|
G|-9--9--9--9--9--9--9-----9--9--9-----9--9--9-----|-9--9--9--9--9--9--9-----9--9--9--9--9--9--9-----|
D|-9-----9-----------9-----9-----9-----9-----9-----|-9-----9-----------9-----9-----9-----------9-----|
A|-------------------------------------------------|-------------------------------------------------|
E|-------------------------------------------------|-------------------------------------------------|


E|-10-10-10-10-10-10-10-10-10-10-10-10-10-10-10-10-|-10-10-10-10-10-10-10-10-10-10-10-10-10-10-10-10-|
B|-12-12-12-12-12-12-12-12-12-12-12-12-12-12-12-12-|-12-12-12-12-12-12-12-12-12-12-12-12-12-12-12-12-|
G|-9--9--9--9--9--9--9-----9--9--9-----9--9--9-----|-9--9--9--9--9--9--9-----9--9--9--9--9--9--9-----|
D|-9-----9-----------9-----9-----9-----9-----9-----|-9-----9-----------9-----9-----9-----------9-----|
A|-------------------------------------------------|-------------------------------------------------|
E|-------------------------------------------------|-------------------------------------------------|


E|-10-10-10-10-10-10-10-10-10-10-10-10-10-10-10-10-|--------|
B|-12-12-12-12-12-12-12-12-12-12-12-12-12-12-12-12-|--------|
G|-9--9--9--9--9--9--9-----9--9--9-----9--9--9-----|--------|
D|-9-----9-----------9-----9-----9-----9-----9-----|--------|
A|-------------------------------------------------|--------|
E|-------------------------------------------------|--------|





Track 3: Dist. Gtr

E|--------|--------|--------|--------|--------|--------|--------|--------|--------|
B|--------|--------|--------|--------|--------|--------|--------|--------|--------|
G|--------|--------|--------|--------|--------|--------|--------|--------|--------|
D|--------|--------|--------|--------|--------|--------|--------|--------|--------|
A|--------|--------|--------|--------|--------|--------|--------|--------|--------|
E|--------|--------|--------|--------|--------|--------|--------|--------|--------|


E|--------|--------|--------|--------|--------|--------|--------|--------|--------|
B|--------|--------|--------|--------|--------|--------|--------|--------|--------|
G|--------|--------|--------|--------|--------|--------|--------|--------|--------|
D|--------|--------|--------|--------|--------|--------|--------|--------|--------|
A|--------|--------|--------|--------|--------|--------|--------|--------|--------|
E|--------|--------|--------|--------|--------|--------|--------|--------|--------|


E|-------------|--------|--------|--------|--------|--------|--------|--------|--------|
B|-------0-----|-0------|--------|--------|--------|--------|--------|--------|--------|
G|-------0-----|-0------|--------|--------|--------|--------|--------|--------|--------|
D|-------------|--------|--------|--------|--------|--------|--------|--------|--------|
A|-------------|--------|--------|--------|--------|--------|--------|--------|--------|
E|-------------|--------|--------|--------|--------|--------|--------|--------|--------|


E|--------|--------|--------|--------|--------|--------|--------|--------|--------|
B|--------|--------|--------|--------|--------|--------|--------|--------|--------|
G|--------|--------|--------|--------|--------|--------|--------|--------|--------|
D|--------|--------|--------|--------|--------|--------|--------|--------|--------|
A|--------|--------|--------|--------|--------|--------|--------|--------|--------|
E|--------|--------|--------|--------|--------|--------|--------|--------|--------|


E|--------|--------|--------|--------|-------------|--------|--------|--------|--------|
B|--------|--------|--------|--------|-------------|--------|--------|--------|--------|
G|--------|--------|--------|--------|-------12----|-12-----|-12-----|-12-----|-12-----|
D|--------|--------|--------|--------|-------12----|-12-----|-12-----|-12-----|-12-----|
A|--------|--------|--------|--------|-------------|--------|--------|--------|--------|
E|--------|--------|--------|--------|-------------|--------|--------|--------|--------|


E|--------|----------------0---|-0------|--------|--------|--------|--------|--------|
B|--------|--------------------|--------|--------|--------|--------|--------|--------|
G|-12-----|--------------------|--------|--------|--------|--------|--------|--------|
D|-12-----|--------------------|--------|--------|--------|--------|--------|--------|
A|--------|--------------------|--------|--------|--------|--------|--------|--------|
E|--------|--------------------|--------|--------|--------|--------|--------|--------|


E|--------|--------|--------|--------|--------|--------|--------|--------|--------|
B|--------|--------|--------|--------|--------|--------|--------|--------|--------|
G|--------|--------|--------|--------|--------|--------|--------|--------|--------|
D|--------|--------|--------|--------|--------|--------|--------|--------|--------|
A|--------|--------|--------|--------|--------|--------|--------|--------|--------|
E|--------|--------|--------|--------|--------|--------|--------|--------|--------|


E|--------|--------|--------|--------|--------------------|--------|--------------------|
B|--------|--------|--------|--------|--------------------|--------|--------------------|
G|--------|--------|--------|--------|-----12--12---12----|-12-----|-----12--12---12----|
D|--------|--------|--------|--------|-----12--12---12----|-12-----|-----12--12---12----|
A|--------|--------|--------|--------|--------------------|--------|--------------------|
E|--------|--------|--------|--------|--------------------|--------|--------------------|


E|--------|--------|--------|--------|--------|--------|--------|--------|--------|
B|--------|--------|--------|--------|--------|--------|--------|--------|--------|
G|-12-----|--------|--------|--------|--------|--------|--------|--------|--------|
D|-12-----|--------|--------|--------|--------|--------|--------|--------|--------|
A|--------|--------|--------|--------|--------|--------|--------|--------|--------|
E|--------|--------|--------|--------|--------|--------|--------|--------|--------|


E|--------|--------|--------|--------|--------|--------|--------|--------|--------|
B|--------|--------|--------|--------|--------|--------|--------|--------|--------|
G|--------|--------|--------|--------|--------|--------|--------|--------|--------|
D|--------|--------|--------|--------|--------|--------|--------|--------|--------|
A|--------|--------|--------|--------|--------|--------|--------|--------|--------|
E|--------|--------|--------|--------|--------|--------|--------|--------|--------|


E|--------|--------|--------|--------|--------|--------|--------|--------|--------|
B|--------|--------|--------|--------|--------|--------|--------|--------|--------|
G|--------|--------|--------|--------|--------|--------|--------|--------|--------|
D|--------|--------|--------|--------|--------|--------|--------|--------|--------|
A|--------|--------|--------|--------|--------|--------|--------|--------|--------|
E|--------|--------|--------|--------|--------|--------|--------|--------|--------|


E|--------|--------|--------|--------|--------|--------|--------|--------|--------|
B|--------|--------|--------|--------|--------|--------|--------|--------|--------|
G|--------|--------|--------|--------|--------|--------|--------|--------|--------|
D|--------|--------|--------|--------|--------|--------|--------|--------|--------|
A|--------|--------|--------|--------|--------|--------|--------|--------|--------|
E|--------|--------|--------|--------|--------|--------|--------|--------|--------|


E|--------|--------|--------|--------|-10-----|--------|-----10--10---10----|--------|
B|--------|--------|--------|-12-----|-10-----|-12-----|-12--10--10---10----|--------|
G|--------|--------|--------|-9------|--------|-9------|-9------------------|-12-----|
D|--------|--------|--------|--------|--------|--------|--------------------|-12-----|
A|--------|--------|--------|--------|--------|--------|--------------------|--------|
E|--------|--------|--------|--------|--------|--------|--------------------|--------|


E|--------|--------|--------|--------|--------|--------|--------|--------|--------|
B|--------|--------|--------|--------|--------|--------|--------|--------|--------|
G|-12-----|-12-----|-12-----|--------|--------|--------|--------|--------|--------|
D|-12-----|-12-----|-12-----|--------|--------|--------|--------|--------|--------|
A|--------|--------|--------|--------|--------|--------|--------|--------|--------|
E|--------|--------|--------|--------|--------|--------|--------|--------|--------|


E|--------|--------|--------|--------|--------|--------|--------|---------------------------------|
B|--------|--------|--------|--------|--------|--------|--------|-------------9---9---------------|
G|--------|--------|--------|--------|--------|--------|--------|-----7---7-----------7---7---7---|
D|--------|--------|--------|--------|--------|--------|--------|---------------------------------|
A|--------|--------|--------|--------|--------|--------|-7------|-7-------------------------------|
E|--------|--------|--------|--------|--------|--------|--------|---------------------------------|


E|--------|---------------------------------|--------|---------------------------------|
B|--------|-------------9---9---------------|--------|-------------9---9---------------|
G|--------|-----7---7-----------7---7---7---|--------|-----7---7-----------7---7---7---|
D|--------|---------------------------------|--------|---------------------------------|
A|-7------|-7-------------------------------|-7------|-7-------------------------------|
E|--------|---------------------------------|--------|---------------------------------|


E|--------|---------------------------------|--------|--------|--------|--------|--------|
B|--------|-------------9---9---------------|--------|--------|--------|--------|--------|
G|--------|-----7---7-----------7---7---7---|--------|--------|--------|--------|--------|
D|--------|---------------------------------|--------|--------|--------|--------|--------|
A|-7------|-7-------------------------------|--------|--------|--------|--------|--------|
E|--------|---------------------------------|--------|--------|--------|--------|--------|


E|--------|--------|--------|--------|--------|--------|--------|-10-----|
B|--------|--------|--------|--------|--------|--------|--------|-12-----|
G|--------|--------|--------|--------|--------|--------|--------|-9------|
D|--------|--------|--------|--------|--------|--------|--------|--------|
A|--------|--------|--------|--------|--------|--------|--------|--------|
E|--------|--------|--------|--------|--------|--------|--------|--------|





Track 4: Untitled

G|--------|--------|--------|--------|--------|--------|--------|--------|--------|
D|--------|--------|--------|--------|--------|--------|--------|--------|--------|
A|--------|--------|--------|--------|--------|--------|--------|--------|--------|
E|--------|--------|--------|--------|--------|--------|--------|--------|--------|


G|--------|---------------------------------|---------------------------------|---------------------------------|
D|--------|---------------------------------|-----------------5---5---5---5---|---------------------------------|
A|--------|---------------------------------|---------------------------------|---------------------------------|
E|--------|-0---0---0---0---0---0---0---0---|-0---0---0---0-------------------|-0---0---0---0---0---0---0---0---|


G|---------------------------------|---------------------------------|---------------------------------|
D|-----------------5---5---5---5---|---------------------------------|-----------------5---5---5---5---|
A|---------------------------------|-7---7---7-------7---7---7-------|-7---7---7-----------------------|
E|-0---0---0---0-------------------|-------------5---------------5---|-------------0-------------------|


G|---------------------------------|-----------------------|---------------------------------|
D|---------------------------------|-----------------------|---------------------------------|
A|-7---7---7-------7---7---7-------|-7---7---7-------------|---------------------------------|
E|-------------5---------------5---|-------------0---------|-0---0---0---0---0---0---0---0---|


G|---------------------------------|---------------------------------|---------------------------------|
D|-------------5---5---5---5---5---|---------------------------------|-------------5---5---5---5-------|
A|---------------------------------|---------------------------------|-----------------------------7---|
E|-0---0---0-----------------------|-0---0---0---0---0---0---0---0---|-0---0---0-----------------------|


G|---------------------------------|-----------------------|---------------------------------|
D|---------------------------------|-----------------------|---------------------------------|
A|-7---7---7-------7---7---7-------|-7---7---7-------------|-7---7---7-------7---7---7-------|
E|-------------5---------------5---|-------------0---------|-------------5---------------5---|


G|-----7-------9---------|---------------------------------|------------------------------|
D|-----------------------|---------------------------------|------------------------------|
A|-5-------7-------------|-7---7---7-------7---7---7-------|-7---7---7--------------------|
E|-----------------------|-------------5---------------5---|-------------0------------5---|


G|---------------------------------|-----7-----------------|---------------------------------|
D|---------------------------------|---------5---5---5-----|---------------------------------|
A|-7---7---7-------7---7---7-------|-5---------------------|-7---7---7-------7---7---7-------|
E|-------------5---------------5---|-----------------------|-------------5---------------5---|


G|-----------------------|---------------------------------|-----7-------9---------|
D|-----------------------|---------------------------------|-----------------------|
A|-7---7---7-------------|-7---7---7-------7---7---7-------|-5-------7-------------|
E|-------------0---0-----|-------------5---------------5---|-----------------------|


G|-------------6-------------------|-------------7-------------------|-------------6-------------------|
D|---------------------------------|---------------------------------|---------------------------------|
A|-4---4---4-------4---4---4---4---|-5---5---5-------5---5---5---5---|-4---4---4-------4---4---4---4---|
E|---------------------------------|---------------------------------|---------------------------------|


G|-------------7-------------------|-------------6-------------------|-------------7-------------------|
D|---------------------------------|---------------------------------|---------------------------------|
A|-5---5---5-------5---5---5---5---|-4---4---4-------4---4---4---4---|-5---5---5-------5---5---5---5---|
E|---------------------------------|---------------------------------|---------------------------------|


G|---------------------------------|---------------------------------|---------------------------------|
D|---------------------------------|-----------------5---5---5---5---|---------------------------------|
A|-7---7---7---7---7---7---7---7---|-7---7---7---7-------------------|-7---7---7---7---7---7---7-------|
E|---------------------------------|---------------------------------|---------------------------------|


G|-----------------|---------------------------------|------------------------------|
D|-----------------|---------------------------------|------------------------------|
A|------------14---|-7---7---7-------7---7---7-------|-7---7---7--------------------|
E|-----------------|-------------5---------------5---|-------------0------------5---|


G|---------------------------------|------------------------------|---------------------------------|
D|---------------------------------|------------------------------|---------------------------------|
A|-7---7---7-------7---7---7-------|-7---7---7--------------------|-7---7---7-------7---7---7-------|
E|-------------5---------------5---|-------------0------------5---|-------------5---------------5---|


G|------------------------------|---------------------------------|------------------------------|
D|------------------------------|---------------------------------|------------------------------|
A|-7---7---7--------------------|-7---7---7-------7---7---7-------|-7---7---7--------------------|
E|-------------0------------5---|-------------5---------------5---|-------------0------------5---|


G|---------------------------------|---------------------------------|---------------------------------|
D|---------------------------------|-----------------5---5---5---5---|---------------------------------|
A|-7---7---7---7---7---7---7---7---|-7---7---7---7-------------------|-7---7---7---7---7---7---7---7---|
E|---------------------------------|---------------------------------|---------------------------------|


G|---------------------------------|---------------------------------|-----7-------9-------------|
D|-----------------5---5---5---5---|---------------------------------|---------------------------|
A|-7---7---7---7-------------------|-7---7---7---7---7---7---7---7---|-5-------7-------7---------|
E|---------------------------------|---------------------------------|---------------------------|


G|---------------------------------|---------------------------------|-------------6-------------------|
D|---------------------------------|-----------------5---5---5---5---|---------------------------------|
A|-7---7---7---7---7---7---7---7---|-7---7---7---7-------------------|-4---4---4-------4---4---4---4---|
E|---------------------------------|---------------------------------|---------------------------------|


G|-------------7-------------------|-------------6-------------------|-------------7-------------------|
D|---------------------------------|---------------------------------|---------------------------------|
A|-5---5---5-------5---5---5---5---|-4---4---4-------4---4---4---4---|-5---5---5-------5---5---5---5---|
E|---------------------------------|---------------------------------|---------------------------------|


G|-------------6-------------------|-------------7-------------------|---------------------------|
D|---------------------------------|---------------------------------|---------------------------|
A|-4---4---4-------4---4---4---4---|-5---5---5-------5---5---5---5---|-7----7---7---7----7---7---|
E|---------------------------------|---------------------------------|---------------------------|


G|---------------------------|---------------------------|--------|---------------------------------|
D|----------5---5----5-------|---------------------------|--------|-------------7---------------7---|
A|-7----7----------------7---|-7----7---7---7----7---7---|-7------|-7---7---7-------7---7---7-------|
E|---------------------------|---------------------------|--------|---------------------------------|


G|---------------------------------|---------------------------------|---------------------------------|
D|-------------5---5---4---4---4---|-------------7---------------7---|-------------5---5---4---4---4---|
A|-7---7---7-----------------------|-7---7---7-------7---7---7-------|-7---7---7-----------------------|
E|---------------------------------|---------------------------------|---------------------------------|


G|---------------------------------|---------------------------------|---------------------------------|
D|-------------7---------------7---|-------------5---5---4---4---4---|-------------7---------------7---|
A|-7---7---7-------7---7---7-------|-7---7---7-----------------------|-7---7---7-------7---7---7-------|
E|---------------------------------|---------------------------------|---------------------------------|


G|---------------------------------|---------------------------------|---------------------------------|
D|-------------5---5---4---4---4---|---------------------------------|-----------------5---5---5---5---|
A|-7---7---7-----------------------|-7---7---7-------7---7---7-------|-7---7---7-----------------------|
E|---------------------------------|-------------5---------------5---|-------------0-------------------|


G|---------------------------------|---------------------------------|---------------------------------|
D|---------------------------------|-----------------5---5---5---5---|---------------------------------|
A|-7---7---7-------7---7---7-------|-7---7---7-----------------------|-7---7---7-------7---7---7-------|
E|-------------5---------------5---|-------------0-------------------|-------------5---------------5---|


G|---------------------------------|---------------------------------|---------------------------------|
D|-----------------5---5---5---5---|---------------------------------|-----------------5---5---5---5---|
A|-7---7---7-----------------------|-7---7---7-------7---7---7-------|-7---7---7-----------------------|
E|-------------0-------------------|-------------5---------------5---|-------------0-------------------|


G|---------------------------------|-----7-------9---------|---------------------------------|
D|---------------------------------|-----------------------|---------------------------------|
A|-7---7---7-------7---7---7-------|-5-------7-------------|-7---7---7-------7---7---7-------|
E|-------------5---------------5---|-----------------------|-------------5---------------5---|


G|-----7---------------------|---------------------------------|-----------------------|
D|---------5---5---5---------|---------------------------------|-----------------------|
A|-5-------------------------|-7---7---7-------7---7---7-------|-7---7---7-------------|
E|---------------------------|-------------5---------------5---|-------------0---------|


G|---------------------------------|-----------------------|---------------------------------|
D|---------------------------------|-----------------------|---------------------------------|
A|-7---7---7-------7---7---7-------|-7---7---7-------------|-7---7---7-------7---7---7-------|
E|-------------5---------------5---|-------------0---------|-------------5---------------5---|


G|-----7-------9-------------|---------------------------------|-----7---------------------|
D|---------------------------|---------------------------------|---------5---5---5---------|
A|-5-------7-------7---------|-7---7---7-------7---7---7-------|-5-------------------------|
E|---------------------------|-------------5---------------5---|---------------------------|


G|---------------------------------|-----7-------9-------------|---------------------------------|
D|---------------------------------|---------------------------|---------------------------------|
A|-7---7---7-------7---7---7-------|-5-------7-------7---------|-7---7---7-------7---7---7-------|
E|-------------5---------------5---|---------------------------|-------------5---------------5---|


G|-----7---------------------|-------------6-------------------|-------------7-------------------|
D|---------5---5---5---------|---------------------------------|---------------------------------|
A|-5-------------------------|-4---4---4-------4---4---4---4---|-5---5---5-------5---5---5---5---|
E|---------------------------|---------------------------------|---------------------------------|


G|-------------6-------------------|-------------7-------------------|-------------6-------------------|
D|---------------------------------|---------------------------------|---------------------------------|
A|-4---4---4-------4---4---4---4---|-5---5---5-------5---5---5---5---|-4---4---4-------4---4---4---4---|
E|---------------------------------|---------------------------------|---------------------------------|


G|-------------7-------------------|-------------6-------------------|-------------7-----------7-------|
D|---------------------------------|---------------------------------|---------------------------------|
A|-5---5---5-------5---5---5---5---|-4---4---4-------4---4---4---4---|-5---5---5-------5---5-------5---|
E|---------------------------------|---------------------------------|---------------------------------|


G|-------------6-------------------|-------------7-----------7-------|---------------------------------|
D|---------------------------------|---------------------------------|---------------------------------|
A|-4---4---4-------4---4---4---4---|-5---5---5-------5---5-------5---|-7---7---7---7---7---7---7---7---|
E|---------------------------------|---------------------------------|---------------------------------|


G|---------------------------------|---------------------------------|-----------------------|
D|-------------5---5---5---5---5---|---------------------------------|-----------------------|
A|-7---7---7-----------------------|-7---7---7---7---7---7---7---7---|-7---7---7-------------|
E|---------------------------------|---------------------------------|-----------------------|


G|---------------------------------|---------------------------------|---------------------------------|
D|-5---5---5---5---5---5---5---5---|-5---5---5---5---5---5---5---5---|-5---5---5---5---5---5---5---5---|
A|---------------------------------|---------------------------------|---------------------------------|
E|---------------------------------|---------------------------------|---------------------------------|


G|---------------------------------|---------------------------------|---------------------------------|
D|-5---5---5---5---5---5---5---5---|-5---5---5---------------5---5---|---------------------------------|
A|---------------------------------|-------------7---7---7-----------|-7---7---7---------------7---7---|
E|---------------------------------|---------------------------------|-------------7---7---7-----------|


G|---------------------------------|---------------------------------|---------------------------------|
D|-5---5---5---------------5---5---|---------------------------------|-5---5---5---5---5---5---5---5---|
A|-------------7---7---7-----------|-7---7---7---------------7---7---|---------------------------------|
E|---------------------------------|-------------8---8---8-----------|---------------------------------|


G|---------------------------------|---------------------------------|---------------------------------|
D|-5---5---5---5---5---5---5---5---|---------------------------------|---------------------------------|
A|---------------------------------|-3---3---3---3---3---3---3---3---|-3---3---3---3---3---3---3---3---|
E|---------------------------------|---------------------------------|---------------------------------|


G|---------------------------------|---------------------------------|---------------------------------|
D|-------------7---------------7---|-------------5---5---5---5---5---|-------------7---------------7---|
A|-7---7---7-------7---7---7-------|-7---7---7-----------------------|-7---7---7-------7---7---7-------|
E|---------------------------------|---------------------------------|---------------------------------|


G|---------------------------------|---------------------------------|---------------------------------|
D|-------------5---5---5---5---5---|-------------7---------------7---|-------------5---5---5---5---5---|
A|-7---7---7-----------------------|-7---7---7-------7---7---7-------|-7---7---7-----------------------|
E|---------------------------------|---------------------------------|---------------------------------|


G|---------------------------------|---------------------------------|---------------------------------|
D|-------------7---------------7---|-------------5---5---5---5---5---|---------------------------------|
A|-7---7---7-------7---7---7-------|-7---7---7-----------------------|-7---7---7---7---7---7---7---7---|
E|---------------------------------|---------------------------------|---------------------------------|


G|---------------------------------|---------------------------------|---------------------------------|
D|-----------------5---5---5---5---|---------------------------------|-----------------5---5---5---5---|
A|-7---7---7---7-------------------|-7---7---7---7---7---7---7---7---|-7---7---7---7-------------------|
E|---------------------------------|---------------------------------|---------------------------------|


G|---------------------------------|---------------------------------|---------------------------------|
D|---------------------------------|-----------------5---5---5---5---|---------------------------------|
A|-7---7---7---7---7---7---7---7---|-7---7---7---7-------------------|-7---7---7---7---7---7---7---7---|
E|---------------------------------|---------------------------------|---------------------------------|


G|---------------------------------|---------------------------------|---------------------------------|
D|-----------------5---5---5---5---|---------------------------------|-----------------5---5---5---5---|
A|-7---7---7---7-------------------|-7---7---7---7---7---7---7---7---|-7---7---7---7-------------------|
E|---------------------------------|---------------------------------|---------------------------------|


G|---------------------------------|---------------------------------|--------|
D|---------------------------------|-----------------5---5---5---5---|--------|
A|-7---7---7---7---7---7---7---7---|-7---7---7---7-------------------|-7------|
E|---------------------------------|---------------------------------|--------|