Site menu:

    

Browse: 0-9 A B C D E F G H I J K L N O P Q R S T U V W X Y Z

u2 - walk on:



Title: Walk On
Artist: 
Album: All That You Can't Leave Behind
Author: U2


Track 1: Piano

E|--------|-5------|-3-----3---3--------|--------|---------------------|-5------|-3-----3---3--------|
B|--------|-6------|-5-----5---5----3---|-3------|---------------3-----|-6------|-5-----5---5----3---|
G|--------|-7------|-5-----5---5----4---|-4------|---------------4-----|-7------|-5-----5---5----4---|
D|--------|--------|--------------------|-5------|-5-----5---5---5-----|--------|--------------------|
A|--------|-5------|-3-----3------------|--------|---------------------|-5------|-3-----3------------|
E|--------|--------|--------------------|-3------|---------------------|--------|--------------------|


E|--------|------------------------|--------|--------|--------|--------|--------|--------|
B|-3------|------------------------|--------|--------|--------|--------|--------|--------|
G|-4------|------------------------|--------|--------|--------|--------|--------|--------|
D|-5------|-5-----5---5---5--------|--------|--------|--------|--------|--------|--------|
A|--------|------------------------|--------|--------|--------|--------|--------|--------|
E|-3------|------------------------|--------|--------|--------|--------|--------|--------|


E|--------|--------|--------|--------|--------|--------|--------|--------|--------|
B|--------|--------|--------|--------|--------|--------|--------|--------|--------|
G|--------|--------|--------|--------|--------|--------|--------|--------|--------|
D|--------|--------|--------|--------|--------|--------|--------|--------|--------|
A|--------|--------|--------|--------|--------|--------|--------|--------|--------|
E|--------|--------|--------|--------|--------|--------|--------|--------|--------|


E|--------|--------|--------|--------|--------|--------|--------|--------|--------|
B|--------|--------|--------|--------|--------|--------|--------|--------|--------|
G|--------|--------|--------|--------|--------|--------|--------|--------|--------|
D|--------|--------|--------|--------|--------|--------|--------|--------|--------|
A|--------|--------|--------|--------|--------|--------|--------|--------|--------|
E|--------|--------|--------|--------|--------|--------|--------|--------|--------|


E|--------|--------|--------|--------|--------|--------|--------|--------|--------|
B|--------|--------|--------|--------|--------|--------|--------|--------|--------|
G|--------|--------|--------|--------|--------|--------|--------|--------|--------|
D|--------|--------|--------|--------|--------|--------|--------|--------|--------|
A|--------|--------|--------|--------|--------|--------|--------|--------|--------|
E|--------|--------|--------|--------|--------|--------|--------|--------|--------|


E|--------|--------|--------|--------|--------|--------|--------|--------|--------|
B|--------|--------|--------|--------|--------|--------|--------|--------|--------|
G|--------|--------|--------|--------|--------|--------|--------|--------|--------|
D|--------|--------|--------|--------|--------|--------|--------|--------|--------|
A|--------|--------|--------|--------|--------|--------|--------|--------|--------|
E|--------|--------|--------|--------|--------|--------|--------|--------|--------|


E|--------|--------|--------|--------|--------|--------|--------|--------|--------|
B|--------|--------|--------|--------|--------|--------|--------|--------|--------|
G|--------|--------|--------|--------|--------|--------|--------|--------|--------|
D|--------|--------|--------|--------|--------|--------|--------|--------|--------|
A|--------|--------|--------|--------|--------|--------|--------|--------|--------|
E|--------|--------|--------|--------|--------|--------|--------|--------|--------|


E|--------|--------|--------|--------|--------|--------|--------|--------|--------|
B|--------|--------|--------|--------|--------|--------|--------|--------|--------|
G|--------|--------|--------|--------|--------|--------|--------|--------|--------|
D|--------|--------|--------|--------|--------|--------|--------|--------|--------|
A|--------|--------|--------|--------|--------|--------|--------|--------|--------|
E|--------|--------|--------|--------|--------|--------|--------|--------|--------|


E|--------|--------|--------|--------|--------|--------|--------|--------|--------|
B|--------|--------|--------|--------|--------|--------|--------|--------|--------|
G|--------|--------|--------|--------|--------|--------|--------|--------|--------|
D|--------|--------|--------|--------|--------|--------|--------|--------|--------|
A|--------|--------|--------|--------|--------|--------|--------|--------|--------|
E|--------|--------|--------|--------|--------|--------|--------|--------|--------|


E|--------|--------|--------|--------|--------|--------|--------|--------|--------|
B|--------|--------|--------|--------|--------|--------|--------|--------|--------|
G|--------|--------|--------|--------|--------|--------|--------|--------|--------|
D|--------|--------|--------|--------|--------|--------|--------|--------|--------|
A|--------|--------|--------|--------|--------|--------|--------|--------|--------|
E|--------|--------|--------|--------|--------|--------|--------|--------|--------|


E|--------|--------|--------|--------|--------|--------|--------|--------|--------|
B|--------|--------|--------|--------|--------|--------|--------|--------|--------|
G|--------|--------|--------|--------|--------|--------|--------|--------|--------|
D|--------|--------|--------|--------|--------|--------|--------|--------|--------|
A|--------|--------|--------|--------|--------|--------|--------|--------|--------|
E|--------|--------|--------|--------|--------|--------|--------|--------|--------|


E|--------|--------|--------|--------|--------|--------|--------|--------|--------|
B|--------|--------|--------|--------|--------|--------|--------|--------|--------|
G|--------|--------|--------|--------|--------|--------|--------|--------|--------|
D|--------|--------|--------|--------|--------|--------|--------|--------|--------|
A|--------|--------|--------|--------|--------|--------|--------|--------|--------|
E|--------|--------|--------|--------|--------|--------|--------|--------|--------|


E|--------|--------|--------|--------|--------|--------|--------|--------|--------|
B|--------|--------|--------|--------|--------|--------|--------|--------|--------|
G|--------|--------|--------|--------|--------|--------|--------|--------|--------|
D|--------|--------|--------|--------|--------|--------|--------|--------|--------|
A|--------|--------|--------|--------|--------|--------|--------|--------|--------|
E|--------|--------|--------|--------|--------|--------|--------|--------|--------|


E|--------|--------|--------|--------|--------|--------|
B|--------|--------|--------|--------|--------|--------|
G|--------|--------|--------|--------|--------|--------|
D|--------|--------|--------|--------|--------|--------|
A|--------|--------|--------|--------|--------|--------|
E|--------|--------|--------|--------|--------|--------|





Track 2: Edge (main)

E|--------|--------|--------|--------|--------|--------|--------|--------|----------------|
B|--------|--------|--------|--------|--------|--------|--------|--------|----------------|
G|--------|--------|--------|--------|--------|--------|--------|--------|----------------|
D|--------|--------|--------|--------|--------|--------|--------|--------|------------12--|
A|--------|--------|--------|--------|--------|--------|--------|--------|----------------|
E|--------|--------|--------|--------|--------|--------|--------|--------|----------------|


E|-------------12--12-----------|-------------12--12-----------|-------------12--12-----------|
B|---------------------10-------|---------------------10-------|---------------------10-------|
G|-----11-----------------------|-----11-----------------------|-----11-----------------------|
D|-12------12---------------12--|-12------12---------------12--|-12------12---------------12--|
A|------------------------------|------------------------------|------------------------------|
E|------------------------------|------------------------------|------------------------------|


E|-------------12--12-----------|-------------12--12-----------|-------------12--12-----------|
B|---------------------10-------|---------------------10-------|---------------------10-------|
G|-----11-----------------------|-----11-----------------------|-----11-----------------------|
D|-12------12---------------12--|-12------12---------------12--|-12------12---------------12--|
A|------------------------------|------------------------------|------------------------------|
E|------------------------------|------------------------------|------------------------------|


E|-------------12--12-----------|-------------12--12-----------|--------|--------|
B|---------------------10-------|---------------------12-------|--------|--------|
G|-----11-----------------------|-----13-----------------------|--------|--------|
D|-12------12---------------12--|-12------12---------------12--|--------|--------|
A|------------------------------|------------------------------|--------|--------|
E|------------------------------|------------------------------|--------|--------|


E|--------|--------|--------|--------|--------|--------|--------|--------|--------|
B|--------|--------|--------|--------|--------|--------|--------|--------|--------|
G|--------|--------|--------|--------|--------|--------|--------|--------|--------|
D|--------|--------|--------|--------|--------|--------|--------|--------|--------|
A|--------|--------|--------|--------|--------|--------|--------|--------|--------|
E|--------|--------|--------|--------|--------|--------|--------|--------|--------|


E|--------|--------|--------|--------|----------------|-------------12--12-----------|
B|--------|--------|--------|--------|----------------|---------------------10-------|
G|--------|--------|--------|--------|----------------|-----11-----------------------|
D|--------|--------|--------|--------|------------12--|-12------12---------------12--|
A|--------|--------|--------|--------|----------------|------------------------------|
E|--------|--------|--------|--------|----------------|------------------------------|


E|-------------12--12-----------|-------------12--12-----------|-------------12--12-----------|
B|---------------------10-------|---------------------10-------|---------------------10-------|
G|-----11-----------------------|-----11-----------------------|-----11-----------------------|
D|-12------12---------------12--|-12------12---------------12--|-12------12---------------12--|
A|------------------------------|------------------------------|------------------------------|
E|------------------------------|------------------------------|------------------------------|


E|-------------12--12-----------|-------------12--12-----------|-------------12--12-----------|
B|---------------------10-------|---------------------10-------|---------------------10-------|
G|-----11-----------------------|-----11-----------------------|-----11-----------------------|
D|-12------12---------------12--|-12------12---------------12--|-12------12---------------12--|
A|------------------------------|------------------------------|------------------------------|
E|------------------------------|------------------------------|------------------------------|


E|-------------12--12--------|----------------|------------------------|--------|---------------------------|
B|---------------------12----|----------------|------------------------|--------|---------------------------|
G|-----13--------------------|-----2---2------|-2-----2---2-------2----|-4------|-4-----4---4---2---2---4---|
D|-12------12----------------|-4--------------|---------------4--------|--------|-------5---5---4-----------|
A|---------------------------|----------------|------------------------|--------|---------------------------|
E|---------------------------|----------------|------------------------|--------|---------------------------|


E|----------------|------------------------|---------------------|-------------------|
B|----------------|------------------------|---------------------|-------------------|
G|-2------2-------|-2-----0---0------------|---------------------|-------------------|
D|-0------0---4---|---------------4----4---|-4---2-----2---0-----|-0-----0-----2--4--|
A|----------------|------------------------|---------------------|-------------------|
E|----------------|------------------------|---------------------|-------------------|


E|--------|-----------------------|-----------------|---------------------------------|
B|--------|-----------------------|-----------------|---------------------------------|
G|-2------|-2-----2---2---2---4---|-4-----4-----4---|-4---2---2---4---4-----------2---|
D|--------|-----------------------|-----------------|---------------------2---4-------|
A|--------|-----------------------|-----------------|---------------------------------|
E|--------|-----------------------|-----------------|---------------------------------|


E|-----------------|--------|----------------|---------------------------|-------------12--12-----------|
B|-----------------|--------|-0------0-------|-----0---0-----------------|---------------------10-------|
G|-2-----2---------|-2------|-1------1---2---|-2-----------1---1---------|-----11-----------------------|
D|-------------4---|--------|-2------2-------|-----------------------12--|-12------12---------------12--|
A|-----------------|--------|----------------|---------------------------|------------------------------|
E|-----------------|--------|----------------|---------------------------|------------------------------|


E|-------------12--12-----------|-------------12--12-----------|-------------12--12-----------|
B|---------------------10-------|---------------------10-------|---------------------10-------|
G|-----11-----------------------|-----11-----------------------|-----11-----------------------|
D|-12------12---------------12--|-12------12---------------12--|-12------12---------------12--|
A|------------------------------|------------------------------|------------------------------|
E|------------------------------|------------------------------|------------------------------|


E|-------------12--12-----------|-------------12--12-----------|-------------12--12-----------|
B|---------------------10-------|---------------------10-------|---------------------10-------|
G|-----11-----------------------|-----11-----------------------|-----11-----------------------|
D|-12------12---------------12--|-12------12---------------12--|-12------12---------------12--|
A|------------------------------|------------------------------|------------------------------|
E|------------------------------|------------------------------|------------------------------|


E|-------------12--12-----------|-------------12--12-----------|-------------12--12-----------|
B|---------------------12---15--|---------------------10-------|---------------------10-------|
G|-----13-----------------------|-----11-----------------------|-----11-----------------------|
D|-12------12-------------------|-12------12---------------12--|-12------12---------------12--|
A|------------------------------|------------------------------|------------------------------|
E|------------------------------|------------------------------|------------------------------|


E|-------------12--12-----------|-------------12--12--------|------------------------------|
B|---------------------12-------|-12------------------12----|------7---8---8---10--10--12--|
G|-----13-----------------------|-----13--13----------------|------------------------------|
D|-12------12---------------12--|---------------------------|------------------------------|
A|------------------------------|---------------------------|------------------------------|
E|------------------------------|---------------------------|------------------------------|


E|-----------------|--------------------------------|--------------------------------|
B|-12----12--12----|-15--14--12--14--14----12-14-12-|-10----8--10-8--7---5---5---7---|
G|-----------------|--------------------------------|--------------------------------|
D|-----------------|--------------------------------|--------------------------------|
A|-----------------|--------------------------------|--------------------------------|
E|-----------------|--------------------------------|--------------------------------|


E|------------------------------|------------------------|------------------------------|
B|-7----7---8---8---10--10--12--|-12----12--12---15--14--|-14--10---7---7---10--10--14--|
G|------------------------------|------------------------|------------------------------|
D|------------------------------|------------------------|------------------------------|
A|------------------------------|------------------------|------------------------------|
E|------------------------------|------------------------|------------------------------|


E|---------------------------------|------------------------------|------------------------------|
B|-14--14--14--12--12--------------|-14--14--14--12--12--14---14--|-14--14--14--12--12--10---7---|
G|---------------------14--14--14--|------------------------------|------------------------------|
D|---------------------------------|------------------------------|------------------------------|
A|---------------------------------|------------------------------|------------------------------|
E|---------------------------------|------------------------------|------------------------------|


E|-----------------------------------|-------------12--12-----------|-------------12--12-----------|
B|-7---5--7--5---3---5---7---5---3---|---------------------10-------|---------------------10-------|
G|-----------------------------------|-----11-----------------------|-----11-----------------------|
D|-----------------------------------|-12------12---------------12--|-12------12---------------12--|
A|-----------------------------------|------------------------------|------------------------------|
E|-----------------------------------|------------------------------|------------------------------|


E|-------------12--12-----------|-------------12--12-----------|-------------12--12-----------|
B|---------------------10-------|---------------------10-------|---------------------10-------|
G|-----11-----------------------|-----11-----------------------|-----11-----------------------|
D|-12------12---------------12--|-12------12---------------12--|-12------12---------------12--|
A|------------------------------|------------------------------|------------------------------|
E|------------------------------|------------------------------|------------------------------|


E|-------------12--12-----------|-------------12--12-----------|-------------12--12-----------|
B|---------------------10-------|---------------------10-------|---------------------10-------|
G|-----11-----------------------|-----11-----------------------|-----11-----------------------|
D|-12------12---------------12--|-12------12---------------12--|-12------12---------------12--|
A|------------------------------|------------------------------|------------------------------|
E|------------------------------|------------------------------|------------------------------|


E|-------------12--12-----------|-------------12--12-----------|-------------12--12-----------|
B|---------------------10-------|---------------------10-------|---------------------10-------|
G|-----11-----------------------|-----11-----------------------|-----11-----------------------|
D|-12------12---------------12--|-12------12---------------12--|-12------12---------------12--|
A|------------------------------|------------------------------|------------------------------|
E|------------------------------|------------------------------|------------------------------|


E|-------------12--12-----------|-------------12--12-----------|-------------12--12-----------|
B|---------------------10-------|---------------------10-------|---------------------10-------|
G|-----11-----------------------|-----11-----------------------|-----11-----------------------|
D|-12------12---------------12--|-12------12---------------12--|-12------12---------------12--|
A|------------------------------|------------------------------|------------------------------|
E|------------------------------|------------------------------|------------------------------|


E|----------12--12----------12--|-12-----------12--------------|-----------------------------------|
B|-----12-----------12----------|-----12-----------12--12------|-5---5---7---3---3---3---3---0--3--|
G|-13-------------------13------|----------13--------------13--|-----------------------------------|
D|------------------------------|------------------------------|-----------------------------------|
A|------------------------------|------------------------------|-----------------------------------|
E|------------------------------|------------------------------|-----------------------------------|


E|------------------------------|---------------------------------|------------------------------|
B|-5---5---7---3---3---3---3----|-5---5---7---3---3---3---3---3---|-3---2---2---0---0------------|
G|------------------------------|---------------------------------|---------------------2---2----|
D|------------------------------|---------------------------------|------------------------------|
A|------------------------------|---------------------------------|------------------------------|
E|------------------------------|---------------------------------|------------------------------|


E|-----------------------------------|------------------------------|---------------------------------|
B|-5---5---7---3---3---3---3---0--3--|-5---5---7---3---3---3---3----|-5---5---7---3---3---3---3---3---|
G|-----------------------------------|------------------------------|---------------------------------|
D|-----------------------------------|------------------------------|---------------------------------|
A|-----------------------------------|------------------------------|---------------------------------|
E|-----------------------------------|------------------------------|---------------------------------|


E|---------------------------------|-----------------------------------|------------------------------|
B|-3-----------3---3---5---5---5---|-5---5---7---3---3---3---3---0--3--|-5---5---7---3---3---3---3----|
G|-----6---6-----------------------|-----------------------------------|------------------------------|
D|---------------------------------|-----------------------------------|------------------------------|
A|---------------------------------|-----------------------------------|------------------------------|
E|---------------------------------|-----------------------------------|------------------------------|


E|---------------------------------|------------------------------|-----------------------------------|
B|-5---5---7---3---3---3---3---3---|-3---2---2---0---0------------|-5---5---7---3---3---3---3---0--3--|
G|---------------------------------|---------------------2---2----|-----------------------------------|
D|---------------------------------|------------------------------|-----------------------------------|
A|---------------------------------|------------------------------|-----------------------------------|
E|---------------------------------|------------------------------|-----------------------------------|


E|------------------------------|---------------------------------|---------------------------------|
B|-5---5---7---3---3---3---3----|-5---5---7---3---3---3---3---3---|-3-----------3---3---5---5---5---|
G|------------------------------|---------------------------------|-----6---6-----------------------|
D|------------------------------|---------------------------------|---------------------------------|
A|------------------------------|---------------------------------|---------------------------------|
E|------------------------------|---------------------------------|---------------------------------|


E|-----------------------------------|------------------------------|---------------------------------|
B|-5---5---7---3---3---3---3---0--3--|-5---5---7---3---3---3---3----|-5---5---7---3---3---3---3---3---|
G|-----------------------------------|------------------------------|---------------------------------|
D|-----------------------------------|------------------------------|---------------------------------|
A|-----------------------------------|------------------------------|---------------------------------|
E|-----------------------------------|------------------------------|---------------------------------|


E|------------------------------|-----------------------------------|------------------------------|
B|-3---2---2---0---0------------|-5---5---7---3---3---3---3---0--3--|-5---5---7---3---3---3---3----|
G|---------------------2---2----|-----------------------------------|------------------------------|
D|------------------------------|-----------------------------------|------------------------------|
A|------------------------------|-----------------------------------|------------------------------|
E|------------------------------|-----------------------------------|------------------------------|


E|---------------------------------|---------------------------------|
B|-5---5---7---3---3---3---3---3---|-3-----------3---3---5---5---5---|
G|---------------------------------|-----6---6-----------------------|
D|---------------------------------|---------------------------------|
A|---------------------------------|---------------------------------|
E|---------------------------------|---------------------------------|





Track 3: Edge Verse

E|--------|--------|--------|--------|--------|--------|--------|--------|--------|
B|--------|--------|--------|--------|--------|--------|--------|--------|--------|
G|--------|--------|--------|--------|--------|--------|--------|--------|--------|
D|--------|--------|--------|--------|--------|--------|--------|--------|--------|
A|--------|--------|--------|--------|--------|--------|--------|--------|--------|
E|--------|--------|--------|--------|--------|--------|--------|--------|--------|


E|--------|--------|--------|--------|--------|--------|--------|--------|----------------|
B|--------|--------|--------|--------|--------|--------|--------|--------|----------------|
G|--------|--------|--------|--------|--------|--------|--------|--------|-----2---2------|
D|--------|--------|--------|--------|--------|--------|--------|--------|-4--------------|
A|--------|--------|--------|--------|--------|--------|--------|--------|----------------|
E|--------|--------|--------|--------|--------|--------|--------|--------|----------------|


E|------------------------|--------|---------------------------|----------------|------------------------|
B|------------------------|--------|---------------------------|----------------|------------------------|
G|-2-----2---2-------2----|-4------|-4-----4---4---2---2---4---|-2------2-------|-2-----0---0------------|
D|---------------4--------|--------|-------5---5---4-----------|-0------0---4---|---------------4----4---|
A|------------------------|--------|---------------------------|----------------|------------------------|
E|------------------------|--------|---------------------------|----------------|------------------------|


E|---------------------|-------------------|--------|-----------------------|-----------------|
B|---------------------|-------------------|--------|-----------------------|-----------------|
G|---------------------|-------------------|-2------|-2-----2---2---2---4---|-4-----4-----4---|
D|-4---2-----2---0-----|-0-----0-----2--4--|--------|-----------------------|-----------------|
A|---------------------|-------------------|--------|-----------------------|-----------------|
E|---------------------|-------------------|--------|-----------------------|-----------------|


E|---------------------------------|-----------------|--------|----------------|---------------------------|
B|---------------------------------|-----------------|--------|-0------0-------|-----0---0-----------------|
G|-4---2---2---4---4-----------2---|-2-----2---------|-2------|-1------1---2---|-2-----------1---1---------|
D|---------------------2---4-------|-------------4---|--------|-2------2-------|---------------------------|
A|---------------------------------|-----------------|--------|----------------|---------------------------|
E|---------------------------------|-----------------|--------|----------------|---------------------------|


E|--------|--------|--------|--------|--------|--------|--------|--------|--------|
B|--------|--------|--------|--------|--------|--------|--------|--------|--------|
G|--------|--------|--------|--------|--------|--------|--------|--------|--------|
D|--------|--------|--------|--------|--------|--------|--------|--------|--------|
A|--------|--------|--------|--------|--------|--------|--------|--------|--------|
E|--------|--------|--------|--------|--------|--------|--------|--------|--------|


E|--------|--------|--------|--------|--------|--------|--------|--------|--------|
B|--------|--------|--------|--------|--------|--------|--------|--------|--------|
G|--------|--------|--------|--------|--------|--------|--------|--------|--------|
D|--------|--------|--------|--------|--------|--------|--------|--------|--------|
A|--------|--------|--------|--------|--------|--------|--------|--------|--------|
E|--------|--------|--------|--------|--------|--------|--------|--------|--------|


E|--------|--------|--------|--------|--------|--------|--------|--------|--------|
B|--------|--------|--------|--------|--------|--------|--------|--------|--------|
G|--------|--------|--------|--------|--------|--------|--------|--------|--------|
D|--------|--------|--------|--------|--------|--------|--------|--------|--------|
A|--------|--------|--------|--------|--------|--------|--------|--------|--------|
E|--------|--------|--------|--------|--------|--------|--------|--------|--------|


E|--------|--------|--------|--------|--------|--------|--------|--------|--------|
B|--------|--------|--------|--------|--------|--------|--------|--------|--------|
G|--------|--------|--------|--------|--------|--------|--------|--------|--------|
D|--------|--------|--------|--------|--------|--------|--------|--------|--------|
A|--------|--------|--------|--------|--------|--------|--------|--------|--------|
E|--------|--------|--------|--------|--------|--------|--------|--------|--------|


E|--------|--------|--------|--------|--------|--------|--------|--------|--------|
B|--------|--------|--------|--------|--------|--------|--------|--------|--------|
G|--------|--------|--------|--------|--------|--------|--------|--------|--------|
D|--------|--------|--------|--------|--------|--------|--------|--------|--------|
A|--------|--------|--------|--------|--------|--------|--------|--------|--------|
E|--------|--------|--------|--------|--------|--------|--------|--------|--------|


E|--------|--------|--------|--------|--------|--------|--------|--------|--------|
B|--------|--------|--------|--------|--------|--------|--------|--------|--------|
G|--------|--------|--------|--------|--------|--------|--------|--------|--------|
D|--------|--------|--------|--------|--------|--------|--------|--------|--------|
A|--------|--------|--------|--------|--------|--------|--------|--------|--------|
E|--------|--------|--------|--------|--------|--------|--------|--------|--------|


E|--------|--------|--------|--------|--------|--------|--------|--------|--------|
B|--------|--------|--------|--------|--------|--------|--------|--------|--------|
G|--------|--------|--------|--------|--------|--------|--------|--------|--------|
D|--------|--------|--------|--------|--------|--------|--------|--------|--------|
A|--------|--------|--------|--------|--------|--------|--------|--------|--------|
E|--------|--------|--------|--------|--------|--------|--------|--------|--------|


E|--------|--------|--------|--------|--------|--------|--------|--------|--------|
B|--------|--------|--------|--------|--------|--------|--------|--------|--------|
G|--------|--------|--------|--------|--------|--------|--------|--------|--------|
D|--------|--------|--------|--------|--------|--------|--------|--------|--------|
A|--------|--------|--------|--------|--------|--------|--------|--------|--------|
E|--------|--------|--------|--------|--------|--------|--------|--------|--------|


E|--------|--------|--------|--------|--------|--------|--------|--------|--------|
B|--------|--------|--------|--------|--------|--------|--------|--------|--------|
G|--------|--------|--------|--------|--------|--------|--------|--------|--------|
D|--------|--------|--------|--------|--------|--------|--------|--------|--------|
A|--------|--------|--------|--------|--------|--------|--------|--------|--------|
E|--------|--------|--------|--------|--------|--------|--------|--------|--------|


E|--------|--------|--------|--------|--------|--------|
B|--------|--------|--------|--------|--------|--------|
G|--------|--------|--------|--------|--------|--------|
D|--------|--------|--------|--------|--------|--------|
A|--------|--------|--------|--------|--------|--------|
E|--------|--------|--------|--------|--------|--------|





Track 4: Piano

E|--------|--------|--------|--------|--------|--------|--------|--------|--------|
B|--------|--------|--------|--------|--------|--------|--------|--------|--------|
G|--------|--------|--------|--------|--------|--------|--------|--------|--------|
D|--------|--------|--------|--------|--------|--------|--------|--------|--------|
A|--------|--------|--------|--------|--------|--------|--------|--------|--------|
E|--------|--------|--------|--------|--------|--------|--------|--------|--------|


E|--------|--------|--------|--------|--------|--------|--------|--------|--------|
B|--------|--------|--------|--------|--------|--------|--------|--------|--------|
G|--------|--------|--------|--------|--------|--------|--------|--------|--------|
D|--------|--------|--------|--------|--------|--------|--------|--------|--------|
A|--------|--------|--------|--------|--------|--------|--------|--------|--------|
E|--------|--------|--------|--------|--------|--------|--------|--------|--------|


E|--------|--------|-------------|--------|--------|--------|--------|--------|--------|
B|--------|--------|-------------|--------|--------|--------|--------|--------|--------|
G|--------|--------|-------------|--------|--------|--------|--------|--------|--------|
D|--------|--------|-------------|--------|--------|--------|--------|--------|--------|
A|--------|--------|-------------|--------|--------|--------|--------|--------|--------|
E|--------|--------|-------------|--------|--------|--------|--------|--------|--------|


E|--------|--------|--------|--------|--------|--------|--------|--------|--------|
B|--------|--------|--------|--------|--------|--------|--------|--------|--------|
G|--------|--------|--------|--------|--------|--------|--------|--------|--------|
D|--------|--------|--------|--------|--------|--------|--------|--------|--------|
A|--------|--------|--------|--------|--------|--------|--------|--------|--------|
E|--------|--------|--------|--------|--------|--------|--------|--------|--------|


E|--------|--------|--------|--------|--------|--------|--------|--------|--------|
B|--------|--------|--------|--------|--------|--------|--------|--------|--------|
G|--------|--------|--------|--------|--------|--------|--------|--------|--------|
D|--------|--------|--------|--------|--------|--------|--------|--------|--------|
A|--------|--------|--------|--------|--------|--------|--------|--------|--------|
E|--------|--------|--------|--------|--------|--------|--------|--------|--------|


E|--------|--------|--------|--------|--------|--------|--------|--------|--------|
B|--------|--------|--------|--------|--------|--------|--------|--------|--------|
G|--------|--------|--------|--------|--------|--------|--------|--------|--------|
D|--------|--------|--------|--------|--------|--------|--------|--------|--------|
A|--------|--------|--------|--------|--------|--------|--------|--------|--------|
E|--------|--------|--------|--------|--------|--------|--------|--------|--------|


E|--------|--------|--------|--------|--------|--------|--------|--------|--------|
B|--------|--------|--------|--------|--------|--------|--------|--------|--------|
G|--------|--------|--------|--------|--------|--------|--------|--------|--------|
D|--------|--------|--------|--------|--------|--------|--------|--------|--------|
A|--------|--------|--------|--------|--------|--------|--------|--------|--------|
E|--------|--------|--------|--------|--------|--------|--------|--------|--------|


E|--------|--------|--------|--------|--------|--------|--------|--------|--------|
B|--------|--------|--------|--------|--------|--------|--------|--------|--------|
G|--------|--------|--------|--------|--------|--------|--------|--------|--------|
D|--------|--------|--------|--------|--------|--------|--------|--------|--------|
A|--------|--------|--------|--------|--------|--------|--------|--------|--------|
E|--------|--------|--------|--------|--------|--------|--------|--------|--------|


E|--------|--------|--------|--------|--------|--------|--------|--------|--------|
B|--------|--------|--------|--------|--------|--------|--------|--------|--------|
G|--------|--------|--------|--------|--------|--------|--------|--------|--------|
D|--------|--------|--------|--------|--------|--------|--------|--------|--------|
A|--------|--------|--------|--------|--------|--------|--------|--------|--------|
E|--------|--------|--------|--------|--------|--------|--------|--------|--------|


E|--------|--------|--------|--------|--------|--------|--------|--------|--------|
B|--------|--------|--------|--------|--------|--------|--------|--------|--------|
G|--------|--------|--------|--------|--------|--------|--------|--------|--------|
D|--------|--------|--------|--------|--------|--------|--------|--------|--------|
A|--------|--------|--------|--------|--------|--------|--------|--------|--------|
E|--------|--------|--------|--------|--------|--------|--------|--------|--------|


E|--------|--------|--------|--------|--------|--------|--------|--------|--------|
B|--------|--------|--------|--------|--------|--------|--------|--------|--------|
G|--------|--------|--------|--------|--------|--------|--------|--------|--------|
D|--------|--------|--------|--------|--------|--------|--------|--------|--------|
A|--------|--------|--------|--------|--------|--------|--------|--------|--------|
E|--------|--------|--------|--------|--------|--------|--------|--------|--------|


E|--------|--------|--------|--------|--------|--------|--------|--------|--------|
B|--------|--------|--------|--------|--------|--------|--------|--------|--------|
G|--------|--------|--------|--------|--------|--------|--------|--------|--------|
D|--------|--------|--------|--------|--------|--------|--------|--------|--------|
A|--------|--------|--------|--------|--------|--------|--------|--------|--------|
E|--------|--------|--------|--------|--------|--------|--------|--------|--------|


E|--------|--------|--------|--------|--------|--------|--------|--------|--------|
B|--------|--------|--------|--------|--------|--------|--------|--------|--------|
G|--------|--------|--------|--------|--------|--------|--------|--------|--------|
D|--------|--------|--------|--------|--------|--------|--------|--------|--------|
A|--------|--------|--------|--------|--------|--------|--------|--------|--------|
E|--------|--------|--------|--------|--------|--------|--------|--------|--------|


E|--------|--------|--------|
B|--------|--------|--------|
G|--------|--------|--------|
D|--------|--------|--------|
A|--------|--------|--------|
E|--------|--------|--------|





Track 5: Rhythm Guitar (electric)

E|--------|--------|--------|--------|--------|--------|--------|--------|--------|
B|--------|--------|--------|--------|--------|--------|--------|--------|--------|
G|--------|--------|--------|--------|--------|--------|--------|--------|--------|
D|--------|--------|--------|--------|--------|--------|--------|--------|--------|
A|--------|--------|--------|--------|--------|--------|--------|--------|--------|
E|--------|--------|--------|--------|--------|--------|--------|--------|--------|


E|--------|--------|--------|--------|--------|--------|--------|--------|--------|
B|--------|--------|--------|--------|--------|--------|--------|--------|--------|
G|--------|--------|--------|--------|--------|--------|--------|--------|--------|
D|--------|--------|--------|--------|--------|--------|--------|--------|--------|
A|--------|--------|--------|--------|--------|--------|--------|--------|--------|
E|--------|--------|--------|--------|--------|--------|--------|--------|--------|


E|--------|--------|----------------2--2--|-2------|--------|--------|----------------2--2--|
B|--------|--------|----------------3--3--|-3------|--------|--------|----------------3--3--|
G|--------|--------|----------------2--2--|-2------|--------|--------|----------------2--2--|
D|--------|--------|----------------0--0--|-0------|--------|--------|----------------0--0--|
A|--------|--------|----------------------|--------|--------|--------|----------------------|
E|--------|--------|----------------------|--------|--------|--------|----------------------|


E|-2------|--------|--------|----------------2--2--|-2------|--------|--------|--------|
B|-3------|--------|--------|----------------3--3--|-3------|--------|--------|--------|
G|-2------|--------|--------|----------------2--2--|-2------|--------|--------|--------|
D|-0------|--------|--------|----------------0--0--|-0------|--------|--------|--------|
A|--------|--------|--------|----------------------|--------|--------|--------|--------|
E|--------|--------|--------|----------------------|--------|--------|--------|--------|


E|--------|--------|--------|--------|--------|--------|--------|--------|--------|
B|--------|--------|--------|--------|--------|--------|--------|--------|--------|
G|--------|--------|--------|--------|--------|--------|--------|--------|--------|
D|--------|--------|--------|--------|--------|--------|--------|--------|--------|
A|--------|--------|--------|--------|--------|--------|--------|--------|--------|
E|--------|--------|--------|--------|--------|--------|--------|--------|--------|


E|--------|--------|----------------2--2--|-2------|--------|--------|----------------2--2--|
B|--------|--------|----------------3--3--|-3------|--------|--------|----------------3--3--|
G|--------|--------|----------------2--2--|-2------|--------|--------|----------------2--2--|
D|--------|--------|----------------0--0--|-0------|--------|--------|----------------0--0--|
A|--------|--------|----------------------|--------|--------|--------|----------------------|
E|--------|--------|----------------------|--------|--------|--------|----------------------|


E|-2------|--------|--------|----------------2--2--|-2------|--------|--------|--------|
B|-3------|--------|--------|----------------3--3--|-3------|--------|--------|--------|
G|-2------|--------|--------|----------------2--2--|-2------|--------|--------|--------|
D|-0------|--------|--------|----------------0--0--|-0------|--------|--------|--------|
A|--------|--------|--------|----------------------|--------|--------|--------|--------|
E|--------|--------|--------|----------------------|--------|--------|--------|--------|


E|--------|--------|--------|--------|--------|--------|--------|--------|--------|
B|--------|--------|--------|--------|--------|--------|--------|--------|--------|
G|--------|--------|--------|--------|--------|--------|--------|--------|--------|
D|--------|--------|--------|--------|--------|--------|--------|--------|--------|
A|--------|--------|--------|--------|--------|--------|--------|--------|--------|
E|--------|--------|--------|--------|--------|--------|--------|--------|--------|


E|--------|--------|--------|--------|--------|--------|--------|--------|--------|
B|--------|--------|--------|--------|--------|--------|--------|--------|--------|
G|--------|--------|--------|--------|--------|--------|--------|--------|--------|
D|--------|--------|--------|--------|--------|--------|--------|--------|--------|
A|--------|--------|--------|--------|--------|--------|--------|--------|--------|
E|--------|--------|--------|--------|--------|--------|--------|--------|--------|


E|--------|--------|--------|--------|--------|--------|--------|--------|--------|
B|--------|--------|--------|--------|--------|--------|--------|--------|--------|
G|--------|--------|--------|--------|--------|--------|--------|--------|--------|
D|--------|--------|--------|--------|--------|--------|--------|--------|--------|
A|--------|--------|--------|--------|--------|--------|--------|--------|--------|
E|--------|--------|--------|--------|--------|--------|--------|--------|--------|


E|--------|--------|--------|--------|--------|--------|--------|--------|--------|
B|--------|--------|--------|--------|--------|--------|--------|--------|--------|
G|--------|--------|--------|--------|--------|--------|--------|--------|--------|
D|--------|--------|--------|--------|--------|--------|--------|--------|--------|
A|--------|--------|--------|--------|--------|--------|--------|--------|--------|
E|--------|--------|--------|--------|--------|--------|--------|--------|--------|


E|--------|--------|--------|--------|--------|--------|--------|--------|--------|
B|--------|--------|--------|--------|--------|--------|--------|--------|--------|
G|--------|--------|--------|--------|--------|--------|--------|--------|--------|
D|--------|--------|--------|--------|--------|--------|--------|--------|--------|
A|--------|--------|--------|--------|--------|--------|--------|--------|--------|
E|--------|--------|--------|--------|--------|--------|--------|--------|--------|


E|--------|--------|--------|--------|--------|--------|--------|--------|--------|
B|--------|--------|--------|--------|--------|--------|--------|--------|--------|
G|--------|--------|--------|--------|--------|--------|--------|--------|--------|
D|--------|--------|--------|--------|--------|--------|--------|--------|--------|
A|--------|--------|--------|--------|--------|--------|--------|--------|--------|
E|--------|--------|--------|--------|--------|--------|--------|--------|--------|


E|--------|--------|--------|--------|--------|--------|--------|--------|--------|
B|--------|--------|--------|--------|--------|--------|--------|--------|--------|
G|--------|--------|--------|--------|--------|--------|--------|--------|--------|
D|--------|--------|--------|--------|--------|--------|--------|--------|--------|
A|--------|--------|--------|--------|--------|--------|--------|--------|--------|
E|--------|--------|--------|--------|--------|--------|--------|--------|--------|





Track 6: Piano

E|--------|--------|--------|--------|--------|--------|--------|--------|--------|
B|--------|--------|--------|--------|--------|--------|--------|--------|--------|
G|--------|--------|--------|--------|--------|--------|--------|--------|--------|
D|--------|--------|--------|--------|--------|--------|--------|--------|--------|
A|--------|--------|--------|--------|--------|--------|--------|--------|--------|
E|--------|--------|--------|--------|--------|--------|--------|--------|--------|


E|--------|--------|--------|--------|--------|--------|--------|--------|--------|
B|--------|--------|--------|--------|--------|--------|--------|--------|--------|
G|--------|--------|--------|--------|--------|--------|--------|--------|--------|
D|--------|--------|--------|--------|--------|--------|--------|--------|--------|
A|--------|--------|--------|--------|--------|--------|--------|--------|--------|
E|--------|--------|--------|--------|--------|--------|--------|--------|--------|


E|--------|--------|--------|--------|--------|--------|--------|--------|--------|
B|--------|--------|--------|--------|--------|--------|--------|--------|--------|
G|--------|--------|--------|--------|--------|--------|--------|--------|--------|
D|--------|--------|--------|--------|--------|--------|--------|--------|--------|
A|--------|--------|--------|--------|--------|--------|--------|--------|--------|
E|--------|--------|--------|--------|--------|--------|--------|--------|--------|


E|--------|--------|--------|--------|--------|--------|--------|--------|--------|
B|--------|--------|--------|--------|--------|--------|--------|--------|--------|
G|--------|--------|--------|--------|--------|--------|--------|--------|--------|
D|--------|--------|--------|--------|--------|--------|--------|--------|--------|
A|--------|--------|--------|--------|--------|--------|--------|--------|--------|
E|--------|--------|--------|--------|--------|--------|--------|--------|--------|


E|--------|--------|--------|--------|--------|--------|--------|--------|-------------|
B|--------|--------|--------|--------|--------|--------|--------|--------|-------------|
G|--------|--------|--------|--------|--------|--------|--------|--------|-------------|
D|--------|--------|--------|--------|--------|--------|--------|--------|-------------|
A|--------|--------|--------|--------|--------|--------|--------|--------|-------------|
E|--------|--------|--------|--------|--------|--------|--------|--------|-------------|


E|--------|--------|--------|--------|--------|--------|--------|--------|--------|
B|--------|--------|--------|--------|--------|--------|--------|--------|--------|
G|--------|--------|--------|--------|--------|--------|--------|--------|--------|
D|--------|--------|--------|--------|--------|--------|--------|--------|--------|
A|--------|--------|--------|--------|--------|--------|--------|--------|--------|
E|--------|--------|--------|--------|--------|--------|--------|--------|--------|


E|--------|--------|--------|--------|--------|--------|--------|--------|--------|
B|--------|--------|--------|--------|--------|--------|--------|--------|--------|
G|--------|--------|--------|--------|--------|--------|--------|--------|--------|
D|--------|--------|--------|--------|--------|--------|--------|--------|--------|
A|--------|--------|--------|--------|--------|--------|--------|--------|--------|
E|--------|--------|--------|--------|--------|--------|--------|--------|--------|


E|--------|--------|--------|--------|--------|--------|--------|--------|--------|
B|--------|--------|--------|--------|--------|--------|--------|--------|--------|
G|--------|--------|--------|--------|--------|--------|--------|--------|--------|
D|--------|--------|--------|--------|--------|--------|--------|--------|--------|
A|--------|--------|--------|--------|--------|--------|--------|--------|--------|
E|--------|--------|--------|--------|--------|--------|--------|--------|--------|


E|--------|--------|--------|--------|--------|--------|--------|--------|--------|
B|--------|--------|--------|--------|--------|--------|--------|--------|--------|
G|--------|--------|--------|--------|--------|--------|--------|--------|--------|
D|--------|--------|--------|--------|--------|--------|--------|--------|--------|
A|--------|--------|--------|--------|--------|--------|--------|--------|--------|
E|--------|--------|--------|--------|--------|--------|--------|--------|--------|


E|--------|--------|--------|--------|--------|--------|--------|--------|--------|
B|--------|--------|--------|--------|--------|--------|--------|--------|--------|
G|--------|--------|--------|--------|--------|--------|--------|--------|--------|
D|--------|--------|--------|--------|--------|--------|--------|--------|--------|
A|--------|--------|--------|--------|--------|--------|--------|--------|--------|
E|--------|--------|--------|--------|--------|--------|--------|--------|--------|


E|--------|--------|--------|--------|--------|--------|--------|--------|--------|
B|--------|--------|--------|--------|--------|--------|--------|--------|--------|
G|--------|--------|--------|--------|--------|--------|--------|--------|--------|
D|--------|--------|--------|--------|--------|--------|--------|--------|--------|
A|--------|--------|--------|--------|--------|--------|--------|--------|--------|
E|--------|--------|--------|--------|--------|--------|--------|--------|--------|


E|--------|--------|--------|--------|--------|--------|--------|--------|--------|
B|--------|--------|--------|--------|--------|--------|--------|--------|--------|
G|--------|--------|--------|--------|--------|--------|--------|--------|--------|
D|--------|--------|--------|--------|--------|--------|--------|--------|--------|
A|--------|--------|--------|--------|--------|--------|--------|--------|--------|
E|--------|--------|--------|--------|--------|--------|--------|--------|--------|


E|--------|--------|--------|--------|--------|--------|--------|--------|--------|
B|--------|--------|--------|--------|--------|--------|--------|--------|--------|
G|--------|--------|--------|--------|--------|--------|--------|--------|--------|
D|--------|--------|--------|--------|--------|--------|--------|--------|--------|
A|--------|--------|--------|--------|--------|--------|--------|--------|--------|
E|--------|--------|--------|--------|--------|--------|--------|--------|--------|


E|--------|--------|--------|
B|--------|--------|--------|
G|--------|--------|--------|
D|--------|--------|--------|
A|--------|--------|--------|
E|--------|--------|--------|





Track 7: Adam

G|--------|--------|--------|--------|--------|--------|--------|--------|--------|
D|--------|--------|--------|--------|--------|--------|--------|--------|--------|
A|--------|--------|--------|--------|--------|--------|--------|--------|--------|
E|--------|--------|--------|--------|--------|--------|--------|--------|--------|


G|---------------------------|---------------------------|---------------------------|
D|---------------------------|---------------------------|---------------------------|
A|-5---5---5---5----5---5----|---------------------------|---------------------------|
E|---------------------------|-5---5---5---5----5---5----|-3---3---3---3----3---3----|


G|---------------------------|---------------------------|---------------------------|
D|---------------------------|---------------------------|---------------------------|
A|-7---7---7---7----7---7----|-5---5---5---5----5---5----|---------------------------|
E|---------------------------|---------------------------|-5---5---5---5----5---5----|


G|---------------------------|---------------------------|---------------------------|
D|---------------------------|-2---2---2---2----2---2----|---------------------------|
A|---------------------------|---------------------------|-5---5---5---5----5---5----|
E|-3---3---3---3----3---3----|---------------------------|---------------------------|


G|---------------------------|---------------------------|---------------------------|
D|---------------------------|---------------------------|---------------------------|
A|---------------------------|---------------------------|---------------------------|
E|-5---5---5---5----5---5----|-3---3---3---3----3---3----|-0---0---0---0----0---0----|


G|---------------------------|---------------------------|---------------------------|
D|---------------------------|---------------------------|---------------------------|
A|-5---5---5---5----5---5----|---------------------------|---------------------------|
E|---------------------------|-5---5---5---5----5---5----|-3---3---3---3----3---3----|


G|---------------------------|---------------------------|---------------------------|
D|---------------------------|---------------------------|---------------------------|
A|---------------------------|-5---5---5---5----5---5----|---------------------------|
E|-0---0---0---0----0---0----|---------------------------|-5---5---5---5----5---5----|


G|---------------------------|---------------------------|---------------------------|
D|---------------------------|---------------------------|---------------------------|
A|---------------------------|---------------------------|-5---5---5---5----5---5----|
E|-3---3---3---3----3---3----|-0---0---0---0----0---0----|---------------------------|


G|---------------------------|---------------------------|---------------------------|
D|---------------------------|---------------------------|---------------------------|
A|---------------------------|-7---7---7---7----7---7----|-7---7---7---7----7---7----|
E|-5---5---5---5----5---5----|---------------------------|---------------------------|


G|---------------------------|---------------------------|---------------------------|
D|---------------------------|---------------------------|---------------------------|
A|-5---5---5---5----5---5----|---------------------------|---------------------------|
E|---------------------------|-5---5---5---5----5---5----|-3---3---3---3----3---3----|


G|---------------------------|---------------------------|---------------------------|
D|---------------------------|---------------------------|---------------------------|
A|-7---7---7---7----7---7----|-5---5---5---5----5---5----|---------------------------|
E|---------------------------|---------------------------|-5---5---5---5----5---5----|


G|---------------------------|---------------------------|---------------------------|
D|-5---5---5---5----5---5----|-2---2---2---2----2---2----|---------------------------|
A|---------------------------|---------------------------|-5---5---5---5----5---5----|
E|---------------------------|---------------------------|---------------------------|


G|---------------------------|---------------------------|---------------------------|
D|---------------------------|---------------------------|---------------------------|
A|---------------------------|---------------------------|---------------------------|
E|-5---5---5---5----5---5----|-3---3---3---3----3---3----|-0---0---0---0----0---0----|


G|---------------------------|---------------------------|---------------------------|
D|---------------------------|---------------------------|---------------------------|
A|-5---5---5---5----5---5----|---------------------------|---------------------------|
E|---------------------------|-5---5---5---5----5---5----|-3---3---3---3----3---3----|


G|---------------------------|---------------------------|---------------------------|
D|---------------------------|---------------------------|---------------------------|
A|---------------------------|-5---5---5---5----5---5----|---------------------------|
E|-0---0---0---0----0---0----|---------------------------|-5---5---5---5----5---5----|


G|---------------------------|---------------------------|---------------------------|
D|---------------------------|---------------------------|---------------------------|
A|---------------------------|---------------------------|-5---5---5---5----5---5----|
E|-3---3---3---3----3---3----|-0---0---0---0----0---0----|---------------------------|


G|---------------------------|---------------------------|---------------------------|
D|---------------------------|---------------------------|---------------------------|
A|---------------------------|---------------------------|---------------------------|
E|-5---5---5---5----5---5----|-0---0---0---0----0---0----|-0---0---0---0----0---0----|


G|---------------------------|---------------------------|---------------------------|
D|---------------------------|---------------------------|---------------------------|
A|-5---5---5---5----5---5----|---------------------------|---------------------------|
E|---------------------------|-5---5---5---5----5---5----|-3---3---3---3----3---3----|


G|---------------------------|---------------------------|---------------------------|
D|---------------------------|---------------------------|---------------------------|
A|-7---7---7---7----7---7----|-5---5---5---5----5---5----|---------------------------|
E|---------------------------|---------------------------|-5---5---5---5----5---5----|


G|---------------------------|---------------------------|---------------------------|
D|---------------------------|---------------------------|---------------------------|
A|---------------------------|-7---7---7---7----7---7----|-5---5---5---5----5---5----|
E|-3---3---3---3----3---3----|---------------------------|---------------------------|


G|---------------------------------|---------------------------------|---------------------------------|
D|-7---7---7---7---7---7---7---7---|---------------------------------|---------------------------------|
A|---------------------------------|---------------------------------|---------------------------------|
E|---------------------------------|-5---5---5---5---5---5---5---5---|-5---5---5---5---5---5---5---5---|


G|------------------------|------------------------|---------------------------|------------------------|
D|------------------------|------------------------|---------------------------|-7-----7---7----7---7---|
A|-2-----2---2----0---0---|------------------------|---------------------------|------------------------|
E|------------------------|-3-----3----3---2---2---|-0-----0---0---0---0---0---|------------------------|


G|------------------------|------------------------|---------------------------|---------------------------|
D|------------------------|------------------------|---------------------------|---------------------------|
A|-2-----2---2----0---0---|------------------------|---------------------------|-12----12--12--12--12--12--|
E|------------------------|-3-----3----3---2---2---|-0-----0---0---0---0---0---|---------------------------|


G|---------------------------|---------------------------|---------------------------------|
D|---------------------------|-----------------------12--|---------------------------------|
A|-12----12--12--12--12--12--|-12----12--12--12--12------|-12--12--12--12--12--12--12--12--|
E|---------------------------|---------------------------|---------------------------------|


G|---------------------------|-6---6---6---6----6---6----|---------------------------|
D|-12--12--12--12---12--12---|---------------------------|---------------------------|
A|---------------------------|---------------------------|---------------------------|
E|---------------------------|---------------------------|-3---3---3---3----3---3----|


G|---------------------------|---------------------------|-6---6---6---6----6---6----|
D|---------------------------|-12--12--12--12---12--12---|---------------------------|
A|---------------------------|---------------------------|---------------------------|
E|-3---3---3---3----3---3----|---------------------------|---------------------------|


G|---------------------------|---------------------------|---------------------------|
D|---------------------------|---------------------------|-12--12--12--12---12--12---|
A|---------------------------|---------------------------|---------------------------|
E|-3---3---3---3----3---3----|-3---3---3---3----3---3----|---------------------------|


G|-6---6---6---6----6---6----|---------------------------|---------------------------------|
D|---------------------------|---------------------------|---------------------------------|
A|---------------------------|-7---7---7---7----7---7----|-7---7---7---7---7---7---7---7---|
E|---------------------------|---------------------------|---------------------------------|


G|---------------------------|---------------------------|---------------------------|
D|-12--12--12--12---12--12---|---------------------------|---------------------------|
A|---------------------------|---------------------------|-7---7---7---7----7---7----|
E|---------------------------|-5---5---5---5----5---5----|---------------------------|


G|---------------------------------|---------------------------|---------------------------|
D|---------------------------------|---------------------------|-5---5---5---5----5---5----|
A|-7---7---7---7---7---7---7---7---|---------------------------|---------------------------|
E|---------------------------------|-0---0---0---0----0---0----|---------------------------|


G|-7---7---7---7----7---7----|---------------------------------|---------------------------|
D|---------------------------|-7---7---7---7---7---7---7---7---|---------------------------|
A|---------------------------|---------------------------------|---------------------------|
E|---------------------------|---------------------------------|-0---0---0---0----0---0----|


G|---------------------------|-7---7---7---7----7---7----|---------------------------------|
D|-5---5---5---5----5---5----|---------------------------|-7---7---7---7---7---7---7---7---|
A|---------------------------|---------------------------|---------------------------------|
E|---------------------------|---------------------------|---------------------------------|


G|---------------------------|---------------------------|-7---7---7---7----7---7----|
D|---------------------------|-5---5---5---5----5---5----|---------------------------|
A|---------------------------|---------------------------|---------------------------|
E|-0---0---0---0----0---0----|---------------------------|---------------------------|


G|---------------------------------|---------------------------|---------------------------|
D|-7---7---7---7---7---7---7---7---|---------------------------|-5---5---5---5----5---5----|
A|---------------------------------|---------------------------|---------------------------|
E|---------------------------------|-0---0---0---0----0---0----|---------------------------|


G|-7---7---7---7----7---7----|---------------------------------|---------------------------|
D|---------------------------|-7---7---7---7---7---7---7---7---|---------------------------|
A|---------------------------|---------------------------------|---------------------------|
E|---------------------------|---------------------------------|-0---0---0---0----0---0----|


G|---------------------------|-7---7---7---7----7---7----|---------------------------------|
D|-5---5---5---5----5---5----|---------------------------|-7---7---7---7---7---7---7---7---|
A|---------------------------|---------------------------|---------------------------------|
E|---------------------------|---------------------------|---------------------------------|


G|---------------------------|---------------------------|-7---7---7---7----7---7----|
D|---------------------------|-5---5---5---5----5---5----|---------------------------|
A|---------------------------|---------------------------|---------------------------|
E|-0---0---0---0----0---0----|---------------------------|---------------------------|


G|---------------------------------|
D|-7---7---7---7---7---7---7---7---|
A|---------------------------------|
E|---------------------------------|