Site menu:

    

Browse: 0-9 A B C D E F G H I J K L N O P Q R S T U V W X Y Z

u2 - vertigo:



Title: Vertigo
Artist: 
Album: How To Dismantle An Atomic Bomb
Author: U2


Track 1: Guitar

E|--------|--------|--------|--------|---------------------------------|------------------------------|
B|--------|--------|--------|--------|---------------------------------|------------------------------|
G|--------|--------|--------|--------|-7---9---9---7---9---9---7---9---|------------------------------|
D|--------|--------|--------|--------|-7---9---9---7---9---9---7---9---|-----7---7---7---7---6---5----|
A|--------|--------|--------|--------|-5---7---7---5---7---7---5---7---|-----7---7---7---7---6---5----|
E|--------|--------|--------|--------|---------------------------------|-----5---5---5---5---4---3----|


E|---------------------------------|------------------------------|---------------------------------|
B|---------------------------------|------------------------------|---------------------------------|
G|-7---9---9---7---9---9---7---9---|------------------------------|-7---9---9---7---9---9---7---9---|
D|-7---9---9---7---9---9---7---9---|-----7---7---7---7---6---5----|-7---9---9---7---9---9---7---9---|
A|-5---7---7---5---7---7---5---7---|-----7---7---7---7---6---5----|-5---7---7---5---7---7---5---7---|
E|---------------------------------|-----5---5---5---5---4---3----|---------------------------------|


E|------------------------------|---------------------------------|------------------------------|
B|------------------------------|---------------------------------|------------------------------|
G|------------------------------|-7---9---9---7---9---9---7---9---|------------------------------|
D|-----7---7---7---7---6---5----|-7---9---9---7---9---9---7---9---|-----7---7---7---7---6---5----|
A|-----7---7---7---7---6---5----|-5---7---7---5---7---7---5---7---|-----7---7---7---7---6---5----|
E|-----5---5---5---5---4---3----|---------------------------------|-----5---5---5---5---4---3----|


E|--------|--------|--------|--------|--------|--------|--------|--------|---------------------------|
B|--------|--------|--------|--------|--------|--------|--------|--------|---------------------------|
G|--------|--------|--------|--------|--------|--------|--------|--------|-9----9----9---9---9---9---|
D|--------|--------|--------|--------|--------|--------|--------|--------|-9----9----9---9---9---9---|
A|--------|--------|--------|--------|--------|--------|--------|--------|-7----7----7---7---7---7---|
E|--------|--------|--------|--------|--------|--------|--------|--------|---------------------------|


E|---------------------------|---------------------------|---------------------------|
B|---------------------------|---------------------------|---------------------------|
G|-----7---7----7---7---7----|---------------------------|---------------------------|
D|-----7---7----7---7---7----|-5----5----5---5---5---5---|-----7---7----7---7---7----|
A|-----5---5----5---5---5----|-5----5----5---5---5---5---|-----7---7----7---7---7----|
E|---------------------------|-3----3----3---3---3---3---|-----5---5----5---5---5----|


E|---------------------------|---------------------------|---------------------------|
B|---------------------------|---------------------------|---------------------------|
G|-9----9----9---9---9---9---|-----7---7----7---7---7----|---------------------------|
D|-9----9----9---9---9---9---|-----7---7----7---7---7----|-5----5----5---5---5---5---|
A|-7----7----7---7---7---7---|-----5---5----5---5---5----|-5----5----5---5---5---5---|
E|---------------------------|---------------------------|-3----3----3---3---3---3---|


E|---------------------------|---------------------------------|------------------------------|
B|---------------------------|---------------------------------|------------------------------|
G|---------------------------|-7---9---9---7---9---9---7---9---|------------------------------|
D|-----7---7----7---7---7----|-7---9---9---7---9---9---7---9---|-----7---7---7---7---6---5----|
A|-----7---7----7---7---7----|-5---7---7---5---7---7---5---7---|-----7---7---7---7---6---5----|
E|-----5---5----5---5---5----|---------------------------------|-----5---5---5---5---4---3----|


E|---------------------------------|------------------------------|--------|--------|
B|---------------------------------|------------------------------|--------|--------|
G|-7---9---9---7---9---9---7---9---|------------------------------|--------|--------|
D|-7---9---9---7---9---9---7---9---|-----7---7---7---7---6---5----|--------|--------|
A|-5---7---7---5---7---7---5---7---|-----7---7---7---7---6---5----|--------|--------|
E|---------------------------------|-----5---5---5---5---4---3----|--------|--------|


E|--------|--------|--------|--------|--------|--------|-12-------10---9---10------|
B|--------|--------|--------|--------|--------|--------|------12---------------12--|
G|--------|--------|--------|--------|--------|--------|---------------------------|
D|--------|--------|--------|--------|--------|--------|---------------------------|
A|--------|--------|--------|--------|--------|--------|---------------------------|
E|--------|--------|--------|--------|--------|--------|---------------------------|


E|-12-------10---9---10------|-12-------10---9---10------|-12-------10---9---10------|
B|------12---------------12--|------12---------------12--|------12---------------12--|
G|---------------------------|---------------------------|---------------------------|
D|---------------------------|---------------------------|---------------------------|
A|---------------------------|---------------------------|---------------------------|
E|---------------------------|---------------------------|---------------------------|


E|-12-------10---9---10------|-12-------10---9---10------|-12-------10---9---10------|
B|------12---------------12--|------12---------------12--|------12---------------12--|
G|---------------------------|---------------------------|---------------------------|
D|---------------------------|---------------------------|---------------------------|
A|---------------------------|---------------------------|---------------------------|
E|---------------------------|---------------------------|---------------------------|


E|-12-------10---9---10------|---------------------------|---------------------------|
B|------12---------------12--|---------------------------|---------------------------|
G|---------------------------|-9----9----9---9---9---9---|-----7---7----7---7---7----|
D|---------------------------|-9----9----9---9---9---9---|-----7---7----7---7---7----|
A|---------------------------|-7----7----7---7---7---7---|-----5---5----5---5---5----|
E|---------------------------|---------------------------|---------------------------|


E|---------------------------|---------------------------|---------------------------|
B|---------------------------|---------------------------|---------------------------|
G|---------------------------|---------------------------|-9----9----9---9---9---9---|
D|-5----5----5---5---5---5---|-----7---7----7---7---7----|-9----9----9---9---9---9---|
A|-5----5----5---5---5---5---|-----7---7----7---7---7----|-7----7----7---7---7---7---|
E|-3----3----3---3---3---3---|-----5---5----5---5---5----|---------------------------|


E|---------------------------|---------------------------|---------------------------|
B|---------------------------|---------------------------|---------------------------|
G|-----7---7----7---7---7----|---------------------------|---------------------------|
D|-----7---7----7---7---7----|-5----5----5---5---5---5---|-----7---7----7---7---7----|
A|-----5---5----5---5---5----|-5----5----5---5---5---5---|-----7---7----7---7---7----|
E|---------------------------|-3----3----3---3---3---3---|-----5---5----5---5---5----|


E|---------------------------------|------------------------------|---------------------------------|
B|---------------------------------|------------------------------|---------------------------------|
G|-7---9---9---7---9---9---7---9---|------------------------------|-7---9---9---7---9---9---7---9---|
D|-7---9---9---7---9---9---7---9---|-----7---7---7---7---6---5----|-7---9---9---7---9---9---7---9---|
A|-5---7---7---5---7---7---5---7---|-----7---7---7---7---6---5----|-5---7---7---5---7---7---5---7---|
E|---------------------------------|-----5---5---5---5---4---3----|---------------------------------|


E|------------------------------|---------------------------------|---------------------------------|
B|------------------------------|---------------------------------|---------------------------------|
G|------------------------------|-14--12--12----------------------|---------------------------------|
D|-----7---7---7---7---6---5----|-14--12--12--12--12--12--7---7---|-7---7---7---7---7---7---7---7---|
A|-----7---7---7---7---6---5----|-12--10--10--12--12--12--7---7---|-7---7---7---7---7---7---7---7---|
E|-----5---5---5---5---4---3----|-------------10--10--10--5---5---|-5---5---5---5---5---5---5---5---|


E|---------------------------------|---------------------------------|---------------------------------|
B|---------------------------------|---------------------------------|---------------------------------|
G|-12--12--12----------------------|---------------------------------|-12--12--12----------------------|
D|-12--12--12--12--12--12--7---7---|-7---7---7---7---7---7---7---7---|-12--12--12--12--12--12--7---7---|
A|-10--10--10--12--12--12--7---7---|-7---7---7---7---7---7---7---7---|-10--10--10--12--12--12--7---7---|
E|-------------10--10--10--5---5---|-5---5---5---5---5---5---5---5---|-------------10--10--10--5---5---|


E|---------------------------------|---------------------------------|------------------------------|
B|---------------------------------|---------------------------------|------------------------------|
G|---------------------------------|-7---9---9---7---9---9---7---9---|------------------------------|
D|-7---7---7---7---7---7---7---7---|-7---9---9---7---9---9---7---9---|-----7---7---7---7---6---5----|
A|-7---7---7---7---7---7---7---7---|-5---7---7---5---7---7---5---7---|-----7---7---7---7---6---5----|
E|-5---5---5---5---5---5---5---5---|---------------------------------|-----5---5---5---5---4---3----|


E|---------------------------------|------------------------------|---------------------------------|
B|---------------------------------|------------------------------|---------------------------------|
G|-7---9---9---7---9---9---7---9---|------------------------------|-7---9---9---7---9---9---7---9---|
D|-7---9---9---7---9---9---7---9---|-----7---7---7---7---6---5----|-7---9---9---7---9---9---7---9---|
A|-5---7---7---5---7---7---5---7---|-----7---7---7---7---6---5----|-5---7---7---5---7---7---5---7---|
E|---------------------------------|-----5---5---5---5---4---3----|---------------------------------|


E|------------------------------|---------------------------------|------------------------------|
B|------------------------------|---------------------------------|------------------------------|
G|------------------------------|-7---9---9---7---9---9---7---9---|------------------------------|
D|-----7---7---7---7---6---5----|-7---9---9---7---9---9---7---9---|-----7---7---7---7---6---5----|
A|-----7---7---7---7---6---5----|-5---7---7---5---7---7---5---7---|-----7---7---7---7---6---5----|
E|-----5---5---5---5---4---3----|---------------------------------|-----5---5---5---5---4---3----|


E|--------|--------|--------|--------|--------|--------|--------|--------|---------------------------|
B|--------|--------|--------|--------|--------|--------|--------|--------|---------------------------|
G|--------|--------|--------|--------|--------|--------|--------|--------|-9----9----9---9---9---9---|
D|--------|--------|--------|--------|--------|--------|--------|--------|-9----9----9---9---9---9---|
A|--------|--------|--------|--------|--------|--------|--------|--------|-7----7----7---7---7---7---|
E|--------|--------|--------|--------|--------|--------|--------|--------|---------------------------|


E|---------------------------|---------------------------|---------------------------|
B|---------------------------|---------------------------|---------------------------|
G|-----7---7----7---7---7----|---------------------------|---------------------------|
D|-----7---7----7---7---7----|-5----5----5---5---5---5---|-----7---7----7---7---7----|
A|-----5---5----5---5---5----|-5----5----5---5---5---5---|-----7---7----7---7---7----|
E|---------------------------|-3----3----3---3---3---3---|-----5---5----5---5---5----|


E|---------------------------|---------------------------|---------------------------|
B|---------------------------|---------------------------|---------------------------|
G|-9----9----9---9---9---9---|-----7---7----7---7---7----|---------------------------|
D|-9----9----9---9---9---9---|-----7---7----7---7---7----|-5----5----5---5---5---5---|
A|-7----7----7---7---7---7---|-----5---5----5---5---5----|-5----5----5---5---5---5---|
E|---------------------------|---------------------------|-3----3----3---3---3---3---|


E|---------------------------|---------------------------|---------------------------|
B|---------------------------|---------------------------|---------------------------|
G|---------------------------|-9----9----9---9---9---9---|-----7---7----7---7---7----|
D|-----7---7----7---7---7----|-9----9----9---9---9---9---|-----7---7----7---7---7----|
A|-----7---7----7---7---7----|-7----7----7---7---7---7---|-----5---5----5---5---5----|
E|-----5---5----5---5---5----|---------------------------|---------------------------|


E|---------------------------|---------------------------|---------------------------|
B|---------------------------|---------------------------|---------------------------|
G|---------------------------|---------------------------|-9----9----9---9---9---9---|
D|-5----5----5---5---5---5---|-----7---7----7---7---7----|-9----9----9---9---9---9---|
A|-5----5----5---5---5---5---|-----7---7----7---7---7----|-7----7----7---7---7---7---|
E|-3----3----3---3---3---3---|-----5---5----5---5---5----|---------------------------|


E|---------------------------|---------------------------|---------------------------|
B|---------------------------|---------------------------|---------------------------|
G|-----7---7----7---7---7----|---------------------------|---------------------------|
D|-----7---7----7---7---7----|-5----5----5---5---5---5---|-----7---7----7---7---7----|
A|-----5---5----5---5---5----|-5----5----5---5---5---5---|-----7---7----7---7---7----|
E|---------------------------|-3----3----3---3---3---3---|-----5---5----5---5---5----|


E|---------------------------------|------------------------------|---------------------------------|
B|---------------------------------|------------------------------|---------------------------------|
G|-7---9---9---7---9---9---7---9---|------------------------------|-7---9---9---7---9---9---7---9---|
D|-7---9---9---7---9---9---7---9---|-----7---7---7---7---6---5----|-7---9---9---7---9---9---7---9---|
A|-5---7---7---5---7---7---5---7---|-----7---7---7---7---6---5----|-5---7---7---5---7---7---5---7---|
E|---------------------------------|-----5---5---5---5---4---3----|---------------------------------|


E|------------------------------|---------------------------------|------------------------------|
B|------------------------------|---------------------------------|------------------------------|
G|------------------------------|-7---9---9---7---9---9---7---9---|------------------------------|
D|-----7---7---7---7---6---5----|-7---9---9---7---9---9---7---9---|-----7---7---7---7---6---5----|
A|-----7---7---7---7---6---5----|-5---7---7---5---7---7---5---7---|-----7---7---7---7---6---5----|
E|-----5---5---5---5---4---3----|---------------------------------|-----5---5---5---5---4---3----|


E|---------------------------------|------------------------------|--------|
B|---------------------------------|------------------------------|--------|
G|-7---9---9---7---9---9---7---9---|------------------------------|-9------|
D|-7---9---9---7---9---9---7---9---|-----7---7---7---7---6---5----|-9------|
A|-5---7---7---5---7---7---5---7---|-----7---7---7---7---6---5----|-7------|
E|---------------------------------|-----5---5---5---5---4---3----|--------|





Track 2: Plingy things

E|--------|--------|--------|--------|--------|--------|--------|--------|--------|
B|--------|--------|--------|--------|--------|--------|--------|--------|--------|
G|--------|--------|--------|--------|--------|--------|--------|--------|--------|
D|--------|--------|--------|--------|--------|--------|--------|--------|--------|
A|--------|--------|--------|--------|--------|--------|--------|--------|--------|
E|--------|--------|--------|--------|--------|--------|--------|--------|--------|


E|--------|--------|--------|--------|--------|--------|--------|--------|--------|
B|--------|--------|--------|--------|--------|--------|--------|--------|--------|
G|--------|--------|--------|--------|--------|--------|--------|--------|--------|
D|--------|--------|--------|--------|--------|--------|--------|--------|--------|
A|--------|--------|--------|--------|--------|--------|--------|--------|--------|
E|--------|--------|--------|--------|--------|--------|--------|--------|--------|


E|--------|--------|--------|--------|--------|--------|--------|--------|--------|
B|--------|--------|--------|--------|--------|--------|--------|--------|--------|
G|--------|--------|--------|--------|--------|--------|--------|--------|--------|
D|--------|--------|--------|--------|--------|--------|--------|--------|--------|
A|--------|--------|--------|--------|--------|--------|--------|--------|--------|
E|--------|--------|--------|--------|--------|--------|--------|--------|--------|


E|--------|--------|--------|--------|--------|--------|--------|--------|--------|
B|--------|--------|--------|--------|--------|--------|--------|--------|--------|
G|--------|--------|--------|--------|--------|--------|--------|--------|--------|
D|--------|--------|--------|--------|--------|--------|--------|--------|--------|
A|--------|--------|--------|--------|--------|--------|--------|--------|--------|
E|--------|--------|--------|--------|--------|--------|--------|--------|--------|


E|--------|--------|--------|--------|--------|--------|--------|--------|--------|
B|--------|--------|--------|--------|--------|--------|--------|--------|--------|
G|--------|--------|--------|--------|--------|--------|--------|--------|--------|
D|--------|--------|--------|--------|--------|--------|--------|--------|--------|
A|--------|--------|--------|--------|--------|--------|--------|--------|--------|
E|--------|--------|--------|--------|--------|--------|--------|--------|--------|


E|--------|--------|--------|--------|--------|--------|--------|--------|--------|
B|--------|--------|--------|--------|--------|--------|--------|--------|--------|
G|--------|--------|--------|--------|--------|--------|--------|--------|--------|
D|--------|--------|--------|--------|--------|--------|--------|--------|--------|
A|--------|--------|--------|--------|--------|--------|--------|--------|--------|
E|--------|--------|--------|--------|--------|--------|--------|--------|--------|


E|--------|--------|--------|--------|--------|--------|--------|--------|--------|
B|--------|--------|--------|--------|--------|--------|--------|--------|--------|
G|--------|--------|--------|--------|--------|--------|--------|--------|--------|
D|--------|--------|--------|--------|--------|--------|--------|--------|--------|
A|--------|--------|--------|--------|--------|--------|--------|--------|--------|
E|--------|--------|--------|--------|--------|--------|--------|--------|--------|


E|--------|--------|--------|-12--12--12---5---5---5----|-4---4---4----2---2---2----|
B|--------|--------|--------|---------------------------|---------------------------|
G|--------|--------|--------|---------------------------|---------------------------|
D|--------|--------|--------|---------------------------|---------------------------|
A|--------|--------|--------|---------------------------|---------------------------|
E|--------|--------|--------|---------------------------|---------------------------|


E|-12--12--12---5---5---5----|-4---4---4---4---2---2---2---2---|-12--12--12---5---5---5----|
B|---------------------------|---------------------------------|---------------------------|
G|---------------------------|---------------------------------|---------------------------|
D|---------------------------|---------------------------------|---------------------------|
A|---------------------------|---------------------------------|---------------------------|
E|---------------------------|---------------------------------|---------------------------|


E|-4---4---4----2---2---2----|-12--12--12---5---5---5----|-4---4---4---4---2---2---2---2---|
B|---------------------------|---------------------------|---------------------------------|
G|---------------------------|---------------------------|---------------------------------|
D|---------------------------|---------------------------|---------------------------------|
A|---------------------------|---------------------------|---------------------------------|
E|---------------------------|---------------------------|---------------------------------|


E|--------|--------|--------|--------|--------|--------|--------|--------|--------|
B|--------|--------|--------|--------|--------|--------|--------|--------|--------|
G|--------|--------|--------|--------|--------|--------|--------|--------|--------|
D|--------|--------|--------|--------|--------|--------|--------|--------|--------|
A|--------|--------|--------|--------|--------|--------|--------|--------|--------|
E|--------|--------|--------|--------|--------|--------|--------|--------|--------|


E|--------|--------|--------|--------|--------|--------|--------|--------|--------|
B|--------|--------|--------|--------|--------|--------|--------|--------|--------|
G|--------|--------|--------|--------|--------|--------|--------|--------|--------|
D|--------|--------|--------|--------|--------|--------|--------|--------|--------|
A|--------|--------|--------|--------|--------|--------|--------|--------|--------|
E|--------|--------|--------|--------|--------|--------|--------|--------|--------|


E|--------|--------|--------|--------|--------|--------|--------|--------|--------|
B|--------|--------|--------|--------|--------|--------|--------|--------|--------|
G|--------|--------|--------|--------|--------|--------|--------|--------|--------|
D|--------|--------|--------|--------|--------|--------|--------|--------|--------|
A|--------|--------|--------|--------|--------|--------|--------|--------|--------|
E|--------|--------|--------|--------|--------|--------|--------|--------|--------|


E|--------|--------|--------|--------|--------|--------|
B|--------|--------|--------|--------|--------|--------|
G|--------|--------|--------|--------|--------|--------|
D|--------|--------|--------|--------|--------|--------|
A|--------|--------|--------|--------|--------|--------|
E|--------|--------|--------|--------|--------|--------|





Track 3: Harmonics

E|--------|--------|--------|--------|--------|--------|--------|--------|--------|
B|--------|--------|--------|--------|--------|--------|--------|--------|--------|
G|--------|--------|--------|--------|--------|--------|--------|--------|--------|
D|--------|--------|--------|--------|--------|--------|--------|--------|--------|
A|--------|--------|--------|--------|--------|--------|--------|--------|--------|
E|--------|--------|--------|--------|--------|--------|--------|--------|--------|


E|--------|--------|--------|--------|--------|--------|--------|--------|--------|
B|--------|--------|--------|--------|--------|--------|--------|--------|--------|
G|--------|--------|--------|--------|--------|--------|--------|--------|--------|
D|--------|--------|--------|--------|--------|--------|--------|--------|--------|
A|--------|--------|--------|--------|--------|--------|--------|--------|--------|
E|--------|--------|--------|--------|--------|--------|--------|--------|--------|


E|--------|--------|--------|--------|--------|--------|--------|--------|--------|
B|--------|--------|--------|--------|--------|--------|--------|--------|--------|
G|--------|--------|--------|--------|--------|--------|--------|--------|--------|
D|--------|--------|--------|--------|--------|--------|--------|--------|--------|
A|--------|--------|--------|--------|--------|--------|--------|--------|--------|
E|--------|--------|--------|--------|--------|--------|--------|--------|--------|


E|--------|--------|--------|--------|--------|--------|--------|--------|--------|
B|--------|--------|--------|--------|--------|--------|--------|--------|--------|
G|--------|--------|--------|--------|--------|--------|--------|--------|--------|
D|--------|--------|--------|--------|--------|--------|--------|--------|--------|
A|--------|--------|--------|--------|--------|--------|--------|--------|--------|
E|--------|--------|--------|--------|--------|--------|--------|--------|--------|


E|--------|--------|--------|--------|--------|--------|--------|--------|--------|
B|--------|--------|--------|--------|--------|--------|--------|--------|--------|
G|--------|--------|--------|--------|--------|--------|--------|--------|--------|
D|--------|--------|--------|--------|--------|--------|--------|--------|--------|
A|--------|--------|--------|--------|--------|--------|--------|--------|--------|
E|--------|--------|--------|--------|--------|--------|--------|--------|--------|


E|--------|--------|--------|--------|--------|--------|--------|--------|--------|
B|--------|--------|--------|--------|--------|--------|--------|--------|--------|
G|--------|--------|--------|--------|--------|--------|--------|--------|--------|
D|--------|--------|--------|--------|--------|--------|--------|--------|--------|
A|--------|--------|--------|--------|--------|--------|--------|--------|--------|
E|--------|--------|--------|--------|--------|--------|--------|--------|--------|


E|--------|--------|--------|--------|--------|--------|--------|--------|--------|
B|--------|--------|--------|--------|--------|--------|--------|--------|--------|
G|--------|--------|--------|--------|--------|--------|--------|--------|--------|
D|--------|--------|--------|--------|--------|--------|--------|--------|--------|
A|--------|--------|--------|--------|--------|--------|--------|--------|--------|
E|--------|--------|--------|--------|--------|--------|--------|--------|--------|


E|--------|--------|--------|--------|--------|--------|--------|--------|--------|
B|--------|--------|--------|--------|--------|--------|--------|--------|--------|
G|--------|--------|--------|--------|--------|--------|--------|--------|--------|
D|--------|--------|--------|--------|--------|--------|--------|--------|--------|
A|--------|--------|--------|--------|--------|--------|--------|--------|--------|
E|--------|--------|--------|--------|--------|--------|--------|--------|--------|


E|--------|--------|---------19-----|--------|----------------|--------|---------19-----|
B|--------|--------|-----19---------|--------|---------22-----|--------|-----19---------|
G|--------|--------|-19-------------|--------|-----21---------|--------|-19-------------|
D|--------|--------|----------------|--------|-21-------------|--------|----------------|
A|--------|--------|----------------|--------|----------------|--------|----------------|
E|--------|--------|----------------|--------|----------------|--------|----------------|


E|--------|----------------|----------------|--------|--------|--------|--------|--------|
B|--------|---------22-----|---------20-----|--------|--------|--------|--------|--------|
G|--------|-----21---------|-----19---------|--------|--------|--------|--------|--------|
D|--------|-21-------------|-19-------------|--------|--------|--------|--------|--------|
A|--------|----------------|----------------|--------|--------|--------|--------|--------|
E|--------|----------------|----------------|--------|--------|--------|--------|--------|


E|--------|--------|--------|--------|--------|--------|--------|--------|--------|
B|--------|--------|--------|--------|--------|--------|--------|--------|--------|
G|--------|--------|--------|--------|--------|--------|--------|--------|--------|
D|--------|--------|--------|--------|--------|--------|--------|--------|--------|
A|--------|--------|--------|--------|--------|--------|--------|--------|--------|
E|--------|--------|--------|--------|--------|--------|--------|--------|--------|


E|--------|--------|--------|--------|--------|--------|--------|--------|--------|
B|--------|--------|--------|--------|--------|--------|--------|--------|--------|
G|--------|--------|--------|--------|--------|--------|--------|--------|--------|
D|--------|--------|--------|--------|--------|--------|--------|--------|--------|
A|--------|--------|--------|--------|--------|--------|--------|--------|--------|
E|--------|--------|--------|--------|--------|--------|--------|--------|--------|


E|--------|--------|
B|--------|--------|
G|--------|--------|
D|--------|--------|
A|--------|--------|
E|--------|--------|





Track 4: Untitled

G|--------|--------|--------|--------|---------------------------------|------------------------------|
D|--------|--------|--------|--------|-0---2---2---0---2---2---0---2---|------------------------------|
A|--------|--------|--------|--------|---------------------------------|-----0---0---0---0------------|
E|--------|--------|--------|--------|---------------------------------|---------------------4---3----|


G|---------------------------------|------------------------------|---------------------------------|
D|-0---2---2---0---2---2---0---2---|------------------------------|-0---2---2---0---2---2---0---2---|
A|---------------------------------|-----0---0---0---0------------|---------------------------------|
E|---------------------------------|---------------------4---3----|---------------------------------|


G|------------------------------|---------------------------------|------------------------------|
D|------------------------------|-0---2---2---0---2---2---0---2---|------------------------------|
A|-----0---0---0---0------------|---------------------------------|-----0---0---0---0------------|
E|---------------------4---3----|---------------------------------|---------------------4---3----|


G|---------------------------------|------------------------------|---------------------------------|
D|-0---2---2---0---2---2---0---2---|------------------------------|-0---2---2---0---2---2---0---2---|
A|---------------------------------|-----0---0---0---0------------|---------------------------------|
E|---------------------------------|---------------------4---3----|---------------------------------|


G|------------------------------|---------------------------------|------------------------------|
D|------------------------------|-0---2---2---0---2---2---0---2---|------------------------------|
A|-----0---0---0---0------------|---------------------------------|-----0---0---0---0------------|
E|---------------------4---3----|---------------------------------|---------------------4---3----|


G|---------------------------------|------------------------------|---------------------------|
D|-0---2---2---0---2---2---0---2---|------------------------------|---------------------------|
A|---------------------------------|-----0---0---0---0------------|-7----7----7---7---7---7---|
E|---------------------------------|---------------------4---3----|---------------------------|


G|---------------------------|---------------------------|---------------------------|
D|---------------------------|---------------------------|---------------------------|
A|-5---5---5----5---5---5----|---------------------------|-0---0---0----0---0---0----|
E|---------------------------|-3----3----3---3---3---3---|---------------------------|


G|---------------------------|---------------------------|---------------------------|
D|---------------------------|---------------------------|---------------------------|
A|-7----7----7---7---7---7---|-5---5---5----5---5---5----|---------------------------|
E|---------------------------|---------------------------|-3----3----3---3---3---3---|


G|---------------------------|---------------------------------|------------------------------|
D|---------------------------|-0---2---2---0---2---2---0---2---|------------------------------|
A|-0---0---0----0---0---0----|---------------------------------|-----0---0---0---0------------|
E|---------------------------|---------------------------------|---------------------4---3----|


G|---------------------------------|------------------------------|---------------------------------|
D|-0---2---2---0---2---2---0---2---|------------------------------|-0---2---2---0---2---2---0---2---|
A|---------------------------------|-----0---0---0---0------------|---------------------------------|
E|---------------------------------|---------------------4---3----|---------------------------------|


G|------------------------------|---------------------------------|------------------------------|
D|------------------------------|-0---2---2---0---2---2---0---2---|------------------------------|
A|-----0---0---0---0------------|---------------------------------|-----0---0---0---0------------|
E|---------------------4---3----|---------------------------------|---------------------4---3----|


G|---------------------------------|------------------------------|---------------------------------|
D|-0---2---2---0---2---2---0---2---|------------------------------|-0---2---2---0---2---2---0---2---|
A|---------------------------------|-----0---0---0---0------------|---------------------------------|
E|---------------------------------|---------------------4---3----|---------------------------------|


G|------------------------------|---------------------------------|------------------------------|
D|------------------------------|-0---2---2---0---2---2---0---2---|------------------------------|
A|-----0---0---0---0------------|---------------------------------|-----0---0---0---0------------|
E|---------------------4---3----|---------------------------------|---------------------4---3----|


G|---------------------------------|------------------------------|---------------------------------|
D|-0---2---2---0---2---2---0---2---|------------------------------|-0---2---2---0---2---2---0---2---|
A|---------------------------------|-----0---0---0---0------------|---------------------------------|
E|---------------------------------|---------------------4---3----|---------------------------------|


G|------------------------------|---------------------------------|------------------------------|
D|------------------------------|-0---2---2---0---2---2---0---2---|------------------------------|
A|-----0---0---0---0------------|---------------------------------|-----0---0---0---0------------|
E|---------------------4---3----|---------------------------------|---------------------4---3----|


G|---------------------------|---------------------------|---------------------------|
D|---------------------------|---------------------------|---------------------------|
A|-7----7----7---7---7---7---|-5---5---5----5---5---5----|---------------------------|
E|---------------------------|---------------------------|-3----3----3---3---3---3---|


G|---------------------------|---------------------------|---------------------------|
D|---------------------------|---------------------------|---------------------------|
A|-0---0---0----0---0---0----|-7----7----7---7---7---7---|-5---5---5----5---5---5----|
E|---------------------------|---------------------------|---------------------------|


G|---------------------------|---------------------------|---------------------------------|
D|---------------------------|---------------------------|-0---2---2---0---2---2---0---2---|
A|---------------------------|-0---0---0----0---0---0----|---------------------------------|
E|-3----3----3---3---3---3---|---------------------------|---------------------------------|


G|------------------------------|---------------------------------|------------------------------|
D|------------------------------|-0---2---2---0---2---2---0---2---|------------------------------|
A|-----0---0---0---0------------|---------------------------------|-----0---0---0---0------------|
E|---------------------4---3----|---------------------------------|---------------------4---3----|


G|---------------------------------|---------------------------------|---------------------------------|
D|---------------------------------|---------------------------------|---------------------------------|
A|-12--12--12--5---5---5---0---0---|-0---0---0---0---0---0---0---0---|-12--12--12--5---5---5---0---0---|
E|---------------------------------|---------------------------------|---------------------------------|


G|---------------------------------|---------------------------------|---------------------------------|
D|---------------------------------|---------------------------------|---------------------------------|
A|-0---0---0---0---0---0---0---0---|-12--12--12--5---5---5---0---0---|-0---0---0---0---0---0---0---0---|
E|---------------------------------|---------------------------------|---------------------------------|


G|---------------------------------|------------------------------|---------------------------------|
D|-0---2---2---0---2---2---0---2---|------------------------------|-0---2---2---0---2---2---0---2---|
A|---------------------------------|-----0---0---0---0------------|---------------------------------|
E|---------------------------------|---------------------4---3----|---------------------------------|


G|------------------------------|---------------------------------|------------------------------|
D|------------------------------|-0---2---2---0---2---2---0---2---|------------------------------|
A|-----0---0---0---0------------|---------------------------------|-----0---0---0---0------------|
E|---------------------4---3----|---------------------------------|---------------------4---3----|


G|---------------------------------|------------------------------|---------------------------|
D|-0---2---2---0---2---2---0---2---|------------------------------|---------------------------|
A|---------------------------------|-----0---0---0---0------------|-5---7---7----5---7---7----|
E|---------------------------------|---------------------4---3----|---------------------------|


G|---------------------------|---------------------------|---------------------------|
D|---------------------------|---------------------------|---------------------------|
A|-5---7---7----5---7---7----|-5---7---7----5---7---7----|-5---7---7----5---7---7----|
E|---------------------------|---------------------------|---------------------------|


G|---------------------------|---------------------------|---------------------------|
D|---------------------------|---------------------------|---------------------------|
A|-5---7---7----5---7---7----|-5---7---7----5---7---7----|-5---7---7----5---7---7----|
E|---------------------------|---------------------------|---------------------------|


G|--------|---------------------------|---------------------------|---------------------------|
D|--------|---------------------------|---------------------------|---------------------------|
A|--------|-7----7----7---7---7---7---|-5---5---5----5---5---5----|---------------------------|
E|--------|---------------------------|---------------------------|-3----3----3---3---3---3---|


G|---------------------------|---------------------------|---------------------------|
D|---------------------------|---------------------------|---------------------------|
A|-0---0---0----0---0---0----|-7----7----7---7---7---7---|-5---5---5----5---5---5----|
E|---------------------------|---------------------------|---------------------------|


G|---------------------------|---------------------------|---------------------------|
D|---------------------------|---------------------------|---------------------------|
A|---------------------------|-0---0---0----0---0---0----|-7----7----7---7---7---7---|
E|-3----3----3---3---3---3---|---------------------------|---------------------------|


G|---------------------------|---------------------------|---------------------------|
D|---------------------------|---------------------------|---------------------------|
A|-5---5---5----5---5---5----|---------------------------|-0---0---0----0---0---0----|
E|---------------------------|-3----3----3---3---3---3---|---------------------------|


G|---------------------------|---------------------------|---------------------------|
D|---------------------------|---------------------------|---------------------------|
A|-7----7----7---7---7---7---|-5---5---5----5---5---5----|---------------------------|
E|---------------------------|---------------------------|-3----3----3---3---3---3---|


G|---------------------------|---------------------------------|------------------------------|
D|---------------------------|-0---2---2---0---2---2---0---2---|------------------------------|
A|-0---0---0----0---0---0----|---------------------------------|-----0---0---0---0------------|
E|---------------------------|---------------------------------|---------------------4---3----|


G|---------------------------------|------------------------------|---------------------------------|
D|-0---2---2---0---2---2---0---2---|------------------------------|-0---2---2---0---2---2---0---2---|
A|---------------------------------|-----0---0---0---0------------|---------------------------------|
E|---------------------------------|---------------------4---3----|---------------------------------|


G|------------------------------|---------------------------------|------------------------------|
D|------------------------------|-0---2---2---0---2---2---0---2---|------------------------------|
A|-----0---0---0---0------------|---------------------------------|-----0---0---0---0------------|
E|---------------------4---3----|---------------------------------|---------------------4---3----|


G|--------|
D|--------|
A|--------|
E|--------|