Site menu:

    

Browse: 0-9 A B C D E F G H I J K L N O P Q R S T U V W X Y Z

u2 - the fly:



Title: The Fly
Artist: 
Album: Achtung Baby
Author: U2


Track 1: Guitar 1 w/dist + delay

E|----------------------------------|--------------------|-------------------------------------|
B|----------------------------------|--------------------|-------------------------------------|
G|----------------------------------|--------------------|-------------------------------------|
D|----------------------------------|--------------------|-------------------------------------|
A|-7---7---5-------7--5-----7-------|----------------9---|-----7---7---7--7-----7--7---7---5---|
E|-------------0---------0----------|--------------------|-0-----------------------------------|


E|-------------------------------------|-------------------------------------|-------------------------------------|
B|-------------------------------------|-------------------------------------|-------------------------------------|
G|-------------------------------------|-------------------------------------|-------------------------------------|
D|-------------------------------------|-------------------------------------|-------------------------------------|
A|-----7---7---7--7-----7--7---7---5---|-----7---7---7--7-----7--7---7---5---|-----7---7---7--7-----7--7---7---5---|
E|-0-----------------------------------|-0-----------------------------------|-0-----------------------------------|


E|-------------------------------------|-------------------------------------|-------------------------------------|
B|-------------------------------------|-------------------------------------|-------------------------------------|
G|-------------------------------------|-------------------------------------|-------------------------------------|
D|-------------------------------------|-------------------------------------|-------------------------------------|
A|-----7---7---7--7-----7--7---7---5---|-----7---7---7--7-----7--7---7---5---|-----7---7---7--7-----7--7---7---5---|
E|-0-----------------------------------|-0-----------------------------------|-0-----------------------------------|


E|-------------------------------------|-------------------------------------|----------------------------------|
B|-------------------------------------|-------------------------------------|----------------------------------|
G|-------------------------------------|-------------------------------------|----------------------------------|
D|-------------------------------------|-------------------------------------|----------------------------------|
A|-----7---7---7--7-----7--7---7---5---|-----7---7---7--7-----7--7---7---5---|-----7---7---7--7-----7--7---7----|
E|-0-----------------------------------|-0-----------------------------------|-0--------------------------------|


E|--------|-----------------|--------|-----------------------|-------------|-----------------------------|
B|--------|------------12---|-12-----|---------------12-14---|-12----------|-----------12-12-12-12-12-12-|
G|--------|------------12---|-12-----|-----------12----------|-12----------|-----------12-12-12-12-12-12-|
D|--------|------------12---|-12-----|-----------------------|-------------|-----------------------------|
A|--------|-----------------|--------|-----------------------|-------------|-----------------------------|
E|--------|-----------------|--------|-----------------------|-------------|-----------------------------|


E|-----------------|--------------------|-------------------------------------|-------------------------------------|
B|-12----12--------|--------------------|-------------------------------------|-------------------------------------|
G|-12----12--------|--------------------|-------------------------------------|-------------------------------------|
D|-----------------|--------------------|-------------------------------------|-------------------------------------|
A|-----------------|---------------9----|-----7---7------7--------7---5---5---|-----7---7---7--7-----7--7---7---5---|
E|-----------------|------------0-------|-------------0--------5--------------|-------------------------------------|


E|-------------------------------------|-------------------------------------|-------------------------------------|
B|-------------------------------------|-------------------------------------|-------------------------------------|
G|-------------------------------------|-------------------------------------|-------------------------------------|
D|-------------------------------------|-----------------------------5-------|-------------------------------------|
A|-----7---7---7--7-----7--7---7---5---|-----7---7---7--7-----7--7-------7---|-----7---7---7--7-----7--7---7---5---|
E|-0-----------------------------------|-0-----------------------------------|-0-----------------------------------|


E|-------------------------------------|-------------------------------------|-------------------------------------|
B|-------------------------------------|-------------------------------------|-------------------------------------|
G|-------------------------------------|-------------------------------------|-------------------------------------|
D|-------------------------------------|-------------------------------------|-------------------------------------|
A|-----7---7------7-----0--5---7---9---|---------7---7--7-----7--7---7---5---|-----7---7---7--7-----7--7---7---7---|
E|-0-----------0-----------------------|-----0-------------------------------|-0-----------------------------------|


E|--------|--------|--------|--------|--------|--------|--------|--------|----------7---7-----|
B|--------|--------|--------|--------|--------|--------|--------|--------|----------7---7-----|
G|--------|--------|--------|--------|--------|--------|--------|--------|----------7---7-----|
D|--------|--------|--------|--------|--------|--------|--------|--------|----------7---7-----|
A|--------|--------|--------|--------|--------|--------|--------|--------|----------7---7-----|
E|--------|--------|--------|--------|--------|--------|--------|--------|----------7---7-----|


E|------------0---0--0--|----------7---7-----|-7---------------|-----------------------------|
B|------------0---0--0--|----------7---7-----|-7---------------|---------------0---0---------|
G|------------0---0--0--|----------7---7-----|-7---------------|---------------0---0---------|
D|------------0---0--0--|----------7---7-----|-7---------------|---------------2---2---------|
A|----------------------|----------7---7-----|-7---------------|---------------2---2---10----|
E|----------------------|----------7---7-----|-7----------15---|-0--0--0---0---0---0---------|


E|-----------------------------|---------------------------|---------------------------|
B|-----------------------------|-------------0---0---------|---------------------------|
G|-----------------------------|-------------0---0---------|---------------------------|
D|-----------------------------|-------------2---2---------|---------------------------|
A|-----------------------10----|-------------2---2---10----|---------------------10----|
E|-0---0---0--0--0---0---------|-0---0---0---0---0---------|-0---0---0---0---0---------|


E|---------------------------|---------------------------|---------------------------|
B|-------------0---0---------|---------------------------|-------------0---0---------|
G|-------------0---0---------|---------------------------|-------------0---0---------|
D|-------------2---2---------|---------------------------|-------------2---2---------|
A|-------------2---2---10----|---------------------10----|-------------2---2---10----|
E|-0---0---0---0---0---------|-0---0---0---0---0---------|-0---0---0---0---0---------|


E|---------------------------|--------|--------|--------|--------|--------|--------|
B|---------------------------|--------|--------|--------|--------|--------|--------|
G|---------------------------|--------|--------|--------|--------|--------|--------|
D|---------------------------|--------|--------|--------|--------|--------|--------|
A|---------------------10----|--------|--------|--------|--------|--------|--------|
E|-0---0---0---0---0---------|--------|--------|--------|--------|--------|--------|


E|--------|--------|---------------------------|-----------------------------|---------------------------|
B|--------|--------|-------------0---0---------|-----------------------------|-------------0---0---------|
G|--------|--------|-------------0---0---------|-----------------------------|-------------0---0---------|
D|--------|--------|-------------2---2---------|-----------------------------|-------------2---2---------|
A|--------|--------|-------------2---2---10----|-----------------------10----|-------------2---2---10----|
E|--------|--------|-0---0---0---0---0---------|-0---0---0--0--0---0---------|-0---0---0---0---0---------|


E|-----------------|-----------------------------0--------|-7---7----7---7---------------|
B|-----------------|-----------------------------0--------|-7---7----7---7---------------|
G|-----------------|-----------------------------0--------|-8---8----8---8---------------|
D|-----------------|-2--2--2--2--2--2--2--2--2---2--------|-9---9----9---9---------------|
A|-----------------|-2--2--2--2--2--2--2--2--2---2--------|------------------------------|
E|------------15---|-0--0--0--0--0--0--0--0--0---0----0---|------------------0---2---0---|


E|-7---7---7--7--7------------------|-7---7-----7---------|-7---7-----7---0---0--0------|
B|-7---7---7--7--7------------------|-7---7-----7---------|-7---7-----7---0---0--0------|
G|-8---8---8--8--8------------------|-8---8-----8---------|-8---8-----8---0---0--0------|
D|-9---9---9--9--9------------------|-9---9-----9---------|-9---9-----9-----------------|
A|----------------------------------|----------------0----|-----------------------------|
E|-------------------0--0--0----0---|---------------------|-------------------------0---|


E|-15----14--14--------------|-12--------0--------|-15----14--14--------|-------------------------------|
B|---------------15--15--17--|-----------0--------|---------------15----|-12---12-----------------------|
G|---------------------------|-----------0--------|---------------------|-------------------------------|
D|---------------------------|--------------------|---------------------|-------------------------------|
A|---------------------------|--------------------|---------------------|---------------0---0--0--0--0--|
E|---------------------------|---------------7----|---------------------|---------------0---0--0--0--0--|


E|-15---15-15--14--14----------------|-15-15-15-15-15-15-14--14-----------|-----------------------------------------|
B|--------------------15-15--15--17--|---------------------------14--15---|-15--14-15-14--12-14-12--10-12-10--8--10-|
G|-----------------------------------|------------------------------------|-----------------------------------------|
D|-----------------------------------|------------------------------------|-----------------------------------------|
A|-----------------------------------|------------------------------------|-----------------------------------------|
E|-----------------------------------|------------------------------------|-----------------------------------------|


E|-------------------------------------|----------------------------0------|-----------------------------------|
B|-8---7--8--7---5--7--5---3---3---5---|-10---9--9---7---7---5---5-----5---|-10---9--9---7---7---9---0--0--0---|
G|-------------------------------------|-----------------------------------|-----------------------------------|
D|-------------------------------------|-----------------------------------|-----------------------------------|
A|-------------------------------------|-----------------------------------|-----------------------------------|
E|-------------------------------------|-----------------------------------|-----------------------------------|


E|---------------------------------|---------------------------------|-------------------------------------|
B|-12--12--12--12--12--12--12--0---|-12--12--12--12--14--12--12--0---|-12---12-12--12--12-12-10--10--9--10-|
G|---------------------------------|---------------------------------|-------------------------------------|
D|---------------------------------|---------------------------------|-------------------------------------|
A|---------------------------------|---------------------------------|-------------------------------------|
E|---------------------------------|---------------------------------|-------------------------------------|


E|-------------------------------|---------------------------------|---------------------------------|
B|-9---7--9--7---5--7--5-----7---|-9----7--7---5---5--7----9----7--|-7---5---5--7----9----7--7---5---|
G|-------------------------------|---------------------------------|---------------------------------|
D|-------------------------------|---------------------------------|---------------------------------|
A|-------------------------------|---------------------------------|---------------------------------|
E|-------------------------------|---------------------------------|---------------------------------|


E|---------------------------------|---------------------------------|---------------------12----------|
B|-5---7---7---9---9---10--10--12--|-12--14--14--16--16--17--17--19--|-21------------------------------|
G|---------------------------------|---------------------------------|-----13--13--14--14------14--13--|
D|---------------------------------|---------------------------------|---------------------------------|
A|---------------------------------|---------------------------------|---------------------------------|
E|---------------------------------|---------------------------------|---------------------------------|


E|-----12--------------12----------|-----12--------------12----------|---------------------------------|
B|---------------------------------|---------------------------------|-----12--12--12--12--14--16--14--|
G|-13------13--14--14------14--13--|-13------13--14--14------14--13--|-14------------------------------|
D|---------------------------------|---------------------------------|---------------------------------|
A|---------------------------------|---------------------------------|---------------------------------|
E|---------------------------------|---------------------------------|---------------------------------|


E|---------------------12----------|-----12--------------12----------|-----12--------------12----------|
B|-21------------------------------|---------------------------------|---------------------------------|
G|-----13--13--14--14------14--13--|-13------13--14--14------14--13--|-13------13--14--14------14--13--|
D|---------------------------------|---------------------------------|---------------------------------|
A|---------------------------------|---------------------------------|---------------------------------|
E|---------------------------------|---------------------------------|---------------------------------|


E|-----12--------------12----------|-------------------------------------------|-------------------------------------------|
B|---------------------------------|-12-12-12-12-12--12-12-12-12-12--12-12-12--|-12-12-12-12-12--12-12-12-12-12--12-12-12--|
G|-13------13--14--14------14--13--|-13-13-13-13-13--13-13-13-13-13--13-13-13--|-13-13-13-13-13--13-13-13-13-13--13-13-13--|
D|---------------------------------|-------------------------------------------|-------------------------------------------|
A|---------------------------------|-------------------------------------------|-------------------------------------------|
E|---------------------------------|-------------------------------------------|-------------------------------------------|


E|-------------------------------------------|-------------------------------------------|
B|-12-12-12-12-12--12-12-12-12-12--12-12-12--|-12-12-12-12-12--12-12-12-12-12--12-12-12--|
G|-14-14-14-14-14--14-14-14-14-14--14-14-14--|-14-14-14-14-14--14-14-14-14-14--14-14-14--|
D|-------------------------------------------|-------------------------------------------|
A|-------------------------------------------|-------------------------------------------|
E|-------------------------------------------|-------------------------------------------|


E|-------------------------------------------|-------------------------------------------|
B|-12-12-12-12-12--12-12-12-12-12--12-12-12--|-12-12-12-12-12--12-12-12-12-12--12-12-12--|
G|-13-13-13-13-13--13-13-13-13-13--13-13-13--|-13-13-13-13-13--13-13-13-13-13--13-13-13--|
D|-------------------------------------------|-------------------------------------------|
A|-------------------------------------------|-------------------------------------------|
E|-------------------------------------------|-------------------------------------------|


E|-------------------------------------------|-------------------------------------------|
B|-12-12-12-12-12--12-12-12-12-12--12-12-12--|-12-12-12-12-12--12-12-12-12-12--12-12-12--|
G|-14-14-14-14-14--14-14-14-14-14--14-14-14--|-14-14-14-14-14--14-14-14-14-14--14-14-14--|
D|-------------------------------------------|-------------------------------------------|
A|-------------------------------------------|-------------------------------------------|
E|-------------------------------------------|-------------------------------------------|


E|-12----12--12---12---|-12---12--12-------12-------15---|-15-------15--15------15----15----|
B|---------------------|-------------15-12----15-12------|------0-----------0------0-----0--|
G|---------------------|---------------------------------|----------------------------------|
D|---------------------|---------------------------------|----------------------------------|
A|---------------------|---------------------------------|----------------------------------|
E|---------------------|---------------------------------|----------------------------------|


E|-12-------12--12------12---|-15-------15--15------15----15----|-12-------12--12------12---|
B|------0-----------0--------|------0-----------0------0-----0--|------0-----------0--------|
G|---------------------------|----------------------------------|---------------------------|
D|---------------------------|----------------------------------|---------------------------|
A|---------------------------|----------------------------------|---------------------------|
E|---------------------------|----------------------------------|---------------------------|


E|-15-------15--15------15----15----|-12-------12--12------12---|-15-------15--15------15----15----|
B|------0-----------0------0-----0--|------0-----------0--------|------0-----------0------0-----0--|
G|----------------------------------|---------------------------|----------------------------------|
D|----------------------------------|---------------------------|----------------------------------|
A|----------------------------------|---------------------------|----------------------------------|
E|----------------------------------|---------------------------|----------------------------------|


E|-15-------15--15------15----15----|-12-------12--12------12---|-15-------15--15------15----15----|
B|------0-----------0------0-----0--|------0-----------0--------|------0-----------0------0-----0--|
G|----------------------------------|---------------------------|----------------------------------|
D|----------------------------------|---------------------------|----------------------------------|
A|----------------------------------|---------------------------|----------------------------------|
E|----------------------------------|---------------------------|----------------------------------|


E|-15-------15--15------15----15----|-12-------12--12------12---|-15-------15--15------15----15----|
B|------0-----------0------0-----0--|------0-----------0--------|------0-----------0------0-----0--|
G|----------------------------------|---------------------------|----------------------------------|
D|----------------------------------|---------------------------|----------------------------------|
A|----------------------------------|---------------------------|----------------------------------|
E|----------------------------------|---------------------------|----------------------------------|


E|-12-------12--12------12---|-15---15---15--14----------|---------12------------------------|
B|------0-----------0--------|-------------------15--17--|-17--0-------0-------12-----12-----|
G|---------------------------|---------------------------|-----------------12------11-----11-|
D|---------------------------|---------------------------|-----------------------------------|
A|---------------------------|---------------------------|-----------------------------------|
E|---------------------------|---------------------------|-----------------------------------|


E|-----------------|--------------------|
B|-----------------|--------------------|
G|-11--9-----9-----|-9------------------|
D|-----------------|--------------------|
A|-----------------|--------------------|
E|-----------------|--------------------|





Track 2: Organ

E|--------|--------|--------|--------|--------|--------|--------|--------|--------|
B|--------|--------|--------|--------|--------|--------|--------|--------|--------|
G|--------|--------|--------|--------|--------|--------|--------|--------|--------|
D|--------|--------|--------|--------|--------|--------|--------|--------|--------|
A|--------|--------|--------|--------|--------|--------|--------|--------|--------|
E|--------|--------|--------|--------|--------|--------|--------|--------|--------|


E|--------|--------|--------|--------|--------|--------|--------|--------|--------|
B|--------|--------|--------|--------|--------|--------|--------|--------|--------|
G|--------|--------|--------|--------|--------|--------|--------|--------|--------|
D|--------|--------|--------|--------|--------|--------|--------|--------|--------|
A|--------|--------|--------|--------|--------|--------|--------|--------|--------|
E|--------|--------|--------|--------|--------|--------|--------|--------|--------|


E|--------|--------|--------|--------|--------|--------|--------|--------|--------|
B|--------|--------|--------|--------|--------|--------|--------|--------|--------|
G|--------|--------|--------|--------|--------|--------|--------|--------|--------|
D|--------|--------|--------|--------|--------|--------|--------|--------|--------|
A|--------|--------|--------|--------|--------|--------|--------|--------|--------|
E|--------|--------|--------|--------|--------|--------|--------|--------|--------|


E|--------|-4------|-4------|-5------|-5------|-4------|-4------|-5------|-5------|
B|--------|-5------|-5------|-5------|-5------|-5------|-5------|-5------|-5------|
G|--------|-6------|-4------|-6------|-6------|-6------|-4------|-6------|-6------|
D|--------|--------|--------|--------|--------|--------|--------|--------|--------|
A|--------|-4------|-7------|-0------|-0------|-4------|-7------|-0------|-0------|
E|--------|--------|--------|--------|--------|--------|--------|--------|--------|


E|--------|--------|--------|--------|--------|--------|--------|--------|--------|
B|--------|--------|--------|--------|--------|--------|--------|--------|--------|
G|--------|--------|--------|--------|--------|--------|--------|--------|--------|
D|--------|--------|--------|--------|--------|--------|--------|--------|--------|
A|--------|--------|--------|--------|--------|--------|--------|--------|--------|
E|--------|--------|--------|--------|--------|--------|--------|--------|--------|


E|--------|--------|--------|-4------|-4------|-5------|-5------|-4------|-4------|
B|--------|--------|--------|-5------|-5------|-5------|-5------|-5------|-5------|
G|--------|--------|--------|-6------|-4------|-6------|-6------|-6------|-4------|
D|--------|--------|--------|--------|--------|--------|--------|--------|--------|
A|--------|--------|--------|-4------|-7------|-0------|-0------|-4------|-7------|
E|--------|--------|--------|--------|--------|--------|--------|--------|--------|


E|-5------|-5------|--------|--------|--------|--------|--------|--------|--------|
B|-5------|-5------|--------|--------|--------|--------|--------|--------|--------|
G|-6------|-6------|--------|--------|--------|--------|--------|--------|--------|
D|--------|--------|--------|--------|--------|--------|--------|--------|--------|
A|-0------|-0------|--------|--------|--------|--------|--------|--------|--------|
E|--------|--------|--------|--------|--------|--------|--------|--------|--------|


E|--------|--------|--------|--------|--------|--------|--------|--------|--------|
B|--------|--------|--------|--------|--------|--------|--------|--------|--------|
G|--------|--------|--------|--------|--------|--------|--------|--------|--------|
D|--------|--------|--------|--------|--------|--------|--------|--------|--------|
A|--------|--------|--------|--------|--------|--------|--------|--------|--------|
E|--------|--------|--------|--------|--------|--------|--------|--------|--------|


E|--------|--------|--------|--------|--------|--------|--------|--------|--------|
B|--------|--------|--------|--------|--------|--------|--------|--------|--------|
G|--------|--------|--------|--------|--------|--------|--------|--------|--------|
D|--------|--------|--------|--------|--------|--------|--------|--------|--------|
A|--------|--------|--------|--------|--------|--------|--------|--------|--------|
E|--------|--------|--------|--------|--------|--------|--------|--------|--------|


E|--------|--------|--------|--------|--------|--------|--------|--------|--------|
B|--------|--------|--------|--------|--------|--------|--------|--------|--------|
G|--------|--------|--------|--------|--------|--------|--------|--------|--------|
D|--------|--------|--------|--------|--------|--------|--------|--------|--------|
A|--------|--------|--------|--------|--------|--------|--------|--------|--------|
E|--------|--------|--------|--------|--------|--------|--------|--------|--------|


E|--------|--------|--------|--------|--------|--------|--------|--------|--------|
B|--------|--------|--------|--------|--------|--------|--------|--------|--------|
G|--------|--------|--------|--------|--------|--------|--------|--------|--------|
D|--------|--------|--------|--------|--------|--------|--------|--------|--------|
A|--------|--------|--------|--------|--------|--------|--------|--------|--------|
E|--------|--------|--------|--------|--------|--------|--------|--------|--------|


E|--------|--------|--------|--------|--------|--------|--------|--------|--------|
B|--------|--------|--------|--------|--------|--------|--------|--------|--------|
G|--------|--------|--------|--------|--------|--------|--------|--------|--------|
D|--------|--------|--------|--------|--------|--------|--------|--------|--------|
A|--------|--------|--------|--------|--------|--------|--------|--------|--------|
E|--------|--------|--------|--------|--------|--------|--------|--------|--------|


E|--------|--------|--------|--------|--------|--------|--------|--------|--------|
B|--------|--------|--------|--------|--------|--------|--------|--------|--------|
G|--------|--------|--------|--------|--------|--------|--------|--------|--------|
D|--------|--------|--------|--------|--------|--------|--------|--------|--------|
A|--------|--------|--------|--------|--------|--------|--------|--------|--------|
E|--------|--------|--------|--------|--------|--------|--------|--------|--------|


E|--------|--------|
B|--------|--------|
G|--------|--------|
D|--------|--------|
A|--------|--------|
E|--------|--------|





Track 3: Guitar 1 w/dist + delay

E|--------|--------|--------|--------|--------|--------|--------|--------|--------|
B|--------|--------|--------|--------|--------|--------|--------|--------|--------|
G|--------|--------|--------|--------|--------|--------|--------|--------|--------|
D|--------|--------|--------|--------|--------|--------|--------|--------|--------|
A|--------|--------|--------|--------|--------|--------|--------|--------|--------|
E|--------|--------|--------|--------|--------|--------|--------|--------|--------|


E|--------|--------|--------|--------|--------|--------|--------|--------|--------|
B|--------|--------|--------|--------|--------|--------|--------|--------|--------|
G|--------|--------|--------|--------|--------|--------|--------|--------|--------|
D|--------|--------|--------|--------|--------|--------|--------|--------|--------|
A|--------|--------|--------|--------|--------|--------|--------|--------|--------|
E|--------|--------|--------|--------|--------|--------|--------|--------|--------|


E|--------|--------|--------|--------|--------|--------|--------|--------|--------|
B|--------|--------|--------|--------|--------|--------|--------|--------|--------|
G|--------|--------|--------|--------|--------|--------|--------|--------|--------|
D|--------|--------|--------|--------|--------|--------|--------|--------|--------|
A|--------|--------|--------|--------|--------|--------|--------|--------|--------|
E|--------|--------|--------|--------|--------|--------|--------|--------|--------|


E|--------|--------|--------|--------|--------|--------|--------|--------|--------|
B|--------|--------|--------|--------|--------|--------|--------|--------|--------|
G|--------|--------|--------|--------|--------|--------|--------|--------|--------|
D|--------|--------|--------|--------|--------|--------|--------|--------|--------|
A|--------|--------|--------|--------|--------|--------|--------|--------|--------|
E|--------|--------|--------|--------|--------|--------|--------|--------|--------|


E|---------------------------|-----------------------------|---------------------------|
B|-------------0---0---------|-----------------------------|-------------0---0---------|
G|-------------0---0---------|-----------------------------|-------------0---0---------|
D|-------------2---2---------|-----------------------------|-------------2---2---------|
A|-------------2---2---10----|-----------------------10----|-------------2---2---10----|
E|-0---0---0---0---0---------|-0---0---0--0--0---0---------|-0---0---0---0---0---------|


E|--------|--------|--------|--------|--------|--------|--------|--------|--------|
B|--------|--------|--------|--------|--------|--------|--------|--------|--------|
G|--------|--------|--------|--------|--------|--------|--------|--------|--------|
D|--------|--------|--------|--------|--------|--------|--------|--------|--------|
A|--------|--------|--------|--------|--------|--------|--------|--------|--------|
E|--------|--------|--------|--------|--------|--------|--------|--------|--------|


E|--------|--------|--------|--------|--------|--------|--------|--------|--------|
B|--------|--------|--------|--------|--------|--------|--------|--------|--------|
G|--------|--------|--------|--------|--------|--------|--------|--------|--------|
D|--------|--------|--------|--------|--------|--------|--------|--------|--------|
A|--------|--------|--------|--------|--------|--------|--------|--------|--------|
E|--------|--------|--------|--------|--------|--------|--------|--------|--------|


E|--------|--------|--------|--------|--------|--------|--------|--------|--------|
B|--------|--------|--------|--------|--------|--------|--------|--------|--------|
G|--------|--------|--------|--------|--------|--------|--------|--------|--------|
D|--------|--------|--------|--------|--------|--------|--------|--------|--------|
A|--------|--------|--------|--------|--------|--------|--------|--------|--------|
E|--------|--------|--------|--------|--------|--------|--------|--------|--------|


E|--------|--------|--------|--------|--------|--------|--------|--------|--------|
B|--------|--------|--------|--------|--------|--------|--------|--------|--------|
G|--------|--------|--------|--------|--------|--------|--------|--------|--------|
D|--------|--------|--------|--------|--------|--------|--------|--------|--------|
A|--------|--------|--------|--------|--------|--------|--------|--------|--------|
E|--------|--------|--------|--------|--------|--------|--------|--------|--------|


E|--------|--------|--------|--------|--------|--------|--------|--------|--------|
B|--------|--------|--------|--------|--------|--------|--------|--------|--------|
G|--------|--------|--------|--------|--------|--------|--------|--------|--------|
D|--------|--------|--------|--------|--------|--------|--------|--------|--------|
A|--------|--------|--------|--------|--------|--------|--------|--------|--------|
E|--------|--------|--------|--------|--------|--------|--------|--------|--------|


E|--------|--------|--------|--------|--------|--------|--------|--------|--------|
B|--------|--------|--------|--------|--------|--------|--------|--------|--------|
G|--------|--------|--------|--------|--------|--------|--------|--------|--------|
D|--------|--------|--------|--------|--------|--------|--------|--------|--------|
A|--------|--------|--------|--------|--------|--------|--------|--------|--------|
E|--------|--------|--------|--------|--------|--------|--------|--------|--------|


E|--------|--------|--------|--------|--------|--------|--------|--------|--------|
B|--------|--------|--------|--------|--------|--------|--------|--------|--------|
G|--------|--------|--------|--------|--------|--------|--------|--------|--------|
D|--------|--------|--------|--------|--------|--------|--------|--------|--------|
A|--------|--------|--------|--------|--------|--------|--------|--------|--------|
E|--------|--------|--------|--------|--------|--------|--------|--------|--------|


E|--------|--------|--------|--------|--------|--------|--------|--------|--------|
B|--------|--------|--------|--------|--------|--------|--------|--------|--------|
G|--------|--------|--------|--------|--------|--------|--------|--------|--------|
D|--------|--------|--------|--------|--------|--------|--------|--------|--------|
A|--------|--------|--------|--------|--------|--------|--------|--------|--------|
E|--------|--------|--------|--------|--------|--------|--------|--------|--------|


E|--------|--------|--------|--------|--------|--------|--------|--------|
B|--------|--------|--------|--------|--------|--------|--------|--------|
G|--------|--------|--------|--------|--------|--------|--------|--------|
D|--------|--------|--------|--------|--------|--------|--------|--------|
A|--------|--------|--------|--------|--------|--------|--------|--------|
E|--------|--------|--------|--------|--------|--------|--------|--------|





Track 4: Guitar 2

E|--------|--------|--------|--------|--------|--------|--------|--------|--------|
B|--------|--------|--------|--------|--------|--------|--------|--------|--------|
G|--------|--------|--------|--------|--------|--------|--------|--------|--------|
D|--------|--------|--------|--------|--------|--------|--------|--------|--------|
A|--------|--------|--------|--------|--------|--------|--------|--------|--------|
E|--------|--------|--------|--------|--------|--------|--------|--------|--------|


E|--------|--------|--------|--------|--------|--------|--------|--------|--------|
B|--------|--------|--------|--------|--------|--------|--------|--------|--------|
G|--------|--------|--------|--------|--------|--------|--------|--------|--------|
D|--------|--------|--------|--------|--------|--------|--------|--------|--------|
A|--------|--------|--------|--------|--------|--------|--------|--------|--------|
E|--------|--------|--------|--------|--------|--------|--------|--------|--------|


E|--------|--------|--------|--------|--------|--------|--------|--------|--------|
B|--------|--------|--------|--------|--------|--------|--------|--------|--------|
G|--------|--------|--------|--------|--------|--------|--------|--------|--------|
D|--------|--------|--------|--------|--------|--------|--------|--------|--------|
A|--------|--------|--------|--------|--------|--------|--------|--------|--------|
E|--------|--------|--------|--------|--------|--------|--------|--------|--------|


E|--------|--------|--------|--------|--------|--------|--------|--------|--------|
B|--------|--------|--------|--------|--------|--------|--------|--------|--------|
G|--------|--------|--------|--------|--------|--------|--------|--------|--------|
D|--------|--------|--------|--------|--------|--------|--------|--------|--------|
A|--------|--------|--------|--------|--------|--------|--------|--------|--------|
E|--------|--------|--------|--------|--------|--------|--------|--------|--------|


E|--------|--------|--------|--------|--------|--------|--------|--------|--------|
B|--------|--------|--------|--------|--------|--------|--------|--------|--------|
G|--------|--------|--------|--------|--------|--------|--------|--------|--------|
D|--------|--------|--------|--------|--------|--------|--------|--------|--------|
A|--------|--------|--------|--------|--------|--------|--------|--------|--------|
E|--------|--------|--------|--------|--------|--------|--------|--------|--------|


E|--------|--------|--------|--------|--------|--------|--------|--------|--------|
B|--------|--------|--------|--------|--------|--------|--------|--------|--------|
G|--------|--------|--------|--------|--------|--------|--------|--------|--------|
D|--------|--------|--------|--------|--------|--------|--------|--------|--------|
A|--------|--------|--------|--------|--------|--------|--------|--------|--------|
E|--------|--------|--------|--------|--------|--------|--------|--------|--------|


E|--------|--------|--------|--------|--------|--------|--------|--------|--------|
B|--------|--------|--------|--------|--------|--------|--------|--------|--------|
G|--------|--------|--------|--------|--------|--------|--------|--------|--------|
D|--------|--------|--------|--------|--------|--------|--------|--------|--------|
A|--------|--------|--------|--------|--------|--------|--------|--------|--------|
E|--------|--------|--------|--------|--------|--------|--------|--------|--------|


E|--------|--------|--------|--------|--------|--------|--------|--------|--------|
B|--------|--------|--------|--------|--------|--------|--------|--------|--------|
G|--------|--------|--------|--------|--------|--------|--------|--------|--------|
D|--------|--------|--------|--------|--------|--------|--------|--------|--------|
A|--------|--------|--------|--------|--------|--------|--------|--------|--------|
E|--------|--------|--------|--------|--------|--------|--------|--------|--------|


E|--------|--------|--------|--------|--------|--------|--------|--------|--------|
B|--------|--------|--------|--------|--------|--------|--------|--------|--------|
G|--------|--------|--------|--------|--------|--------|--------|--------|--------|
D|--------|--------|--------|--------|--------|--------|--------|--------|--------|
A|--------|--------|--------|--------|--------|--------|--------|--------|--------|
E|--------|--------|--------|--------|--------|--------|--------|--------|--------|


E|--------|--------|--------|--------|--------|--------|--------|--------|--------|
B|--------|--------|--------|--------|--------|--------|--------|--------|--------|
G|--------|--------|--------|--------|--------|--------|--------|--------|--------|
D|--------|--------|--------|--------|--------|--------|--------|--------|--------|
A|--------|--------|--------|--------|--------|--------|--------|--------|--------|
E|--------|--------|--------|--------|--------|--------|--------|--------|--------|


E|--------|--------|--------|--------|--------|--------|--------|--------|--------|
B|--------|--------|--------|--------|--------|--------|--------|--------|--------|
G|--------|--------|--------|--------|--------|--------|--------|--------|--------|
D|--------|--------|--------|--------|--------|--------|--------|--------|--------|
A|--------|--------|--------|--------|--------|--------|--------|--------|--------|
E|--------|--------|--------|--------|--------|--------|--------|--------|--------|


E|---------------------------|---------------0---0---------|---------------0---0---------|
B|---------------------------|---------------0---0---------|---------------0---0---------|
G|---------------------------|---------------0---0---------|---------------0---0---------|
D|---------------------------|---------------2---2---------|---------------2---2---------|
A|---------------------------|---------------2---2---10----|---------------2---2---10----|
E|-0---0---0---0---0---10----|-0--0--0---0---0---0---------|-0--0--0---0---0---0---------|


E|---------------0---0---------|-----------------------------|-----------------------------|
B|---------------0---0---------|-----------------------------|-----------------------------|
G|---------------0---0---------|-----------------------------|-----------------------------|
D|---------------2---2---------|-----------------------------|-----------------------------|
A|---------------2---2---10----|-----------------------10----|-----------------------10----|
E|-0--0--0---0---0---0---------|-0--0--0---0---0---0---------|-0--0--0---0---0---0---------|


E|-----------------------------|-----------------------------|-----------------------------|
B|-----------------------------|-----------------------------|-----------------------------|
G|-----------------------------|-----------------------------|-----------------------------|
D|-----------------------------|-----------------------------|-----------------------------|
A|-----------------------10----|-----------------------10----|-----------------------10----|
E|-0--0--0---0---0---0---------|-0--0--0---0---0---0---------|-0--0--0---0---0---0---------|


E|-----------------------------|-----------------------------|-----------------------------|
B|-----------------------------|-----------------------------|-----------------------------|
G|-----------------------------|-----------------------------|-----------------------------|
D|-----------------------------|-----------------------------|-----------------------------|
A|-----------------------10----|-----------------------10----|-----------------------10----|
E|-0--0--0---0---0---0---------|-0--0--0---0---0---0---------|-0--0--0---0---0---0---------|


E|-------------0---0---12----|-------------0---0---12----|-------------0---0---12----|
B|-------------0---0---12----|-------------0---0---12----|-------------0---0---12----|
G|-------------0---0---12----|-------------0---0---12----|-------------0---0---12----|
D|-------------2---2---12----|-------------2---2---12----|-------------2---2---12----|
A|-------------2---2---------|-------------2---2---------|-------------2---2---------|
E|-0---0---0---0---0---------|-0---0---0---0---0---------|-0---0---0---0---0---------|


E|-------------0---0---------|------------------------------|------------------------|
B|-------------0---0---------|----------------------12--12--|-12----------------12---|
G|-------------0---0---------|----------------------12--12--|-12----------------12---|
D|-------------2---2---------|------------------------------|------------------------|
A|-------------2---2---10----|------------------------------|------------------------|
E|-0---0---0---0---0---------|-0---0---0---0---0------------|------0---0---0---------|


E|-----------------|--------|
B|-12--------------|--------|
G|-12--------------|--------|
D|-----------------|--------|
A|-----------------|--------|
E|-----0-----0-----|--------|





Track 5: Untitled

G|--------|--------|--------|--------|--------|--------|--------|--------|--------|
D|--------|--------|--------|--------|--------|--------|--------|--------|--------|
A|--------|--------|--------|--------|--------|--------|--------|--------|--------|
E|--------|--------|--------|--------|--------|--------|--------|--------|--------|


G|--------|--------|--------|--------|--------|--------|--------|--------|--------|
D|--------|--------|--------|--------|--------|--------|--------|--------|--------|
A|--------|--------|--------|--------|--------|--------|--------|--------|--------|
E|--------|--------|--------|--------|--------|--------|--------|--------|--------|


G|--------|--------|--------|--------|--------|--------|--------|--------|--------|
D|--------|--------|--------|--------|--------|--------|--------|--------|--------|
A|--------|--------|--------|--------|--------|--------|--------|--------|--------|
E|--------|--------|--------|--------|--------|--------|--------|--------|--------|


G|--------|--------|--------|--------|--------|--------|--------|--------|--------|
D|--------|--------|--------|--------|--------|--------|--------|--------|--------|
A|--------|--------|--------|--------|--------|--------|--------|--------|--------|
E|--------|--------|--------|--------|--------|--------|--------|--------|--------|


G|--------|--------|--------|--------|--------|--------|--------|--------|--------|
D|--------|--------|--------|--------|--------|--------|--------|--------|--------|
A|--------|--------|--------|--------|--------|--------|--------|--------|--------|
E|--------|--------|--------|--------|--------|--------|--------|--------|--------|


G|--------|--------|--------|--------|--------|--------|--------|--------|--------|
D|--------|--------|--------|--------|--------|--------|--------|--------|--------|
A|--------|--------|--------|--------|--------|--------|--------|--------|--------|
E|--------|--------|--------|--------|--------|--------|--------|--------|--------|


G|--------|--------|--------|--------|--------|--------|--------|--------|--------|
D|--------|--------|--------|--------|--------|--------|--------|--------|--------|
A|--------|--------|--------|--------|--------|--------|--------|--------|--------|
E|--------|--------|--------|--------|--------|--------|--------|--------|--------|


G|--------|--------|--------|--------|--------|--------|--------|--------|--------|
D|--------|--------|--------|--------|--------|--------|--------|--------|--------|
A|--------|--------|--------|--------|--------|--------|--------|--------|--------|
E|--------|--------|--------|--------|--------|--------|--------|--------|--------|


G|--------|--------|--------|--------|--------|--------|--------|--------|--------|
D|--------|--------|--------|--------|--------|--------|--------|--------|--------|
A|--------|--------|--------|--------|--------|--------|--------|--------|--------|
E|--------|--------|--------|--------|--------|--------|--------|--------|--------|


G|--------|--------|--------|--------|--------|--------|--------|--------|--------|
D|--------|--------|--------|--------|--------|--------|--------|--------|--------|
A|--------|--------|--------|--------|--------|--------|--------|--------|--------|
E|--------|--------|--------|--------|--------|--------|--------|--------|--------|


G|--------|--------|--------|--------|--------|--------|--------|--------|--------|
D|--------|--------|--------|--------|--------|--------|--------|--------|--------|
A|--------|--------|--------|--------|--------|--------|--------|--------|--------|
E|--------|--------|--------|--------|--------|--------|--------|--------|--------|


G|--------|--------|--------|--------|--------|--------|--------|--------|--------|
D|--------|--------|--------|--------|--------|--------|--------|--------|--------|
A|--------|--------|--------|--------|--------|--------|--------|--------|--------|
E|--------|--------|--------|--------|--------|--------|--------|--------|--------|


G|--------|--------|--------|--------|--------|--------|--------|--------|--------|
D|--------|--------|--------|--------|--------|--------|--------|--------|--------|
A|--------|--------|--------|--------|--------|--------|--------|--------|--------|
E|--------|--------|--------|--------|--------|--------|--------|--------|--------|


G|--------|--------|
D|--------|--------|
A|--------|--------|
E|--------|--------|