Site menu:

    

Browse: 0-9 A B C D E F G H I J K L N O P Q R S T U V W X Y Z

u2 - sweetest thing the single mix:



Title: Sweetest Thing (The Single Mix)
Artist: 
Album: The Best of 1980-1990
Author: U2


Track 1: Elec.(clean)

E|-------12-----------|--------|-12-----------------|-12------------------------|-12------------------------|
B|--------------------|--------|--------------------|---------------------------|---------------------------|
G|-----------12--12---|-12-----|-----12--12---12----|-----12--12---12-----------|-----12--12---12-----------|
D|--------------------|--------|--------------------|---------------------------|---------------------------|
A|--------------------|--------|--------------------|---------------------------|---------------------------|
E|--------------------|--------|--------------------|---------------------------|---------------------------|


E|-12------------------------|-12------------------------|-12------------------------|
B|---------------------------|---------------------------|---------------------------|
G|-----12--12---12-----------|-----12--12---12-----------|-----12--12---12-----------|
D|---------------------------|---------------------------|---------------------------|
A|---------------------------|---------------------------|---------------------------|
E|---------------------------|---------------------------|---------------------------|


E|-12------------------------|-12------------------------|-12------------------------|
B|---------------------------|---------------------------|---------------------------|
G|-----12--12---12-----------|-----12--12---12-----------|-----12--12---12-----------|
D|---------------------------|---------------------------|---------------------------|
A|---------------------------|---------------------------|---------------------------|
E|---------------------------|---------------------------|---------------------------|


E|-12------------------------|-12------------------------|-12-----------------|--------|
B|---------------------------|---------------------------|--------------------|--------|
G|-----12--12---12-----------|-----12--12---12-----------|-----12--12---------|--------|
D|---------------------------|---------------------------|--------------------|--------|
A|---------------------------|---------------------------|--------------------|--------|
E|---------------------------|---------------------------|--------------------|--------|


E|--------|--------|--------|-12-----------------|-12-----------------|-12-----------------|
B|--------|--------|--------|--------------------|--------------------|--------------------|
G|--------|--------|--------|-----12--12---------|-----12--12---------|-----12--12---------|
D|--------|--------|--------|--------------------|--------------------|--------------------|
A|--------|--------|--------|--------------------|--------------------|--------------------|
E|--------|--------|--------|--------------------|--------------------|--------------------|


E|-12-----------------|-12-----------------|-12-----------------|-12-----------------|
B|--------------------|--------------------|--------------------|--------------------|
G|-----12--12---------|-----12--12---------|-----12--12---------|-----12--12---------|
D|--------------------|--------------------|--------------------|--------------------|
A|--------------------|--------------------|--------------------|--------------------|
E|--------------------|--------------------|--------------------|--------------------|


E|-12-----------------|--------|--------|--------|--------|--------|--------|--------|
B|--------------------|--------|--------|--------|--------|--------|--------|--------|
G|-----12--12---------|--------|--------|--------|--------|--------|--------|--------|
D|--------------------|--------|--------|--------|--------|--------|--------|--------|
A|--------------------|--------|--------|--------|--------|--------|--------|--------|
E|--------------------|--------|--------|--------|--------|--------|--------|--------|


E|--------|--------|--------|--------|--------|--------|--------|--------|--------|
B|--------|--------|--------|--------|--------|--------|--------|--------|--------|
G|--------|--------|--------|--------|--------|--------|--------|--------|--------|
D|--------|--------|--------|--------|--------|--------|--------|--------|--------|
A|--------|--------|--------|--------|--------|--------|--------|--------|--------|
E|--------|--------|--------|--------|--------|--------|--------|--------|--------|


E|--------|--------|--------|--------|--------|--------|--------|--------|--------|
B|--------|--------|--------|--------|--------|--------|--------|--------|--------|
G|--------|--------|--------|--------|--------|--------|--------|--------|--------|
D|--------|--------|--------|--------|--------|--------|--------|--------|--------|
A|--------|--------|--------|--------|--------|--------|--------|--------|--------|
E|--------|--------|--------|--------|--------|--------|--------|--------|--------|


E|--------|--------|
B|--------|--------|
G|--------|--------|
D|--------|--------|
A|--------|--------|
E|--------|--------|





Track 2: A.G. w/little bit O,D.

E|-------12----|--------|-12----12--------|-12----12------------------|-12----12------------------|
B|-------------|--------|-----------------|---------------------------|---------------------------|
G|-------------|--------|-----------------|-----------9---9--10-12-10-|-----------9---9--10-12-10-|
D|-------------|--------|-----------------|---------------------------|---------------------------|
A|-------------|--------|-----------------|---------------------------|---------------------------|
E|-------------|--------|-----------------|---------------------------|---------------------------|


E|-12----12------------------|-12----12------------------|-12----12------------------|
B|---------------------------|---------------------------|---------------------------|
G|-----------9---9--10-12-10-|-----------9---9--10-12-10-|-----------9---9--10-12-10-|
D|---------------------------|---------------------------|---------------------------|
A|---------------------------|---------------------------|---------------------------|
E|---------------------------|---------------------------|---------------------------|


E|-12----12------------------|-12----12------------------|-12----12------------------|
B|---------------------------|---------------------------|---------------------------|
G|-----------9---9--10-12-10-|-----------9---9--10-12-10-|-----------9---9--10-12-10-|
D|---------------------------|---------------------------|---------------------------|
A|---------------------------|---------------------------|---------------------------|
E|---------------------------|---------------------------|---------------------------|


E|-12----12------------------|-12----12------------------|-12----12-------------|-10-----------8------------|
B|---------------------------|---------------------------|----------------------|-----10--10-------10--10---|
G|-----------9---9--10-12-10-|-----------9---9--10-12-10-|------------9--10-9---|---------------------------|
D|---------------------------|---------------------------|----------------------|---------------------------|
A|---------------------------|---------------------------|----------------------|---------------------------|
E|---------------------------|---------------------------|----------------------|---------------------------|


E|-------------10--10-----------|-10-----------8------------|--------------10-10----|
B|-12------------------8---8----|-----10--10-------10--10---|-12--------------------|
G|-----12--12-------------------|---------------------------|-----12--12------------|
D|------------------------------|---------------------------|-----------------------|
A|------------------------------|---------------------------|-----------------------|
E|------------------------------|---------------------------|-----------------------|


E|-12----12------------------|-12----12------------------|-12----12------------------|
B|---------------------------|---------------------------|---------------------------|
G|-----------9---9--10-12-10-|-----------9---9--10-12-10-|-----------9---9--10-12-10-|
D|---------------------------|---------------------------|---------------------------|
A|---------------------------|---------------------------|---------------------------|
E|---------------------------|---------------------------|---------------------------|


E|-12----12------------------|-12----12------------------|-12----12------------------|
B|---------------------------|---------------------------|---------------------------|
G|-----------9---9--10-12-10-|-----------9---9--10-12-10-|-----------9---9--10-12-10-|
D|---------------------------|---------------------------|---------------------------|
A|---------------------------|---------------------------|---------------------------|
E|---------------------------|---------------------------|---------------------------|


E|-12----12------------------|-12----12-------------|-10-----------8------------|-7-----------10--10-----------|
B|---------------------------|----------------------|-----10--10-------10--10---|-----8---8-----------8---8----|
G|-----------9---9--10-12-10-|------------9--10-9---|---------------------------|------------------------------|
D|---------------------------|----------------------|---------------------------|------------------------------|
A|---------------------------|----------------------|---------------------------|------------------------------|
E|---------------------------|----------------------|---------------------------|------------------------------|


E|-10-----------8------------|-7------------10-10---10---8--|--------|--------|--------|
B|-----10--10-------10--10---|-----8---8--------------------|--------|--------|--------|
G|---------------------------|------------------------------|--------|--------|--------|
D|---------------------------|------------------------------|--------|--------|--------|
A|---------------------------|------------------------------|--------|--------|--------|
E|---------------------------|------------------------------|--------|--------|--------|


E|--------|-----------8--8--8--8--8--8--|-8---8---8-----------8--8--8--8--8--8--|-8--8--8---8----8---------8--8--8--8--8--|
B|--------|-----------8--8--8--8--8--8--|-8---8---8-----------8--8--8--8--8--8--|-8--8--8---8----8---------8--8--8--8--8--|
G|--------|-----------10-10-10-10-10-10-|-10--9---9-----------10-10-10-10-10-10-|-10-10-9---9----9---------10-10-10-10-10-|
D|--------|-----------------------------|---------------------------------------|-----------------------------------------|
A|--------|-----------------------------|---------------------------------------|-----------------------------------------|
E|--------|-----------------------------|---------------------------------------|-----------------------------------------|


E|-8--8--8---8----------8--8--8--8--8--8--8--|----8---------8--8--8--8--8--8--8--8--|
B|-8--8--8---8----------8--8--8--8--8--8--8--|----8---------8--8--8--8--8--8--8--8--|
G|-10-9--9---9----------10-10-10-10-10-10-10-|----10--------10-10-10-10-10-10-10-10-|
D|-------------------------------------------|--------------------------------------|
A|-------------------------------------------|--------------------------------------|
E|-------------------------------------------|--------------------------------------|


E|-8--8----8--------8--8--8--8--8--8--|-8----8-----------8--8--8--8--8--|----8------------8--8--8--8--8--8--8--|
B|-8--8----8--------8--8--8--8--8--8--|-8----8-----------8--8--8--8--8--|----8------------8--8--8--8--8--8--8--|
G|-10-10---10-------10-10-10-10-10-9--|-9----9-----------10-10-10-10-10-|----9------------10-10-10-10-10-10-9--|
D|------------------------------------|---------------------------------|--------------------------------------|
A|------------------------------------|---------------------------------|--------------------------------------|
E|------------------------------------|---------------------------------|--------------------------------------|


E|-8----8--------8--8--8--8--8--8--|-8------------8--8--8--8--8--8--8--|-8-------8--8--8-----8---------8--8--8--|
B|-8----8--------8--8--8--8--8--8--|-8------------8--8--8--8--8--8--8--|-8-------8--8--8-----8---------8--8--8--|
G|-9----9--------10-10-10-10-10-10-|-9------------10-10-10-10-10-10-9--|-9-------10-10-10----10--------10-10-9--|
D|---------------------------------|-----------------------------------|----------------------------------------|
A|---------------------------------|-----------------------------------|----------------------------------------|
E|---------------------------------|-----------------------------------|----------------------------------------|


E|-8----8---8--8-----8--8--8--8--8--8--8--|----3------3------3--3-----3-----3---------|
B|-8----8---8--8-----8--8--8--8--8--8--8--|-1------1------1--------1-----1------------|
G|-9----10--10-10----10-10-10-10-10-10-9--|------------------------------------0---2--|
D|----------------------------------------|-------------------------------------------|
A|----------------------------------------|-------------------------------------------|
E|----------------------------------------|-------------------------------------------|


E|-3------3------3--------3-----------------3--|-3-----3------3------3------3-----3--------|
B|----1------1------1--1-----1--1--------1-----|----1------1------1------1-----1-----------|
G|---------------------------------0--2--------|-------------------------------------0--2--|
D|---------------------------------------------|-------------------------------------------|
A|---------------------------------------------|-------------------------------------------|
E|---------------------------------------------|-------------------------------------------|


E|----3------3------3--3-----3------3--------|-------3------3--------3-----|-3---3--3--3--3--3--3--3-----|
B|-1------1------1--------1------1-----0--1--|----1------1-----------------|-1---1--1--1--1--1--1--1-----|
G|-------------------------------------------|-2---------------2--2--------|-----------------------------|
D|-------------------------------------------|-----------------------------|-----------------------------|
A|-------------------------------------------|-----------------------------|-----------------------------|
E|-------------------------------------------|-----------------------------|-----------------------------|


E|-3------|
B|-1------|
G|--------|
D|--------|
A|--------|
E|--------|





Track 3: Elec.(Jazz)

E|--------|--------|--------|--------|--------|--------|--------|--------|--------|
B|--------|--------|--------|--------|--------|--------|--------|--------|--------|
G|--------|--------|--------|--------|--------|--------|--------|--------|--------|
D|--------|--------|--------|--------|--------|--------|--------|--------|--------|
A|--------|--------|--------|--------|--------|--------|--------|--------|--------|
E|--------|--------|--------|--------|--------|--------|--------|--------|--------|


E|--------|--------|--------|--------|--------|----------10-10--------------|--------------13--12-12-10-----------8---|
B|--------|--------|--------|--------|--------|-------10-------10-----------|-----------------------------------------|
G|--------|--------|--------|--------|--------|-9--10-------------10--10----|-----12-14-14-----12-12-10--9--10-9------|
D|--------|--------|--------|--------|--------|-----------------------------|-----------------------------------------|
A|--------|--------|--------|--------|--------|-----------------------------|-----------------------------------------|
E|--------|--------|--------|--------|--------|-----------------------------|-----------------------------------------|


E|-------10--------------13------|------------13--12-12-12--8--10--8---|--------|--------|
B|----------10-------------------|-------------------------------------|--------|--------|
G|-9--10-------10---10-----------|-----12--12-----12-12-10--9--10--7---|--------|--------|
D|-------------------------------|-------------------------------------|--------|--------|
A|-------------------------------|-------------------------------------|--------|--------|
E|-------------------------------|-------------------------------------|--------|--------|


E|--------|--------|--------|--------|--------|--------|----8--10--10-------------12--------|
B|--------|--------|--------|--------|--------|--------|------------------------------------|
G|--------|--------|--------|--------|--------|--------|-10-----------------12-14-14-12-12--|
D|--------|--------|--------|--------|--------|--------|------------------------------------|
A|--------|--------|--------|--------|--------|--------|------------------------------------|
E|--------|--------|--------|--------|--------|--------|------------------------------------|


E|-10-12---10--8---8---10--10---|----8--10---------------------------10-|-8----8---10--10----|
B|------------------------------|------------------------------15-------|--------------------|
G|-10-12---10--9---9---10--10---|-9--9--10--10-10---10---12-14-14-12-10-|-9----9---10--10----|
D|------------------------------|---------------------------------------|--------------------|
A|------------------------------|---------------------------------------|--------------------|
E|------------------------------|---------------------------------------|--------------------|


E|--------|--------|--------|--------|--------|--------|--------|-------------13--12-10-8-----10-----|
B|--------|--------|--------|--------|--------|--------|--------|------------------------------------|
G|--------|--------|--------|--------|--------|--------|--------|-------------14--12-10-9--10----9---|
D|--------|--------|--------|--------|--------|--------|--------|------------------------------------|
A|--------|--------|--------|--------|--------|--------|--------|------------------------------------|
E|--------|--------|--------|--------|--------|--------|--------|------------------------------------|


E|----8--10-12-12-8---10-10---10------|----------12-12-------13-13-12-10-10-10-8---8--|
B|------------------------------------|-----------------------------------------------|
G|-9--9--10-12-12-9---10-10---10---9--|-9--10-12-------12-14-------12-10-10-10-9---9--|
D|------------------------------------|-----------------------------------------------|
A|------------------------------------|-----------------------------------------------|
E|------------------------------------|-----------------------------------------------|


E|-8-----10-12----8------10---10------|----------12-12-8--10--13-13--12----10-------|
B|------------------------------------|---------------------------------------------|
G|-9--10-10-12-9--9---10-----------9--|-9--10-12-12-12-9--10--14-14--12----10----9--|
D|------------------------------------|---------------------------------------------|
A|------------------------------------|---------------------------------------------|
E|------------------------------------|---------------------------------------------|


E|-8--10-12-12-12-8--10-10-10---10------|-8--10-12-12-12-----------12--10----8--------|
B|--------------------------------------|---------------------------------------------|
G|-9--10-12-14-14-9--10-10-10---10---9--|-9--10-12-12-12-12-16--16-12--10----9-----9--|
D|--------------------------------------|---------------------------------------------|
A|--------------------------------------|---------------------------------------------|
E|--------------------------------------|---------------------------------------------|


E|-8--10-12-12-12-8--10-10-10---10------|-8--10-12-12-12-8---13----12----10----8----|
B|--------------------------------------|-------------------------------------------|
G|-9--10-12-14-14-9--10-10-10---10---9--|-9--10-12-14-14-9---14----12----10----9----|
D|--------------------------------------|-------------------------------------------|
A|--------------------------------------|-------------------------------------------|
E|--------------------------------------|-------------------------------------------|


E|--------|--------|--------|--------|--------|--------|--------|
B|--------|--------|--------|--------|--------|--------|--------|
G|--------|--------|--------|--------|--------|--------|--------|
D|--------|--------|--------|--------|--------|--------|--------|
A|--------|--------|--------|--------|--------|--------|--------|
E|--------|--------|--------|--------|--------|--------|--------|





Track 4: O.D.

E|--------|--------|--------|--------|--------|--------|--------|--------|--------|
B|--------|--------|--------|--------|--------|--------|--------|--------|--------|
G|--------|--------|--------|--------|--------|--------|--------|--------|--------|
D|--------|--------|--------|--------|--------|--------|--------|--------|--------|
A|--------|--------|--------|--------|--------|--------|--------|--------|--------|
E|--------|--------|--------|--------|--------|--------|--------|--------|--------|


E|--------|--------|--------|--------|--------|--------|--------|--------|--------|
B|--------|--------|--------|--------|--------|--------|--------|--------|--------|
G|--------|--------|--------|--------|--------|--------|--------|--------|--------|
D|--------|--------|--------|--------|--------|--------|--------|--------|--------|
A|--------|--------|--------|--------|--------|--------|--------|--------|--------|
E|--------|--------|--------|--------|--------|--------|--------|--------|--------|


E|--------|--------|--------|--------|--------|--------|--------|--------|--------|
B|--------|--------|--------|--------|--------|--------|--------|--------|--------|
G|--------|--------|--------|--------|--------|--------|--------|--------|--------|
D|--------|--------|--------|--------|--------|--------|--------|--------|--------|
A|--------|--------|--------|--------|--------|--------|--------|--------|--------|
E|--------|--------|--------|--------|--------|--------|--------|--------|--------|


E|--------|--------|--------|-----------------------------------------|-----------------------------------------|
B|--------|--------|--------|--------------------13-13-----13-13------|--------------------13-13-----13-13------|
G|--------|--------|--------|-10-9--10-12-12-10--------12--------12---|-10-9--10-12-12-10--------12--------12---|
D|--------|--------|--------|-----------------------------------------|-----------------------------------------|
A|--------|--------|--------|-----------------------------------------|-----------------------------------------|
E|--------|--------|--------|-----------------------------------------|-----------------------------------------|


E|-----------------------------------------|-----------------------------------------|
B|--------------------13-13----------------|--------------------13-13----------------|
G|----9--10-12-12-10--------12--10-10-9----|----9--10-12-12-10--------12--10-10-9----|
D|-----------------------------------------|-----------------------------------------|
A|-----------------------------------------|-----------------------------------------|
E|-----------------------------------------|-----------------------------------------|


E|--------|--------|--------|--------|--------|--------|--------|--------|--------|
B|--------|--------|--------|--------|--------|--------|--------|--------|--------|
G|--------|--------|--------|--------|--------|--------|--------|--------|--------|
D|--------|--------|--------|--------|--------|--------|--------|--------|--------|
A|--------|--------|--------|--------|--------|--------|--------|--------|--------|
E|--------|--------|--------|--------|--------|--------|--------|--------|--------|


E|--------|--------|--------|--------|--------|--------|--------|--------|--------|
B|--------|--------|--------|--------|--------|--------|--------|--------|--------|
G|--------|--------|--------|--------|--------|--------|--------|--------|--------|
D|--------|--------|--------|--------|--------|--------|--------|--------|--------|
A|--------|--------|--------|--------|--------|--------|--------|--------|--------|
E|--------|--------|--------|--------|--------|--------|--------|--------|--------|


E|--------|
B|--------|
G|--------|
D|--------|
A|--------|
E|--------|





Track 5: Piano arr. for Guitar

E|--------|--------|--------|--------|--------|--------|--------|--------|--------|
B|--------|--------|--------|--------|--------|--------|--------|--------|--------|
G|--------|--------|--------|--------|--------|--------|--------|--------|--------|
D|--------|--------|--------|--------|--------|--------|--------|--------|--------|
A|--------|--------|--------|--------|--------|--------|--------|--------|--------|
E|--------|--------|--------|--------|--------|--------|--------|--------|--------|


E|--------|--------|--------|--------|--------|--------|--------|--------|--------|
B|--------|--------|--------|--------|--------|--------|--------|--------|--------|
G|--------|--------|--------|--------|--------|--------|--------|--------|--------|
D|--------|--------|--------|--------|--------|--------|--------|--------|--------|
A|--------|--------|--------|--------|--------|--------|--------|--------|--------|
E|--------|--------|--------|--------|--------|--------|--------|--------|--------|


E|--------|--------|--------|--------|--------|--------|--------|--------|--------|
B|--------|--------|--------|--------|--------|--------|--------|--------|--------|
G|--------|--------|--------|--------|--------|--------|--------|--------|--------|
D|--------|--------|--------|--------|--------|--------|--------|--------|--------|
A|--------|--------|--------|--------|--------|--------|--------|--------|--------|
E|--------|--------|--------|--------|--------|--------|--------|--------|--------|


E|--------|--------|--------|-13----13----13-12-|-13----13---13-13-13--|-12----10---8-------|
B|--------|--------|--------|-13----13----------|-13----13---13-13-13--|-13----12---10------|
G|--------|--------|--------|-14----14----------|-14----14---14-14-14--|-12----12---10------|
D|--------|--------|--------|-------------------|----------------------|--------------------|
A|--------|--------|--------|-------------------|----------------------|--------------------|
E|--------|--------|--------|-------------------|----------------------|--------------------|


E|--------|--------|--------|--------|--------|--------|--------|--------|--------|
B|--------|--------|--------|--------|--------|--------|--------|--------|--------|
G|--------|--------|--------|--------|--------|--------|--------|--------|--------|
D|--------|--------|--------|--------|--------|--------|--------|--------|--------|
A|--------|--------|--------|--------|--------|--------|--------|--------|--------|
E|--------|--------|--------|--------|--------|--------|--------|--------|--------|


E|--------|--------|--------|--------|--------|--------|--------|--------|--------|
B|--------|--------|--------|--------|--------|--------|--------|--------|--------|
G|--------|--------|--------|--------|--------|--------|--------|--------|--------|
D|--------|--------|--------|--------|--------|--------|--------|--------|--------|
A|--------|--------|--------|--------|--------|--------|--------|--------|--------|
E|--------|--------|--------|--------|--------|--------|--------|--------|--------|


E|--------|--------|
B|--------|--------|
G|--------|--------|
D|--------|--------|
A|--------|--------|
E|--------|--------|





Track 6: Elec.(clean)

E|--------|--------|--------|--------|--------|--------|--------|--------|--------|
B|--------|--------|--------|--------|--------|--------|--------|--------|--------|
G|--------|--------|--------|--------|--------|--------|--------|--------|--------|
D|--------|--------|--------|--------|--------|--------|--------|--------|--------|
A|--------|--------|--------|--------|--------|--------|--------|--------|--------|
E|--------|--------|--------|--------|--------|--------|--------|--------|--------|


E|--------|--------|--------|--------|--------|--------|--------|--------|--------|
B|--------|--------|--------|--------|--------|--------|--------|--------|--------|
G|--------|--------|--------|--------|--------|--------|--------|--------|--------|
D|--------|--------|--------|--------|--------|--------|--------|--------|--------|
A|--------|--------|--------|--------|--------|--------|--------|--------|--------|
E|--------|--------|--------|--------|--------|--------|--------|--------|--------|


E|--------|--------|--------|--------|--------|--------|--------|--------|--------|
B|--------|--------|--------|--------|--------|--------|--------|--------|--------|
G|--------|--------|--------|--------|--------|--------|--------|--------|--------|
D|--------|--------|--------|--------|--------|--------|--------|--------|--------|
A|--------|--------|--------|--------|--------|--------|--------|--------|--------|
E|--------|--------|--------|--------|--------|--------|--------|--------|--------|


E|--------|--------|--------|--------|--------|--------|--------|--------|--------|
B|--------|--------|--------|--------|--------|--------|--------|--------|--------|
G|--------|--------|--------|--------|--------|--------|--------|--------|--------|
D|--------|--------|--------|--------|--------|--------|--------|--------|--------|
A|--------|--------|--------|--------|--------|--------|--------|--------|--------|
E|--------|--------|--------|--------|--------|--------|--------|--------|--------|


E|--------|--------|--------|--------|--------|--------|--------|--------|--------|
B|--------|--------|--------|--------|--------|--------|--------|--------|--------|
G|--------|--------|--------|--------|--------|--------|--------|--------|--------|
D|--------|--------|--------|--------|--------|--------|--------|--------|--------|
A|--------|--------|--------|--------|--------|--------|--------|--------|--------|
E|--------|--------|--------|--------|--------|--------|--------|--------|--------|


E|--------|---------------------------------|---------------------------------|-----------------------------------|
B|--------|-8--8---6---5---6---6---5---3----|-8--8---6---5---6---5---3---3----|-8--8---6---5---6---5---3---5------|
G|--------|---------------------------------|---------------------------------|-----------------------------------|
D|--------|-9--9---7---5---7---7---5---3----|-9--9---7---5---7---5---3---3----|-9--9---7---5---7---5---3---5---5--|
A|--------|---------------------------------|---------------------------------|-----------------------------------|
E|--------|---------------------------------|---------------------------------|-----------------------------------|


E|-----------------------------------|---------------------------------------|-----------------------------------|
B|-8--8---6---5---6---5---3---1------|-8--8---6---5---6--6------5---3--3-----|-8--8---6---5---6---5---3---1------|
G|-----------------------------------|---------------------------------------|-----------------------------------|
D|-9--9---7---5---7---5---3---2---5--|-9--9---7---5---7--7--5-------3--3--3--|----9---7---5---7---5---3---2---2--|
A|-----------------------------------|---------------------------------------|-----------------------------------|
E|-----------------------------------|---------------------------------------|-----------------------------------|


E|--------|
B|-1------|
G|--------|
D|-2------|
A|--------|
E|--------|





Track 7: Bass

G|--------|--------|--------|------------2----|-------------------------------------|
D|--------|--------|--------|-----------------|-----------------3-------------------|
A|--------|--------|--------|-----------------|-3--3--3--3--3-------3---------------|
E|--------|--------|--------|-----------------|-----------------------------1--1----|


G|-------------------------------------|-------------------------------------|-------------------------------------|
D|-----------------3-------------------|-----------------3-------------------|-----------------3-------------------|
A|-3--3--3--3--3-------3---------------|-3--3--3--3--3-------3---------------|-3--3--3--3--3-------3---------------|
E|-----------------------------1--1----|-----------------------------1--1----|-----------------------------1--1----|


G|-------------------------------------|-------------------------------------|-------------------------------------|
D|-----------------3-------------------|-----------------3-------------------|-----------------3-------------------|
A|-3--3--3--3--3-------3---------------|-3--3--3--3--3-------3---------------|-3--3--3--3--3-------3---------------|
E|-----------------------------1--1----|-----------------------------1--1----|-----------------------------1--1----|


G|-------------------------------------|-------------------------------------|-------------------------------------|
D|-----------------3-------------------|-----------------3-------------------|-----------------3-------------------|
A|-3--3--3--3--3-------3---------------|-3--3--3--3--3-------3---------------|-3--3--3--3--3-------3---------------|
E|-----------------------------1--1----|-----------------------------1--1----|-----------------------------1--1----|


G|---------------------------------|---------------------------------|-7---7---7---7---5----5---4---|
D|-0---0---0---0-------------------|-5---5---5----5--5---5---5---5---|------------------------------|
A|-----------------3---3---3---3---|---------------------------------|------------------------------|
E|---------------------------------|---------------------------------|------------------------------|


G|---------------------------------|-------------------------------------|-------------------------------------|
D|-5---5---5---5---5---5---5--7----|-----------------3-------------------|-----------------3-------------------|
A|---------------------------------|-3--3--3--3--3-------3---------------|-3--3--3--3--3-------3---------------|
E|---------------------------------|-----------------------------1--1----|-----------------------------1--1----|


G|-------------------------------------|-------------------------------------|-------------------------------------|
D|-----------------3-------------------|-----------------3-------------------|-----------------3-------------------|
A|-3--3--3--3--3-------3---------------|-3--3--3--3--3-------3---------------|-3--3--3--3--3-------3---------------|
E|-----------------------------1--1----|-----------------------------1--1----|-----------------------------1--1----|


G|-------------------------------------|-------------------------------------|-------------------------------------|
D|-----------------3-------------------|-----------------3-------------------|-----------------3-------------------|
A|-3--3--3--3--3-------3---------------|-3--3--3--3--3-------3---------------|-3--3--3--3--3-------3---------------|
E|-----------------------------1--1----|-----------------------------1--1----|-----------------------------1--1----|


G|---------------------------------|---------------------------------|-7---7---7---7---5----5---4---|
D|-0---0---0---0-------------------|-5---5---5----5--5---5---5---5---|------------------------------|
A|-----------------3---3---3---3---|---------------------------------|------------------------------|
E|---------------------------------|---------------------------------|------------------------------|


G|-----------------------------------|--------------------------------------|---------------------------------------|
D|-5---5---5---5---5---5--5--5---5---|-3--3--3--3--3---3--3--3--3-----------|-3--3--3--3--3---3--3--3-------3-------|
A|-----------------------------------|---------------------------------3----|----------------------------------3----|
E|-----------------------------------|--------------------------------------|---------------------------------------|


G|-----------------------------------------|-----------------------------------------|
D|-----------------------------------------|-----------------5-----------------------|
A|-1--3--3--3--3---------3----------3--0---|-1--3--3--3--3------3--3----------3--0---|
E|-----------------1--1--------------------|-----------------------------------------|


G|-------------------------------------|-5--------------------------------|-5-----------------------------------|
D|-----------------3--------------3----|----------------------------------|-------------------------------------|
A|-3--3--3--3--3-------3---------------|----3--3--3--3---0---3------------|----3--3--3--3---0---3-----------0---|
E|-------------------------------------|----------------------------------|-------------------------------------|


G|-------------------------------------|-------------------------------------|-------------------------------------|
D|-----------------3-------------------|-----------------3-------------------|-----------------3-------------------|
A|-3--3--3--3--3-------3---------------|-3--3--3--3--3-------3---------------|-3--3--3--3--3-------3---------------|
E|-----------------------------1--1----|-----------------------------1--1----|-----------------------------1--1----|


G|-------------------------------------|-------------------------------------|-------------------------------------|
D|-----------------3-------------------|-----------------3-------------------|-----------------3-------------------|
A|-3--3--3--3--3-------3---------------|-3--3--3--3--3-------3---------------|-3--3--3--3--3-------3---------------|
E|-----------------------------1--1----|-----------------------------1--1----|-----------------------------1--1----|


G|-------------------------------------|-------------------------------------|-------------------------------------|
D|-----------------3-------------------|-----------------3-------------------|-----------------3-------------------|
A|-3--3--3--3--3-------3---------------|-3--3--3--3--3-------3---------------|-3--3--3--3--3-------3---------------|
E|-----------------------------1--1----|-----------------------------1--1----|-----------------------------1--1----|


G|-------------------------------------|-------------------------------------|-------------------------------------|
D|-----------------3-------------------|-----------------3-------------------|-----------------3-------------------|
A|-3--3--3--3--3-------3---------------|-3--3--3--3--3-------3---------------|-3--3--3--3--3-------3---------------|
E|-----------------------------1--1----|-----------------------------1--1----|-----------------------------1--1----|


G|-------------------------------------|-------------------------------------|-------------------------------------|
D|-----------------3-------------------|-----------------3-------------------|-----------------3---------------3---|
A|-3--3--3--3--3-------3---------------|-3--3--3--3--3-------3---------------|-3--3--3--3--3-------3---------------|
E|-----------------------------1--1----|-----------------------------1--1----|-------------------------------------|


G|--------|
D|--------|
A|-3------|
E|--------|