Site menu:

    

Browse: 0-9 A B C D E F G H I J K L N O P Q R S T U V W X Y Z

u2 - pride in the name of love:



Title: Pride (In the Name of Love)
Artist: 
Album: Unforgettable Fire
Author: U2


Track 1: Gtr. 3

E|-12--12--------------|------------|-12--12--------------|------------|--------|--------|
B|-12--12--------------|------------|-12--12--------------|------------|--------|--------|
G|---------------------|-7---7------|---------------------|-7---7------|--------|--------|
D|-----------7---7-----|-7---7------|-----------7---7-----|-7---7------|--------|--------|
A|-----------7---7-----|------------|-----------7---7-----|------------|--------|--------|
E|---------------------|------------|---------------------|------------|--------|--------|


E|--------|--------|--------|--------|--------|--------|--------|--------|--------|
B|--------|--------|--------|--------|--------|--------|--------|--------|--------|
G|--------|--------|--------|--------|--------|--------|--------|--------|--------|
D|--------|--------|--------|--------|--------|--------|--------|--------|--------|
A|--------|--------|--------|--------|--------|--------|--------|--------|--------|
E|--------|--------|--------|--------|--------|--------|--------|--------|--------|


E|--------|--------|--------|--------|--------|--------|--------|--------|--------|
B|--------|--------|--------|--------|--------|--------|--------|--------|--------|
G|--------|--------|--------|--------|--------|--------|--------|--------|--------|
D|--------|--------|--------|--------|--------|--------|--------|--------|--------|
A|--------|--------|--------|--------|--------|--------|--------|--------|--------|
E|--------|--------|--------|--------|--------|--------|--------|--------|--------|


E|--------|--------|--------|--------|--------|--------|--------|--------|--------|
B|--------|--------|--------|--------|--------|--------|--------|--------|--------|
G|--------|--------|--------|--------|--------|--------|--------|--------|--------|
D|--------|--------|--------|--------|--------|--------|--------|--------|--------|
A|--------|--------|--------|--------|--------|--------|--------|--------|--------|
E|--------|--------|--------|--------|--------|--------|--------|--------|--------|


E|--------|--------|--------|--------|--------|--------|--------|--------|--------|
B|--------|--------|--------|--------|--------|--------|--------|--------|--------|
G|--------|--------|--------|--------|--------|--------|--------|--------|--------|
D|--------|--------|--------|--------|--------|--------|--------|--------|--------|
A|--------|--------|--------|--------|--------|--------|--------|--------|--------|
E|--------|--------|--------|--------|--------|--------|--------|--------|--------|


E|--------|--------|-----11-12-14-11-12-14-11-12-14-11-12-14-14-14-|-14-14-11-12-14-11-12-14-11-12-14-11-12-14-14-14-|
B|--------|--------|-----------------------------------------14-14-|-14-14-------------------------------------14-14-|
G|--------|--------|-----------------------------------------------|-------------------------------------------------|
D|--------|--------|-----------------------------------------------|-------------------------------------------------|
A|--------|--------|-----------------------------------------------|-------------------------------------------------|
E|--------|--------|-----------------------------------------------|-------------------------------------------------|


E|-14-14-11-12-14-11-12-14-11-12-14-11-12-14-14-14-|-14-14-11-12-14-11-12-14-11-12-14-11-12-14-14-14-|
B|-14-14-------------------------------------14-14-|-14-14-------------------------------------14-14-|
G|-------------------------------------------------|-------------------------------------------------|
D|-------------------------------------------------|-------------------------------------------------|
A|-------------------------------------------------|-------------------------------------------------|
E|-------------------------------------------------|-------------------------------------------------|


E|-14-14-11-12-14-11-12-14-11-12-14-11-12-14-14-14-|-14-14-11-12-14-11-12-14-11-12-14-11-12-14-14-14-|
B|-14-14-------------------------------------14-14-|-14-14-------------------------------------14-14-|
G|-------------------------------------------------|-------------------------------------------------|
D|-------------------------------------------------|-------------------------------------------------|
A|-------------------------------------------------|-------------------------------------------------|
E|-------------------------------------------------|-------------------------------------------------|


E|-14-14-11-12-14-11-12-14-11-12-14-11-12-14-14-14-|-14-14-11-12-14-11-12-14-11-12-14-11-12-14-14-14-|
B|-14-14-------------------------------------14-14-|-14-14-------------------------------------14-14-|
G|-------------------------------------------------|-------------------------------------------------|
D|-------------------------------------------------|-------------------------------------------------|
A|-------------------------------------------------|-------------------------------------------------|
E|-------------------------------------------------|-------------------------------------------------|


E|-14-14-----2---2--0------2----0------|-2---2--0------2----0------2----|---------------------------|
B|-14-14-0-------------0-----------0---|-----------0-----------0--------|-0---0---2----0---2----0---|
G|-------------------------------------|--------------------------------|---------------------------|
D|-------------------------------------|--------------------------------|---------------------------|
A|-------------------------------------|--------------------------------|---------------------------|
E|-------------------------------------|--------------------------------|---------------------------|


E|---------------------------------|---------14--14-14-----14-14-12-14-----|-14-----14-----14-14----14-------14-------14-|
B|-2---2---0---2---0---5---0---2---|-0---12------------12--------------12--|-----12----12--------12----12-12----12-12----|
G|---------------------------------|---------------------------------------|---------------------------------------------|
D|---------------------------------|---------------------------------------|---------------------------------------------|
A|---------------------------------|---------------------------------------|---------------------------------------------|
E|---------------------------------|---------------------------------------|---------------------------------------------|


E|-----------------------------------|--------------------------------|---------2--------2--------|
B|-12--12--14--14-14-12--14---14-12--|-14--14-14-12--14---14-12--14---|-----0--------0--------0---|
G|-----------------------------------|--------------------------------|---------------------------|
D|-----------------------------------|--------------------------------|---------------------------|
A|-----------------------------------|--------------------------------|---------------------------|
E|-----------------------------------|--------------------------------|---------------------------|


E|-2---2------|------------|------------|--------|--------|--------|--------|--------|
B|------------|------------|------------|--------|--------|--------|--------|--------|
G|------------|------------|------------|--------|--------|--------|--------|--------|
D|------------|------------|------------|--------|--------|--------|--------|--------|
A|------------|------------|------------|--------|--------|--------|--------|--------|
E|------------|------------|------------|--------|--------|--------|--------|--------|


E|--------|--------|--------|---------2---2--0------2----2------|-2---2--2------2---2-------2----|
B|--------|--------|--------|-----0-------------0-----------0---|-----------0-----------0--------|
G|--------|--------|--------|-----------------------------------|--------------------------------|
D|--------|--------|--------|-----------------------------------|--------------------------------|
A|--------|--------|--------|-----------------------------------|--------------------------------|
E|--------|--------|--------|-----------------------------------|--------------------------------|


E|---------------------------|---------------------------------|---------14--14-14-----14-----14-----|
B|-0---0---2----0---2----0---|-2---2---0---2---0---5---0---4---|-0---12------------12------12----12--|
G|---------------------------|---------------------------------|-------------------------------------|
D|---------------------------|---------------------------------|-------------------------------------|
A|---------------------------|---------------------------------|-------------------------------------|
E|---------------------------|---------------------------------|-------------------------------------|


E|-14-------14-----14-------14-------14-------14-|-----------------------------------|
B|----12-12----12-----12-12----12-12----12-12----|-12--12--14--14-14-12--14---14-12--|
G|-----------------------------------------------|-----------------------------------|
D|-----------------------------------------------|-----------------------------------|
A|-----------------------------------------------|-----------------------------------|
E|-----------------------------------------------|-----------------------------------|


E|--------------------------------|---------2---2--0------2----2------|-2---2--2------2---2-------2----|
B|-14--14-14-12--14--12--17---16--|-0---0-------------0-----------0---|-----------0-----------0--------|
G|--------------------------------|-----------------------------------|--------------------------------|
D|--------------------------------|-----------------------------------|--------------------------------|
A|--------------------------------|-----------------------------------|--------------------------------|
E|--------------------------------|-----------------------------------|--------------------------------|


E|---------------------------|---------------------------------|---------14--14-14-----14-----14-----|
B|-0---0---2----0---2----0---|-2---2---0---2---0---5---0---4---|-0---12------------12------12----12--|
G|---------------------------|---------------------------------|-------------------------------------|
D|---------------------------|---------------------------------|-------------------------------------|
A|---------------------------|---------------------------------|-------------------------------------|
E|---------------------------|---------------------------------|-------------------------------------|


E|-14-------14-----14-------14-------14-------14-|-----------------------------------|
B|----12-12----12-----12-12----12-12----12-12----|-12--12--14--14-14-12--14---14-12--|
G|-----------------------------------------------|-----------------------------------|
D|-----------------------------------------------|-----------------------------------|
A|-----------------------------------------------|-----------------------------------|
E|-----------------------------------------------|-----------------------------------|


E|-------------------------------------|---------14--14-14-----14-14-12-14-----|-14--2--2------2----2------2----|
B|-14--14-14-12--14-12--14-12--14--12--|-0---12------------12--------------12--|-----------0-----------0--------|
G|-------------------------------------|---------------------------------------|--------------------------------|
D|-------------------------------------|---------------------------------------|--------------------------------|
A|-------------------------------------|---------------------------------------|--------------------------------|
E|-------------------------------------|---------------------------------------|--------------------------------|


E|---------------------------|---------------------------------|---------14--14-14-----14-14-12-14-----|
B|-0---0---2----0---2----0---|-2---2---0---2---0---5---0---4---|-0---12------------12--------------12--|
G|---------------------------|---------------------------------|---------------------------------------|
D|---------------------------|---------------------------------|---------------------------------------|
A|---------------------------|---------------------------------|---------------------------------------|
E|---------------------------|---------------------------------|---------------------------------------|


E|-14--2--2------2----2------2----|---------------------------|---------------------------------|
B|-----------0-----------0--------|-0---0---2----0---2----0---|-2---2---0---2---0---5---0---4---|
G|--------------------------------|---------------------------|---------------------------------|
D|--------------------------------|---------------------------|---------------------------------|
A|--------------------------------|---------------------------|---------------------------------|
E|--------------------------------|---------------------------|---------------------------------|


E|---------2---2--0------2----2------|-2------14-----14-14----14-------14-------14-|
B|-0---0-------------0-----------0---|-----12----12--------12----12-12----12-12----|
G|-----------------------------------|---------------------------------------------|
D|-----------------------------------|---------------------------------------------|
A|-----------------------------------|---------------------------------------------|
E|-----------------------------------|---------------------------------------------|


E|-----------------------------------|--------------------------------|--------|
B|-12--12--14--14-14-12--14---14-12--|-14--14-14-12--14---14-12--14---|--------|
G|-----------------------------------|--------------------------------|--------|
D|-----------------------------------|--------------------------------|--------|
A|-----------------------------------|--------------------------------|--------|
E|-----------------------------------|--------------------------------|--------|





Track 2: Gtr. 1

E|-----12-12-12-12-12-12-12-12-12-12-12-12-12-12-|-12-12-7--7--7--7--7--7--7--7--------------------|
B|-----12-12-12-12-12-12-12-12-12-12-12-12-12-12-|-12-12-7--7--7--7--7--7--7--7--7--7--7--7--7--7--|
G|-----12-12-12-12-12-12-12-12-12-12-12-12-12-12-|-12-12-------7-----7--7--7--7--7--7--7--7--7--7--|
D|-----------------------------------------------|-------------------------------------------------|
A|-----------------------------------------------|-------------------------------------------------|
E|-----------------------------------------------|-------------------------------------------------|


E|-------7--7--7--7--7--7--7--7--7--7--7--7--7--7--|-7--7--7--7--7--7--7--7--7--7--7--7--7--7--7--7--|
B|-7--7--7--7--7--7--7--7--7--7--7--7--7--7--7--7--|-7--7--7--7-----7--7--7--7--7--7--7--7--7--7--7--|
G|-7--7--7--7--7--7--7--7--7--7--7--7--7--7--7--7--|-7--7--------------------------------------------|
D|-------------------------------------------------|-------------------------------------------------|
A|-------------------------------------------------|-------------------------------------------------|
E|-------------------------------------------------|-------------------------------------------------|


E|-7--7--------------------------------------------|-------------------------------------------------|
B|-7--7--12-12-12-12-12-12-12-12-12-12-12-12-12-12-|-12-12-12-12-12-12-12-12-12-12-12-12-12-12-12-12-|
G|-------11-11-11-11-11-9--9--9--11-9--9--9--11-9--|-9--9--11-11-11-11-11-9--9--9--11-9--9--9--11-9--|
D|-------------------------------------------------|-------------------------------------------------|
A|-------------------------------------------------|-------------------------------------------------|
E|-------------------------------------------------|-------------------------------------------------|


E|-------9--9--9--9--9--9--9--9--9--9--9--9--9--9--|-9--9--9--9--9--9--9--9--9--9--9--9--9--9--9--9--|
B|-12-12-10-10-10-10-10-9--9--9--10-9--9--9--10-9--|-9--9--10-10-10-10-10-9--9--9--10-9--9--9--10-9--|
G|-9--9--9--9--9--9--9--9--9--9--9--9--9--9--9--9--|-9--9--11-11-11-11-11-11-11-11-11-11-11-11-11-11-|
D|-------------------------------------------------|-------------------------------------------------|
A|-------------------------------------------------|-------------------------------------------------|
E|-------------------------------------------------|-------------------------------------------------|


E|-9--9--------------------------------------------|-------------------------------------------------|
B|-9--9--12-12-12-12-12-12-12-12-12-12-12-12-12-12-|-12-12-12-12-12-12-12-12-12-12-12-12-12-12-12-12-|
G|-11-11-11-11-11-11-11-9--9--9--11-9--9--9--11-9--|-9--9--11-11-11-11-11-9--9--9--11-9--9--9--11-9--|
D|-------------------------------------------------|-------------------------------------------------|
A|-------------------------------------------------|-------------------------------------------------|
E|-------------------------------------------------|-------------------------------------------------|


E|-------9--9--9--9--9--9--9--9--9--9--9--9--9--9--|-9--9--9--9--9--9--9--9--9--9--9--9--9--9--9--9--|
B|-12-12-10-10-10-10-10-9--9--9--10-9--9--9--10-9--|-9--9--10-10-10-10-10-9--9--9--10-9--9--9--10-9--|
G|-9--9--9--9--9--9--9--9--9--9--9--9--9--9--9--9--|-9--9--11-11-11-11-11-11-11-11-11-11-11-11-11-11-|
D|-------------------------------------------------|-------------------------------------------------|
A|-------------------------------------------------|-------------------------------------------------|
E|-------------------------------------------------|-------------------------------------------------|


E|-9--9--------------------------------------------|-------------------------------------------------|
B|-9--9--12-12-12-12-12-12-12-12-12-12-12-12-12-12-|-12-12-12-12-12-12-12-12-12-12-12-12-12-12-12-12-|
G|-11-11-11-11-11-11-11-9--9--9--11-9--9--9--11-9--|-9--9--11-11-11-11-11-9--9--9--11-9--9--9--11-9--|
D|-------------------------------------------------|-------------------------------------------------|
A|-------------------------------------------------|-------------------------------------------------|
E|-------------------------------------------------|-------------------------------------------------|


E|-------9--9--9--9--9--9--9--9--9--9--9--9--9--9--|-9--9--9--9--9--9--9--9--9--9--9--9--9--9--9--9--|
B|-12-12-10-10-10-10-10-9--9--9--10-9--9--9--10-9--|-9--9--10-10-10-10-10-9--9--9--10-9--9--9--10-9--|
G|-9--9--9--9--9--9--9--9--9--9--9--9--9--9--9--9--|-9--9--11-11-11-11-11-11-11-11-11-11-11-11-11-11-|
D|-------------------------------------------------|-------------------------------------------------|
A|-------------------------------------------------|-------------------------------------------------|
E|-------------------------------------------------|-------------------------------------------------|


E|-9--9--------------------------------------------|-------------------------------------------------|
B|-9--9--12-12-12-12-12-12-12-12-12-12-12-12-12-12-|-12-12-12-12-12-12-12-12-12-12-12-12-12-12-12-12-|
G|-11-11-11-11-11-11-11-9--9--9--11-9--9--9--11-9--|-9--9--11-11-11-11-11-9--9--9--11-9--9--9--11-9--|
D|-------------------------------------------------|-------------------------------------------------|
A|-------------------------------------------------|-------------------------------------------------|
E|-------------------------------------------------|-------------------------------------------------|


E|-------9--9--9--9--9--9--9--9--9--9--9--9--9--9--|-9--9--9--9--9--9--9--9--9--9--9--9--9--9--9--9--|
B|-12-12-10-10-10-10-10-9--9--9--10-9--9--9--10-9--|-9--9--10-10-10-10-10-9--9--9--10-9--9--9--10-9--|
G|-9--9--9--9--9--9--9--9--9--9--9--9--9--9--9--9--|-9--9--11-11-11-11-11-11-11-11-11-11-11-11-11-11-|
D|-------------------------------------------------|-------------------------------------------------|
A|-------------------------------------------------|-------------------------------------------------|
E|-------------------------------------------------|-------------------------------------------------|


E|-9--9--------------------------------------------|-------------------------------------------------|
B|-9--9--12-12-12-12-12-12-12-12-12-12-12-12-12-12-|-12-12-12-12-12-12-12-12-12-12-12-12-12-12-12-12-|
G|-11-11-11-11-11-11-11-9--9--9--11-9--9--9--11-9--|-9--9--11-11-11-11-11-9--9--9--11-9--9--9--11-9--|
D|-------------------------------------------------|-------------------------------------------------|
A|-------------------------------------------------|-------------------------------------------------|
E|-------------------------------------------------|-------------------------------------------------|


E|-------9--9--9--9--9--9--9--9--9--9--9--9--9--9--|-9--9--9--9--9--9--9--9--9--9--9--9--9--9--9--9--|
B|-12-12-10-10-10-10-10-9--9--9--10-9--9--9--10-9--|-9--9--10-10-10-10-10-9--9--9--10-9--9--9--10-9--|
G|-9--9--9--9--9--9--9--9--9--9--9--9--9--9--9--9--|-9--9--11-11-11-11-11-11-11-11-11-11-11-11-11-11-|
D|-------------------------------------------------|-------------------------------------------------|
A|-------------------------------------------------|-------------------------------------------------|
E|-------------------------------------------------|-------------------------------------------------|


E|-9--9--------------------------------------------|-------------------------------------------------|
B|-9--9--12-12-12-12-12-12-12-12-12-12-12-12-12-12-|-12-12-12-12-12-12-12-12-12-12-12-12-12-12-12-12-|
G|-11-11-11-11-11-11-11-9--9--9--11-9--9--9--11-9--|-9--9--11-11-11-11-11-9--9--9--11-9--9--9--11-9--|
D|-------------------------------------------------|-------------------------------------------------|
A|-------------------------------------------------|-------------------------------------------------|
E|-------------------------------------------------|-------------------------------------------------|


E|-------9--9--9--9--9--9--9--9--9--9--9--9--9--9--|-9--9--9--9--9--9--9--9--9--9--9--9--9--9--9--9--|
B|-12-12-10-10-10-10-10-9--9--9--10-9--9--9--10-9--|-9--9--10-10-10-10-10-9--9--9--10-9--9--9--10-9--|
G|-9--9--9--9--9--9--9--9--9--9--9--9--9--9--9--9--|-9--9--11-11-11-11-11-11-11-11-11-11-11-11-11-11-|
D|-------------------------------------------------|-------------------------------------------------|
A|-------------------------------------------------|-------------------------------------------------|
E|-------------------------------------------------|-------------------------------------------------|


E|-9--9----------0-------------------|------------|-------------0-------------------|
B|-9--9--------------0---------------|------------|-----------------0---------------|
G|-11-11-----------------8-----------|------------|---------------------6-----------|
D|-----------9---------------9-------|------------|---------7---------------7-------|
A|-------------------------------9---|-----9------|-----------------------------7---|
E|-------7---------------------------|------------|-----5---------------------------|


E|------------|-------------0-------------------|------------|-----------------0---------------|
B|------------|-----------------0---------------|------------|-------------0-------0-----------|
G|------------|---------------------8-----------|------------|-------------------------6-------|
D|------------|---------9---------------9-------|------------|---------7-------------------7---|
A|-----7------|-----------------------------9---|-----9------|---------------------------------|
E|------------|-----7---------------------------|------------|-----5---------------------------|


E|-----------0--0--0--0--0--0--|-0--0--------------------------------------------|
B|-----------0--0--0--0--0--0--|-0--0--12-12-12-12-12-12-12-12-12-12-12-12-12-12-|
G|-----------------------------|-------11-11-11-11-11-9--9--9--11-9--9--9--11-9--|
D|-----7-----------------------|-------------------------------------------------|
A|-----------------------------|-------------------------------------------------|
E|-----------------------------|-------------------------------------------------|


E|-------------------------------------------------|-------9--9--9--9--9--9--9--9--9--9--9--9--9--9--|
B|-12-12-12-12-12-12-12-12-12-12-12-12-12-12-12-12-|-12-12-10-10-10-10-10-9--9--9--10-9--9--9--10-9--|
G|-9--9--11-11-11-11-11-9--9--9--11-9--9--9--11-9--|-9--9--9--9--9--9--9--9--9--9--9--9--9--9--9--9--|
D|-------------------------------------------------|-------------------------------------------------|
A|-------------------------------------------------|-------------------------------------------------|
E|-------------------------------------------------|-------------------------------------------------|


E|-9--9--9--9--9--9--9--9--9--9--9--9--9--9--9--9--|-9--9--------------------------------------------|
B|-9--9--10-10-10-10-10-9--9--9--10-9--9--9--10-9--|-9--9--12-12-12-12-12-12-12-12-12-12-12-12-12-12-|
G|-9--9--11-11-11-11-11-11-11-11-11-11-11-11-11-11-|-11-11-11-11-11-11-11-9--9--9--11-9--9--9--11-9--|
D|-------------------------------------------------|-------------------------------------------------|
A|-------------------------------------------------|-------------------------------------------------|
E|-------------------------------------------------|-------------------------------------------------|


E|-------------------------------------------------|-------9--9--9--9--9--9--9--9--9--9--9--9--9--9--|
B|-12-12-12-12-12-12-12-12-12-12-12-12-12-12-12-12-|-12-12-10-10-10-10-10-9--9--9--10-9--9--9--10-9--|
G|-9--9--11-11-11-11-11-9--9--9--11-9--9--9--11-9--|-9--9--9--9--9--9--9--9--9--9--9--9--9--9--9--9--|
D|-------------------------------------------------|-------------------------------------------------|
A|-------------------------------------------------|-------------------------------------------------|
E|-------------------------------------------------|-------------------------------------------------|


E|-9--9--9--9--9--9--9--9--9--9--9--9--9--9--9--9--|-9--9----------------------------------------|
B|-9--9--10-10-10-10-10-9--9--9--10-9--9--9--10-9--|-9--9--0--0--0--0--0--0--0--0--0---12--12-12-|
G|-9--9--11-11-11-11-11-11-11-11-11-11-11-11-11-11-|-11-11---------------------------------------|
D|-------------------------------------------------|---------------------------------------------|
A|-------------------------------------------------|---------------------------------------------|
E|-------------------------------------------------|---------------------------------------------|


E|-------------------------------------------|-------------------------------------------|
B|-12--0--0--0--0--0--0--0--0--0---12--12-12-|-12--0--0--0--0--0--0--0--0--0---12--12-12-|
G|-------------------------------------------|-------------------------------------------|
D|-------------------------------------------|-------------------------------------------|
A|-------------------------------------------|-------------------------------------------|
E|-------------------------------------------|-------------------------------------------|


E|-------------------------------------------|-------------------------------------------|
B|-12--0--0--0--0--0--0--0--0--0---12--12-12-|-12--0--0--0--0--0--0--0--0--0---12--12-12-|
G|-------------------------------------------|-------------------------------------------|
D|-------------------------------------------|-------------------------------------------|
A|-------------------------------------------|-------------------------------------------|
E|-------------------------------------------|-------------------------------------------|


E|-------------------------------------------|-------------------------------------------|
B|-12--0--0--0--0--0--0--0--0--0---12--12-12-|-12--0--0--0--0--0--0--0--0--0---12--12-12-|
G|-------------------------------------------|-------------------------------------------|
D|-------------------------------------------|-------------------------------------------|
A|-------------------------------------------|-------------------------------------------|
E|-------------------------------------------|-------------------------------------------|


E|-------------------------------------------|-----------------------------------------------|
B|-12--0--0--0--0--0--0--0--0--0---12--12-12-|-12--12-12-12-12-12-12-12-12-12-12-12-12-12-12-|
G|-------------------------------------------|-----11-11-11-11-11-9--9--9--11-9--9--9--11-9--|
D|-------------------------------------------|-----------------------------------------------|
A|-------------------------------------------|-----------------------------------------------|
E|-------------------------------------------|-----------------------------------------------|


E|-------------------------------------------------|-------9--9--9--9--9--9--9--9--9--9--9--9--9--9--|
B|-12-12-12-12-12-12-12-12-12-12-12-12-12-12-12-12-|-12-12-10-10-10-10-10-9--9--9--10-9--9--9--10-9--|
G|-9--9--11-11-11-11-11-9--9--9--11-9--9--9--11-9--|-9--9--9--9--9--9--9--9--9--9--9--9--9--9--9--9--|
D|-------------------------------------------------|-------------------------------------------------|
A|-------------------------------------------------|-------------------------------------------------|
E|-------------------------------------------------|-------------------------------------------------|


E|-9--9--9--9--9--9--9--9--9--9--9--9--9--9--9--9--|-9--9--------------------------------------------|
B|-9--9--10-10-10-10-10-9--9--9--10-9--9--9--10-9--|-9--9--12-12-12-12-12-12-12-12-12-12-12-12-12-12-|
G|-9--9--11-11-11-11-11-11-11-11-11-11-11-11-11-11-|-11-11-11-11-11-11-11-9--9--9--11-9--9--9--11-9--|
D|-------------------------------------------------|-------------------------------------------------|
A|-------------------------------------------------|-------------------------------------------------|
E|-------------------------------------------------|-------------------------------------------------|


E|-------------------------------------------------|-------9--9--9--9--9--9--9--9--9--9--9--9--9--9--|
B|-12-12-12-12-12-12-12-12-12-12-12-12-12-12-12-12-|-12-12-10-10-10-10-10-9--9--9--10-9--9--9--10-9--|
G|-9--9--11-11-11-11-11-9--9--9--11-9--9--9--11-9--|-9--9--9--9--9--9--9--9--9--9--9--9--9--9--9--9--|
D|-------------------------------------------------|-------------------------------------------------|
A|-------------------------------------------------|-------------------------------------------------|
E|-------------------------------------------------|-------------------------------------------------|


E|-9--9--9--9--9--9--9--9--9--9--9--9--9--9--9--9--|-9--9----------0-------------------|
B|-9--9--10-10-10-10-10-9--9--9--10-9--9--9--10-9--|-9--9--------------0---------------|
G|-9--9--11-11-11-11-11-11-11-11-11-11-11-11-11-11-|-11-11-----------------8-----------|
D|-------------------------------------------------|-----------9---------------9-------|
A|-------------------------------------------------|-------------------------------9---|
E|-------------------------------------------------|-------7---------------------------|


E|------------|-------------0-------------------|------------|-------------0-------------------|
B|------------|-----------------0---------------|------------|-----------------0---------------|
G|------------|---------------------6-----------|------------|---------------------8-----------|
D|------------|---------7---------------7-------|------------|---------9---------------9-------|
A|-----9------|-----------------------------7---|-----7------|-----------------------------9---|
E|------------|-----5---------------------------|------------|-----7---------------------------|


E|------------|-------------0-------------------|------------|-------------0-------------------|
B|------------|-----------------0---------------|------------|-----------------0---------------|
G|------------|---------------------6-----------|------------|---------------------8-----------|
D|------------|---------7---------------7-------|------------|---------9---------------9-------|
A|-----9------|-----------------------------7---|-----7------|-----------------------------9---|
E|------------|-----5---------------------------|------------|-----7---------------------------|


E|------------|-----------------0---------------|---------------------------|-------------------------------------------------|
B|------------|-------------0-------0-----------|---------------12-12-12-12-|-12-12-12-12-12-12-12-12-12-12-12-12-12-12-12-12-|
G|------------|-------------------------6-------|---------------11-11-11-11-|-11-11-11-11-11-11-11-9--9--9--11-9--9--9--11-9--|
D|------------|---------7-------------------7---|-----7-----7---------------|-------------------------------------------------|
A|-----9------|---------------------------------|---------------------------|-------------------------------------------------|
E|------------|-----5---------------------------|---------------------------|-------------------------------------------------|


E|-------------------------------------------------|-------9--9--9--9--9--9--9--9--9--9--9--9--9--9--|
B|-12-12-12-12-12-12-12-12-12-12-12-12-12-12-12-12-|-12-12-10-10-10-10-10-9--9--9--10-9--9--9--10-9--|
G|-9--9--11-11-11-11-11-9--9--9--11-9--9--9--11-9--|-9--9--9--9--9--9--9--9--9--9--9--9--9--9--9--9--|
D|-------------------------------------------------|-------------------------------------------------|
A|-------------------------------------------------|-------------------------------------------------|
E|-------------------------------------------------|-------------------------------------------------|


E|-9--9--9--9--9--9--9--9--9--9--9--9--9--9--9--9--|-9--9--------------------------------------------|
B|-9--9--10-10-10-10-10-9--9--9--10-9--9--9--10-9--|-9--9--12-12-12-12-12-12-12-12-12-12-12-12-12-12-|
G|-9--9--11-11-11-11-11-11-11-11-11-11-11-11-11-11-|-11-11-11-11-11-11-11-9--9--9--11-9--9--9--11-9--|
D|-------------------------------------------------|-------------------------------------------------|
A|-------------------------------------------------|-------------------------------------------------|
E|-------------------------------------------------|-------------------------------------------------|


E|-------------------------------------------------|-------9--9--9--9--9--9--9--9--9--9--9--9--9--9--|
B|-12-12-12-12-12-12-12-12-12-12-12-12-12-12-12-12-|-12-12-10-10-10-10-10-9--9--9--10-9--9--9--10-9--|
G|-9--9--11-11-11-11-11-9--9--9--11-9--9--9--11-9--|-9--9--9--9--9--9--9--9--9--9--9--9--9--9--9--9--|
D|-------------------------------------------------|-------------------------------------------------|
A|-------------------------------------------------|-------------------------------------------------|
E|-------------------------------------------------|-------------------------------------------------|


E|-9--9--9--9--9--9--9--9--9--9--9--9--9--9--9--9--|-9--9--------------------------------------------|
B|-9--9--10-10-10-10-10-9--9--9--10-9--9--9--10-9--|-9--9--12-12-12-12-12-12-12-12-12-12-12-12-12-12-|
G|-9--9--11-11-11-11-11-11-11-11-11-11-11-11-11-11-|-11-11-11-11-11-11-11-9--9--9--11-9--9--9--11-9--|
D|-------------------------------------------------|-------------------------------------------------|
A|-------------------------------------------------|-------------------------------------------------|
E|-------------------------------------------------|-------------------------------------------------|


E|-------------------------------------------------|-------9--9--9--9--9--9--9--9--9--9--9--9--9--9--|
B|-12-12-12-12-12-12-12-12-12-12-12-12-12-12-12-12-|-12-12-10-10-10-10-10-9--9--9--10-9--9--9--10-9--|
G|-9--9--11-11-11-11-11-9--9--9--11-9--9--9--11-9--|-9--9--9--9--9--9--9--9--9--9--9--9--9--9--9--9--|
D|-------------------------------------------------|-------------------------------------------------|
A|-------------------------------------------------|-------------------------------------------------|
E|-------------------------------------------------|-------------------------------------------------|


E|-9--9--9--9--9--9--9--9--9--9--9--9--9--9--9--9--|-9--9--------------------------------------------|
B|-9--9--10-10-10-10-10-9--9--9--10-9--9--9--10-9--|-9--9--12-12-12-12-12-12-12-12-12-12-12-12-12-12-|
G|-9--9--11-11-11-11-11-11-11-11-11-11-11-11-11-11-|-11-11-11-11-11-11-11-9--9--9--11-9--9--9--11-9--|
D|-------------------------------------------------|-------------------------------------------------|
A|-------------------------------------------------|-------------------------------------------------|
E|-------------------------------------------------|-------------------------------------------------|


E|-------------------------------------------------|-------9--9--9--9--9--9--9--9--9--9--9--9--9--9--|
B|-12-12-12-12-12-12-12-12-12-12-12-12-12-12-12-12-|-12-12-10-10-10-10-10-9--9--9--10-9--9--9--10-9--|
G|-9--9--11-11-11-11-11-9--9--9--11-9--9--9--11-9--|-9--9--9--9--9--9--9--9--9--9--9--9--9--9--9--9--|
D|-------------------------------------------------|-------------------------------------------------|
A|-------------------------------------------------|-------------------------------------------------|
E|-------------------------------------------------|-------------------------------------------------|


E|-9--9--9--9--9--9--9--9--9--9--9--9--9--9--9--9--|-9--9--------------------------------------------|
B|-9--9--10-10-10-10-10-9--9--9--10-9--9--9--10-9--|-9--9--12-12-12-12-12-12-12-12-12-12-12-12-12-12-|
G|-9--9--11-11-11-11-11-11-11-11-11-11-11-11-11-11-|-11-11-11-11-11-11-11-9--9--9--11-9--9--9--11-9--|
D|-------------------------------------------------|-------------------------------------------------|
A|-------------------------------------------------|-------------------------------------------------|
E|-------------------------------------------------|-------------------------------------------------|


E|-------------------------------------------------|-------9--9--9--9--9--9--9--9--9--9--9--9--9--9--|
B|-12-12-12-12-12-12-12-12-12-12-12-12-12-12-12-12-|-12-12-10-10-10-10-10-9--9--9--10-9--9--9--10-9--|
G|-9--9--11-11-11-11-11-9--9--9--11-9--9--9--11-9--|-9--9--9--9--9--9--9--9--9--9--9--9--9--9--9--9--|
D|-------------------------------------------------|-------------------------------------------------|
A|-------------------------------------------------|-------------------------------------------------|
E|-------------------------------------------------|-------------------------------------------------|


E|-9--9--9--9--9--9--9--9--9--9--9--9--9--9--9--9--|-9--9--------------------------------------------|
B|-9--9--10-10-10-10-10-9--9--9--10-9--9--9--10-9--|-9--9--12-12-12-12-12-12-12-12-12-12-12-12-12-12-|
G|-9--9--11-11-11-11-11-11-11-11-11-11-11-11-11-11-|-11-11-11-11-11-11-11-9--9--9--11-9--9--9--11-9--|
D|-------------------------------------------------|-------------------------------------------------|
A|-------------------------------------------------|-------------------------------------------------|
E|-------------------------------------------------|-------------------------------------------------|


E|-------------------------------------------------|-------9--9--9--9--9--9--9--9--9--9--9--9--9--9--|
B|-12-12-12-12-12-12-12-12-12-12-12-12-12-12-12-12-|-12-12-10-10-10-10-10-9--9--9--10-9--9--9--10-9--|
G|-9--9--11-11-11-11-11-9--9--9--11-9--9--9--11-9--|-9--9--9--9--9--9--9--9--9--9--9--9--9--9--9--9--|
D|-------------------------------------------------|-------------------------------------------------|
A|-------------------------------------------------|-------------------------------------------------|
E|-------------------------------------------------|-------------------------------------------------|


E|-9--9--9--9--9--9--9--9--9--9--9--9--9--9--9--9--|-9--9--------------------------------------------|
B|-9--9--10-10-10-10-10-9--9--9--10-9--9--9--10-9--|-9--9--12-12-12-12-12-12-12-12-12-12-12-12-12-12-|
G|-9--9--11-11-11-11-11-11-11-11-11-11-11-11-11-11-|-11-11-11-11-11-11-11-9--9--9--11-9--9--9--11-9--|
D|-------------------------------------------------|-------------------------------------------------|
A|-------------------------------------------------|-------------------------------------------------|
E|-------------------------------------------------|-------------------------------------------------|


E|-------------------------------------------------|-------9--9--9--9--9--9--9--9--9--9--9--9--9--9--|
B|-12-12-12-12-12-12-12-12-12-12-12-12-12-12-12-12-|-12-12-10-10-10-10-10-9--9--9--10-9--9--9--10-9--|
G|-9--9--11-11-11-11-11-9--9--9--11-9--9--9--11-9--|-9--9--9--9--9--9--9--9--9--9--9--9--9--9--9--9--|
D|-------------------------------------------------|-------------------------------------------------|
A|-------------------------------------------------|-------------------------------------------------|
E|-------------------------------------------------|-------------------------------------------------|


E|-9--9--9--9--9--9--9--9--9--9--9--9--9--9--9--9--|-9--9-------------|
B|-9--9--10-10-10-10-10-9--9--9--10-9--9--9--10-9--|-9--9-------------|
G|-9--9--11-11-11-11-11-11-11-11-11-11-11-11-11-11-|-11-11------------|
D|-------------------------------------------------|------------------|
A|-------------------------------------------------|------------------|
E|-------------------------------------------------|------------------|





Track 3: Bass

G|-----------------------------------------------|-------------------------------------------------|
D|-----------------------------------------------|-------------------------------------------------|
A|-----0--0--0--0--0--0--0--0--0--0--0--0--0--0--|-0--0--0--0--0--0--0--0--0--0--0--0--0--0--0--0--|
E|-----------------------------------------------|-------------------------------------------------|


G|-------------------------------------------------|-------------------------------------------------|
D|-------------------------------------------------|-------------------------------------------------|
A|-0--0--0--0--0--0--0--0--0--0--0--0--0--0--0--0--|-0--0--0--0--0--0--0--0--0--0--0--0--0--0--0--0--|
E|-------------------------------------------------|-------------------------------------------------|


G|-----------------------------------|-------------------------------------|-------------------------------------|
D|-----------------------------------|-------------------------------------|-------------------------------------|
A|-0--0--2---2---2---0---2---0---2---|-2-----------------------------------|-----0---0---0---0--0--0---0--0--0---|
E|-----------------------------------|-----0---0---0---0--0--0---0--0--0---|-0-----------------------------------|


G|-------------------------------------|-------------------------------------|-------------------------------------|
D|-------------------------------------|-------------------------------------|-------------------------------------|
A|-0-----------------------------------|-----2---2---2---2--2--2---2--2--2---|-2-----------------------------------|
E|-----2---2---2---2--2--2---2--2--2---|-2-----------------------------------|-----0---0---0---0--0--0---0--0--0---|


G|-------------------------------------|-------------------------------------|-------------------------------------|
D|-------------------------------------|-------------------------------------|-------------------------------------|
A|-----0---0---0---0--0--0---0--0--0---|-0-----------------------------------|-----2---2---2---2--2--2---2--2--2---|
E|-0-----------------------------------|-----2---2---2---2--2--2---2--2--2---|-2-----------------------------------|


G|-------------------------------------|-------------------------------------|-------------------------------------|
D|-------------------------------------|-------------------------------------|-------------------------------------|
A|-2-----------------------------------|-----0---0---0---0--0--0---0--0--0---|-0-----------------------------------|
E|-----0---0---0---0--0--0---0--0--0---|-0-----------------------------------|-----2---2---2---2--2--2---2--2--2---|


G|-------------------------------------|-------------------------------------|-------------------------------------|
D|-------------------------------------|-------------------------------------|-------------------------------------|
A|-----2---2---2---2--2--2---2--2--2---|-2-----------------------------------|-----0---0---0---0--0--0---0--0--0---|
E|-2-----------------------------------|-----0---0---0---0--0--0---0--0--0---|-0-----------------------------------|


G|-----------------------------------------------|-----------------------------------|
D|-----------------------------------------------|-----------------------------------|
A|-0---------------------------------------------|-------2---2---2---0---2---0---2---|
E|-----2--2--2--2--2--2--2--2--2--2--2--2--2--2--|-2--2------------------------------|


G|-------------------------------------|-------------------------------------|-------------------------------------|
D|-------------------------------------|-------------------------------------|-------------------------------------|
A|-2-----------------------------------|-----0---0---0---0--0--0---0--0--0---|-0-----------------------------------|
E|-----0---0---0---0--0--0---0--0--0---|-0-----------------------------------|-----2---2---2---2--2--2---2--2--2---|


G|-------------------------------------|-------------------------------------|-------------------------------------|
D|-------------------------------------|-------------------------------------|-------------------------------------|
A|-----2---2---2---2--2--2---2--2--2---|-2-----------------------------------|-----0---0---0---0--0--0---0--0--0---|
E|-2-----------------------------------|-----0---0---0---0--0--0---0--0--0---|-0-----------------------------------|


G|-------------------------------------|-------------------------------------|-------------------------------------|
D|-------------------------------------|-------------------------------------|-------------------------------------|
A|-0-----------------------------------|-----2---2---2---2--2--2---2--2--2---|-2-----------------------------------|
E|-----2---2---2---2--2--2---2--2--2---|-2-----------------------------------|-----0---0---0---0--0--0---0--0--0---|


G|-------------------------------------|-------------------------------------|-------------------------------------|
D|-------------------------------------|-------------------------------------|-------------------------------------|
A|-----0---0---0---0--0--0---0--0--0---|-0-----------------------------------|-----2---2---2---2--2--2---2--2--2---|
E|-0-----------------------------------|-----2---2---2---2--2--2---2--2--2---|-2-----------------------------------|


G|-------------------------------------|-------------------------------------|-----------------------------------------------|
D|-------------------------------------|-------------------------------------|-----------------------------------------------|
A|-2-----------------------------------|-----0---0---0---0--0--0---0--0--0---|-0---------------------------------------------|
E|-----0---0---0---0--0--0---0--0--0---|-0-----------------------------------|-----2--2--2--2--2--2--2--2--2--2--2--2--2--2--|


G|---------------4-----------4--4--4---|-------------9-----------9--9--9---|-9-----------2-----------2--2--2---|
D|-------------------------------------|-----------------------------------|-----------------------------------|
A|-------2---2-------2---2-------------|-2---7---7-------7---7-------------|-----0---0-------0---0-------------|
E|-2--2--------------------------------|-----------------------------------|-----------------------------------|


G|-2---------------------------------|-------------4-----------4--4--4---|-------------9-----------9--9--9---|
D|-------------4-----------4--4--4---|-4---------------------------------|-----------------------------------|
A|-----------------------------------|-----2---2-------2---2-------------|-2---7---7-------7---7-------------|
E|-----2---2-------2---2-------------|-----------------------------------|-----------------------------------|


G|-9-----------2-----------2--2--2---|-2---------------------------------|---------------------------------|
D|-----------------------------------|-------------4-----------4--4--4---|-4-------------------------------|
A|-----0---0-------0---0-------------|-----------------------------------|-----2---2---2---0---2---0---2---|
E|-----------------------------------|-----2---2-------2---2-------------|---------------------------------|


G|---------------------------------|-----------------------------------|-----------------------------------|
D|---------------------------------|-----------------------------------|-----------------------------------|
A|-2---5---5---5---3---5---3---5---|-5-----------7---5--7--7---5---7---|-7-----------7---5--7--7---5---7---|
E|---------------------------------|-----0---0-------------------------|-----0---0-------------------------|


G|---------------------------------|---------------------------------|-----------------------------------|
D|---------------------------------|---------------------------------|-----------------------------------|
A|-0---2---2---2---0---2---0---2---|-2---5---5---5---3---5---3---5---|-5-----------7---5--7--7---5---7---|
E|---------------------------------|---------------------------------|-----0---0-------------------------|


G|-----------------------------------|---------------------------------------|---------------------------------------|
D|-----------------------------------|---------------------------------------|---------------------------------------|
A|-7-----------7---5--7--7---5---7---|-0---2---2--2--2---0--0--2---0--0--2---|-2-------------------------------------|
E|-----0---0-------------------------|---------------------------------------|-----0---0--0--0---0--0--0---0--0--0---|


G|---------------------------------------|---------------------------------------|
D|---------------------------------------|---------------------------------------|
A|-----0---0--0--0---0--0--0---0--0--0---|-0-------------------------------------|
E|-0-------------------------------------|-----2---2--2--2---2--2--2---2--2--2---|


G|---------------------------------------|---------------------------------------|
D|---------------------------------------|---------------------------------------|
A|-----2---2--2--2---2--2--2---2--2--2---|-2-------------------------------------|
E|-2-------------------------------------|-----0---0--0--0---0--0--0---0--0--0---|


G|---------------------------------------|-------------------------------------|-------------------------------------|
D|---------------------------------------|---------------4-----------------4---|-4-----------------------------------|
A|-----0---0--0--0---0--0--0---0--0--0---|-0-----------------------------------|-----2---2---2---2--2--2---2--2--2---|
E|-0-------------------------------------|-----2---2--2------2---2---2--2------|-------------------------------------|


G|-----------------------------------|-----------------------------------|-----------------------------------|
D|-----------------------------------|-----------------------------------|-----------------------------------|
A|-2---------------------------------|-----0---0---0---0---0---0--0--0---|-0---------------------------------|
E|-----0---0---0---0---0---0--0--0---|-0---------------------------------|-----2---2---2---2---2---2--2--2---|


G|---------------------------------------|---------------------------------------|
D|---------------------------------------|---------------------------------------|
A|-----2---2--2--2---0--0--2---0--0--2---|-2-------------------------------------|
E|-2-------------------------------------|-----0---0--0--0---0--0--0---0--0--0---|


G|---------------------------------------|---------------------------------------|
D|---------------------------------------|---------------------------------------|
A|-----0---0--0--0---0--0--0---0--0--0---|-0-------------------------------------|
E|-0-------------------------------------|-----2---2--2--2---2--2--2---2--2--2---|


G|---------------------------------------|---------------------------------------|
D|---------------------------------------|---------------------------------------|
A|-----2---2--2--2---2--2--2---2--2--2---|-2-------------------------------------|
E|-2-------------------------------------|-----0---0--0--0---0--0--0---0--0--0---|


G|---------------------------------------|-----------------------------------------------|
D|---------------------------------------|-----------------------------------------------|
A|-----0---0--0--0---0--0--0---0--0--0---|-0---------------------------------4--6--7--7--|
E|-0-------------------------------------|-----2--2--2--2--2--2--2--2--2--2--------------|


G|-----------------------------------------|---------------------------------------|
D|-----------------------------------------|---------------------------------------|
A|-0--0--2---2--2--2---0--0--2---0--0--2---|-2-------------------------------------|
E|-----------------------------------------|-----0---0--0--0---0--0--0---0--0--0---|


G|---------------------------------------|---------------------------------------|
D|---------------------------------------|---------------------------------------|
A|-----0---0--0--0---0--0--0---0--0--0---|-0-------------------------------------|
E|-0-------------------------------------|-----2---2--2--2---2--2--2---2--2--2---|


G|---------------------------------------|---------------------------------------|
D|---------------------------------------|---------------------------------------|
A|-----2---2--2--2---2--2--2---2--2--2---|-2-------------------------------------|
E|-2-------------------------------------|-----0---0--0--0---0--0--0---0--0--0---|


G|---------------------------------------|-------------------------------------|-------------4-----------4--4--4---|
D|---------------------------------------|---------------4-----------------4---|-4---------------------------------|
A|-----0---0--0--0---0--0--0---0--0--0---|-0-----------------------------------|-----2---2-------2---2-------------|
E|-0-------------------------------------|-----2---2--2------2---2---2--2------|-----------------------------------|


G|-------------9-----------9--9--9---|-9-----------2-----------2--2--2---|-2---------------------------------|
D|-----------------------------------|-----------------------------------|-------------4-----------4--4--4---|
A|-2---7---7-------7---7-------------|-----0---0-------0---0-------------|-----------------------------------|
E|-----------------------------------|-----------------------------------|-----2---2-------2---2-------------|


G|-------------------------------------|-------------------------------------|-------------------------------------|
D|-4-----------------------------------|-------------------------------------|-------------------------------------|
A|-----2---2---2---2--2--2---2--2--2---|-2-----------------------------------|-----0---0---0---0--0--0---0--0--0---|
E|-------------------------------------|-----0---0---0---0--0--0---0--0--0---|-0-----------------------------------|


G|-------------------------------------|---------------4-------------------4---|---------------9---------------------|
D|-------------------------------------|---------------------------------------|-------------------------------------|
A|-0-----------------------------------|-----2---2--2------2--2--2---2--2------|-2---7---7--7------7---7---7--7--7---|
E|-----2---2---2---2--2--2---2--2--2---|-2-------------------------------------|-------------------------------------|


G|---------------2-----------2--2--2---|-2-----------------------------------|---------------4-------------------4---|
D|-------------------------------------|---------------4-----------4--4--4---|---------------------------------------|
A|-7---0---0--0------0---0-------------|-------------------------------------|-----2---2--2------2--2--2---2--2------|
E|-------------------------------------|-----2---2--2------2---2-------------|-2-------------------------------------|


G|---------------9---------------------|---------------2-----------2--2--2---|-2-----------------------------------|
D|-------------------------------------|-------------------------------------|---------------4-----------4--4--4---|
A|-2---7---7--7------7---7---7--7--7---|-7---0---0--0------0---0-------------|-------------------------------------|
E|-------------------------------------|-------------------------------------|-----2---2--2------2---2-------------|


G|---------------4-------------------4---|---------------9---------------------|---------------2-----------2--2--2---|
D|---------------------------------------|-------------------------------------|-------------------------------------|
A|-----2---2--2------2--2--2---2--2------|-2---7---7--7------7---7---7--7--7---|-7---0---0--0------0---0-------------|
E|-2-------------------------------------|-------------------------------------|-------------------------------------|


G|-2-----------------------------------|----------------|
D|---------------4-----------4--4--4---|----------------|
A|-------------------------------------|----------------|
E|-----2---2--2------2---2-------------|-2--------------|