Site menu:

    

Browse: 0-9 A B C D E F G H I J K L N O P Q R S T U V W X Y Z

u2 - one:



Title: One
Artist: 
Album: Achtung Baby
Author: U2


Track 1: Guitar (clean)

E|----------------------|-------------|--------------------------|-------------|--------------------------|
B|----------------------|-------------|--------------------------|-------------|--------------------------|
G|-----------------5----|--------5----|---------------5--7--7----|--------7----|---------------------5----|
D|-----------5--7-------|-------------|--------------------------|-------------|---------------5--7-------|
A|----------------------|-------------|--------------------------|-------------|--------------------------|
E|----------------------|-------------|--------------------------|-------------|--------------------------|


E|-------------|--------------------------|-------------|--------------------------|
B|-------------|--------------------------|-------------|--------------------------|
G|--------5----|---------------5--7--7----|--------7----|---------------------5----|
D|-------------|--------------------------|-------------|---------------5--7-------|
A|-------------|--------------------------|-------------|--------------------------|
E|-------------|--------------------------|-------------|--------------------------|


E|-------------|--------------------------|----------------|--------------------|-------------|
B|-------------|--------------------------|----------------|--------------------|-------------|
G|--------5----|--------------------------|----------------|--------------------|-------------|
D|-------------|----------5----5--7--5----|----------------|--------------------|-------------|
A|-------------|--------------------------|--------5--7----|-5-----5---3---3----|-------------|
E|-------------|--------------------------|----------------|--------------------|--------5----|


E|--------------------|--------------------|-------------|-----------------|-----------------|
B|--------------------|--------------------|-------------|-----------------|-----------------|
G|--------------------|--------------------|-------------|-----------------|-------0---------|
D|--------------------|--------------------|-------------|-----------------|-----------------|
A|--------------------|---------------3----|--------3----|-------2---------|-----------------|
E|-----------3---1----|-----------3--------|-------------|------------5----|------------1----|


E|-------------|-------------------------------|------------------------|-----------------|
B|-------------|-------------------------------|------------------------|-----------------|
G|-------------|-------------------------------|------------------------|-----------------|
D|-------------|-------------------------------|-------------------0----|------------3----|
A|--------3----|----------------3---5--3--0----|----------0----0--------|-----------------|
E|-------------|----------3--5-----------------|------------------------|-----------------|


E|-----------------|-------------------------------|---------------------------|---------------------------|
B|-----------------|-------------------------------|---------------------------|----------------------1----|
G|------------0----|-------------------------------|---------------------------|----------------------2----|
D|-----------------|-------------------------------|---------------------------|----------2-------0---3----|
A|-----------------|----------------3---3--5--0----|------------------3---5----|--------------3-------3----|
E|-----------------|----------3--5-----------------|----------3---5------------|----------------------1----|


E|-------------|-----------------------------|---------------------------|---------------------------|
B|-------------|-----------------------------|---------------------------|---------------------------|
G|--------0----|-----------------------------|---------------------------|---------------------------|
D|-------------|-----------------------------|---------------------------|----------------------3----|
A|-------------|--------------3---5--3--0----|------------------3---5----|--------------3---5--------|
E|-------------|----------5------------------|----------3---5------------|----------5----------------|


E|------------------------|------3------------0----|-----------0----0----|-0-------------1----|
B|-------------------0----|------3----3---0---1----|-----------1----1----|-1-----1---1---1----|
G|-------------------0----|------0----0---0---0----|-----------0----2----|-2-----2---0---2----|
D|---------------3--------|------0----0---0---2----|-----------2----2----|-2-------------3----|
A|------------------------|-------------------3----|-----------3----0----|-0-------------3----|
E|------------------------|------------------------|---------------------|---------------1----|


E|---------------------|--------------------|-------------------------0----|-0----0--0---0---0-------1----|
B|-1----1----1----1----|-1-------------1----|----------1--------------1----|-1----1--1---1---1---1---1----|
G|-2----2----2----0----|-0-------------0----|-------------0---2-------2----|-2----2--2---2---2---0---2----|
D|-3----3----3----2----|-2---------2---2----|--------------------2----2----|-2----2--2---2---2---2---3----|
A|----------------3----|-3---------3---3----|--------------------3----0----|-0----0--0---0---0---0---3----|
E|---------------------|--------------------|------------------------------|-------------------------1----|


E|-----------------|-----------------|--------|--------|--------|--------|--------|
B|-1-----1----1----|------1----------|--------|--------|--------|--------|--------|
G|-2-----2----0----|------0----------|--------|--------|--------|--------|--------|
D|-3-----3----2----|------2----------|--------|--------|--------|--------|--------|
A|------------3----|------3----------|--------|--------|--------|--------|--------|
E|-----------------|-----------------|--------|--------|--------|--------|--------|


E|--------|--------|--------|--------|--------|-------------|-3-------3--0-----3---0--------|
B|--------|--------|--------|--------|--------|-------------|-3-------3--0-----3---0--------|
G|--------|--------|--------|--------|--------|-------------|-4-----------------------------|
D|--------|--------|--------|--------|--------|--------5----|-------------------------------|
A|--------|--------|--------|--------|--------|-------------|-------------------------------|
E|--------|--------|--------|--------|--------|-------------|-------------------------------|


E|-------------|-------------|--------|--------|--------|--------|--------|--------|
B|-------------|-------------|--------|--------|--------|--------|--------|--------|
G|-------------|-------------|--------|--------|--------|--------|--------|--------|
D|-------------|-------------|--------|--------|--------|--------|--------|--------|
A|-------------|-------------|--------|--------|--------|--------|--------|--------|
E|-------------|-------------|--------|--------|--------|--------|--------|--------|


E|--------|--------|--------|--------|--------|--------|-------------|-------------|
B|--------|--------|--------|--------|--------|--------|-------------|-------------|
G|--------|--------|--------|--------|--------|--------|-------------|-------------|
D|--------|--------|--------|--------|--------|--------|-------------|-------------|
A|--------|--------|--------|--------|--------|--------|-------------|-------------|
E|--------|--------|--------|--------|--------|--------|-------------|-------------|


E|--------12---|----------12--15--13--12---|-12-------12--15--13--12---|-12--12--12--12--12--12--12---|
B|--------13---|--------------13------13---|-13-----------13------13---|-13--13--13--13--13--13--13---|
G|-------------|---------------------------|---------------------------|------------------------------|
D|-------------|---------------------------|---------------------------|------------------------------|
A|-------------|---------------------------|---------------------------|------------------------------|
E|-------------|---------------------------|---------------------------|------------------------------|


E|-12--12--12--12--12--12-------|-12-------12--13-----12---------|------------------------------|
B|-13--13--13--13--13--13-------|----------13---------13-15-17---|-17-------17--17--15--12-13---|
G|-------------------------12---|-12---------------------12-14---|-14-------14--14--12--11-12---|
D|------------------------------|--------------------------------|------------------------------|
A|------------------------------|--------------------------------|------------------------------|
E|------------------------------|--------------------------------|------------------------------|


E|----------------------12---|-12---12-13--12--12--12--12---|-12-------12--15------12---|
B|-13-------13--13--13--13---|-13---13-13--13--13--13--13---|-13-----------13------13---|
G|-12---------------12-------|------------------------------|---------------------------|
D|-14-------15--15--14-------|------------------------------|---------------------------|
A|---------------------------|------------------------------|---------------------------|
E|---------------------------|------------------------------|---------------------------|


E|-12-------12--15--15--12---|-12-------12--15--15--12---|-12-12-12-13-----12--12--12-------|
B|-13-----------13--13--13---|-13-----------13--13--13---|-13-13-13------------13--13--13---|
G|---------------------------|---------------------------|----------------------------------|
D|---------------------------|---------------------------|----------------------------------|
A|---------------------------|---------------------------|----------------------------------|
E|---------------------------|---------------------------|----------------------------------|


E|---------------------------|--------------------------12--|-----13----------------12--|
B|-----15--15--13---13--13---|-----15--15--13---13--13------|----------13---15--15------|
G|---------------------------|------------------------------|---------------------------|
D|---------------------------|------------------------------|---------------------------|
A|---------------------------|------------------------------|---------------------------|
E|---------------------------|------------------------------|---------------------------|


E|-12--13---12-----------12--|-----------------------12--|-----------------------12--|
B|---------------15--13------|-----15---13---12--12------|-----15---13---15--15------|
G|---------------------------|---------------------------|---------------------------|
D|---------------------------|---------------------------|---------------------------|
A|---------------------------|---------------------------|---------------------------|
E|---------------------------|---------------------------|---------------------------|


E|-----------------------12--|-----13---12---------------|---------------------------|
B|-----15---13---15--15------|---------------15--15--13--|-----15---13---15--15--13--|
G|---------------------------|---------------------------|---------------------------|
D|---------------------------|---------------------------|---------------------------|
A|---------------------------|---------------------------|---------------------------|
E|---------------------------|---------------------------|---------------------------|


E|-----------------------12--|-----------------------12--|-----13-------------12--|
B|-----15---13---15--15--13--|-----15---13---15--15------|----------13----15------|
G|---------------------------|---------------------------|------------------------|
D|---------------------------|---------------------------|------------------------|
A|---------------------------|---------------------------|------------------------|
E|---------------------------|---------------------------|------------------------|


E|-----------------------12--|-----------------------12--|-----------------------12--|
B|-----15---13---15--15------|-----15---13---15--15------|-----15---13---15--15------|
G|---------------------------|---------------------------|---------------------------|
D|---------------------------|---------------------------|---------------------------|
A|---------------------------|---------------------------|---------------------------|
E|---------------------------|---------------------------|---------------------------|


E|-----13---12----12---|-----12-----------12-12--|-12--12-12---------------------------|
B|----------------13---|-----13--------10-13-13--|-13--10-10-----3--5------3-----------|
G|---------------------|-------------------------|---------------------5-------5-------|
D|---------------------|-------------------------|-------------------------------------|
A|---------------------|-------------------------|-------------------------------------|
E|---------------------|-------------------------|-------------------------------------|


E|----------------------------------|-------------|
B|-5--5--5--5------13--13--13--13---|--------13---|
G|-5--5--5--5-----------------------|-------------|
D|----------------------------------|-------------|
A|----------------------------------|-------------|
E|----------------------------------|-------------|





Track 2: Guitar (overdrive)

E|-----------------|-------------------------------------|-----------------------------------|
B|-----------------|-5----3--5--3--5---5-----------------|-----------------------------------|
G|-----------------|-5-------------5---5---7--5----------|-7----5--7--5--7---7---7-----------|
D|-----------------|-----------------------7-------------|-7----5--7--5--7---7---7-----------|
A|------------0----|-----------------------------3--5----|---------------------------8----8--|
E|-----------------|-------------------------------------|-----------------------------------|


E|-------------------------------------|----------------------------------|--------------------------------|
B|-------------------------------------|---------------3---3--------------|-5----3--5--3--5---5------------|
G|-9----7--9--7--9---9---7--5--5--7----|-5----4--5--4--4---4---5--4-------|-5-------------5---5------------|
D|-10---7--10-7--10--10--7--7--3--5----|-5----5--5--5---------------------|--------------------------------|
A|-------------------------------------|-----------------------------0----|--------------------------------|
E|-------------------------------------|----------------------------------|-----------------------5---10---|


E|--------------------------------|--------------------------------|----------------------------------|
B|--------------------------------|--------------------------------|----------------------------------|
G|-7----5--7--5--7---7---7--------|-9----7--9--7--9---9---7---4----|-7----4--5--4--5---7---5--4-------|
D|-7----5--7--5--7---7---7--------|-10---7--10-7--10--10--7---5----|-5----5--5--5--5---5---5--5-------|
A|---------------------------8----|--------------------------------|-----------------------------0----|
E|--------------------------------|--------------------------------|----------------------------------|


E|-----------------------------------|--------------------------------|--------------------------------|
B|-5----3--5--3--5---5---------------|--------------------------------|--------------------------------|
G|-5----5--5--5--5---5---7-----------|-7----5--7--5--7---7---7--------|-9----7--9--7--9---9-------4----|
D|-----------------------7-----------|-7----5--7--5--7---7---7--------|-10---7--10-7--10--10--7---5----|
A|---------------------------3--5----|---------------------------8----|-----------------------8--------|
E|-----------------------------------|--------------------------------|--------------------------------|


E|--------------------------------|--------------------------------|-------------|
B|------3--------3---3---3--------|-5----3--5--3--5---5---3--------|-------------|
G|-5----4--5--4--4---4------------|-5----5--5--5--5---5---0--------|-------------|
D|-5------------------------------|--------------------------------|-------------|
A|---------------------------3----|---------------------------0----|-------------|
E|--------------------------------|--------------------------------|--------1----|


E|--------------------------------|----------------------------------|----------------------------------|
B|--------------------------------|-5----3--5--3--5---5--------------|-5----3--5--3--5------------------|
G|-5-------9-----9---9---7---5----|-5-------5-----5---5---7--5--5----|-5-------5-----5-------7--5--5----|
D|-3----7--7--7--7---7------------|-----------------------5--5-------|-----------------------5--5-------|
A|--------------------------------|----------------------------------|----------------------------------|
E|--------------------------------|----------------------------------|----------------------------------|


E|----------------------------------|----------------------------------|-----------------------------|
B|------3--5--3--5---5--------------|------3--5--3--5---5---3--1--1----|-----------------------------|
G|-5-------5-----5---5---7--5-------|-5----2--2-----2---2--------------|----------7---7---7--5-------|
D|-7---------------------5--5-------|-3--------------------------------|------------------------7----|
A|----------------------------------|----------------------------------|-----------------------------|
E|-----------------------------1----|----------------------------------|-----------------------------|


E|------------------------------------|----------------------------------|-------------------------------------|
B|------------------------------------|----------------------------------|-------------------------------------|
G|-------------7--7--7--7--7--5-------|-------------7---7---7-5-7-5------|-------------7--7--7--7--7--5--------|
D|-------------------------------7----|-----------------------------7----|------------------------------7-5----|
A|------------------------------------|----------------------------------|-------------------------------------|
E|------------------------------------|----------------------------------|-------------------------------------|


E|-----------------------------|-------------------------------|-------------------------------|
B|-----------------------------|-------------------------------|-------------------------------|
G|----------7---7---7---5------|----------7--7--7--7---5-------|----------7---7--7--7--5-------|
D|------------------------7----|--------------------------7----|--------------------------7----|
A|-----------------------------|-------------------------------|-------------------------------|
E|-----------------------------|-------------------------------|-------------------------------|


E|---------------------------------|-------------------------------|---------------------------|
B|---------------------------------|-------------------------------|----------5---5---5--------|
G|----------7--7--7--7--7--5-------|----------7---7--7--7--5-------|----------7---7---7--------|
D|----------------------------5----|--------------------------7----|----------------------7----|
A|---------------------------------|-------------------------------|---------------------------|
E|---------------------------------|-------------------------------|---------------------------|


E|-------------------------------|-------------------------------|---------------------|
B|-------------------------------|-------------------------------|-----------3---------|
G|----------7---7--7--7--5-------|----------7---7--7--7----------|-5----4---------5----|
D|--------------------------7----|-----------------------7--5----|---------------------|
A|-------------------------------|-------------------------------|---------------------|
E|-------------------------------|-------------------------------|---------------------|


E|-------------------------------|---------------------------|---------------------------|
B|-------------------------------|---------------------------|---------------------------|
G|----------7---7--7--7--5-------|----------7---7---7---5----|----------7---7---7---5----|
D|--------------------------7----|---------------------------|---------------------------|
A|-------------------------------|---------------------------|---------------------------|
E|-------------------------------|---------------------------|---------------------------|


E|---------------------------|---------------------------|---------------------------|
B|---------------------------|---------------------------|---------------------------|
G|----------7---7---7---5----|----------7---7---7--------|----------7---7---7---5----|
D|---------------------------|----------------------7----|---------------------------|
A|---------------------------|---------------------------|---------------------------|
E|---------------------------|---------------------------|---------------------------|


E|---------------------------|-----------------|---------------------------|---------------------------|
B|---------------------------|-----------------|----------5---5---5--------|----------5---5---5--------|
G|----------7---7---7---5----|-----------------|----------7---7---7--------|----------7---7---7--------|
D|---------------------------|------------7----|----------------------7----|----------------------7----|
A|---------------------------|-----------------|---------------------------|---------------------------|
E|---------------------------|-----------------|---------------------------|---------------------------|


E|-------------------------------|---------------------------|-----------------------------|
B|-------------------------------|---------------------------|-5----3--5--3--5---5---------|
G|----------7---7--7--7--5-------|----------7---7---7--------|-5-------------5---5---------|
D|--------------------------5----|---------------------------|-----------------------------|
A|-------------------------------|----------------------0----|------------------------5----|
E|-------------------------------|---------------------------|-----------------------------|


E|--------------------------------|----------------------------------|----------------------------------|
B|--------------------------------|----------------------------------|----------------------------------|
G|-7----5--7--5--7---7---5--------|-9----7--9--7--9---9---7--5--4----|-7----4--5--4--5---7---5--4-------|
D|-7----5--7--5--7---7---5--------|-10---7--10-7--10--10--7--7--5----|-5----5--5--5--5---5---5--5-------|
A|---------------------------8----|----------------------------------|-----------------------------0----|
E|--------------------------------|----------------------------------|----------------------------------|


E|--------------------------------|--------------------------------|----------------------------------|
B|-5----3--5--3--5---5---3--------|--------------------------------|----------------------------------|
G|-5-------------5---5---2--------|-7----5--7--5--7---7---5--------|-9----7--9--7--9---9---7--5--4----|
D|--------------------------------|-7----5--7--5--7---7---5--------|-10---7--10-7--10--10--7--7--5----|
A|---------------------------5----|---------------------------8----|----------------------------------|
E|--------------------------------|--------------------------------|----------------------------------|


E|-----------------------------|-0--0---------0---0--------|-5-------------------------|
B|-----------------------------|-1--1---------1---0--------|-5-------------------------|
G|-5----4--5--4--5---7----0----|-0--0---------0---0--------|-5-------------------------|
D|-5----5--5--5--5---5----2----|----------------------7----|---------------------------|
A|------------------------3----|----------------------7----|---------------------------|
E|-----------------------------|----------------------5----|----------5---5---3---1----|


E|----------------0-------|----------------------|-0-------------------------|-5----5--5--------------------|
B|----------------1--1----|-------1--1---1--1----|-1-------------------------|-5----5--5--------------------|
G|-2--------------0--0----|-------0--0---0--0----|-0-------------------------|-5----5--5--------------------|
D|-3-----------------2----|-------2--2---2--2----|---------------------------|------------------------------|
A|-3-----------------3----|-------3--3---3--3----|----------3---3---2--------|------------------------------|
E|------------------------|----------------------|----------------------5----|-------------5---5---3---1----|


E|---------------------------------|-----------------------------0----|-0-----0---0---0---0----|
B|-1----1--1----1--1----1--1----1--|-1----1--1----1--1--1--1--1--1----|-1-----1---1---0---1----|
G|-2----2--2----2--2----2--0----0--|-0----0--0----0--0--0--0--0--0----|-0-----0---0---0---2----|
D|-3----3--3----3--3----3--2----2--|-2----2--2----2--2--2--2--2--2----|-2-----2---2---2---2----|
A|---------------------------------|-----------------------------3----|-3-----3---3---3---0----|
E|---------------------------------|----------------------------------|------------------------|


E|-0----0--0----0--0----0----|-0----0--0---0---0---0---0----|-0----0--0---0---0---0---0----|
B|-1----1--1----1--1----1----|-1----1--1---1---1---0---1----|-1----1--1---1---1---1---1----|
G|-2----2--2----2--2----0----|-0----0--0---0---0---0---2----|-2----2--2---2---2---2---0----|
D|-2----2--2----2--2----2----|-2----2--2---2---2---2---2----|-2----2--2---2---2---2---2----|
A|-0----0--0----0--0----3----|-3----3--3---3---3---3---0----|-0----0--0---0---0---0---3----|
E|---------------------------|------------------------------|------------------------------|


E|-0----0----0----3----|-3---3---3---3---3----3----|-3--3--3--3--3----3----1---1---|
B|-1----1----1----3----|-3---3---3---3---3----3----|-3--3--3--3--3----3----1---1---|
G|-0----0----0----0----|-0---0---0---0---0----0----|-0--0--0--0--0----0----2---2---|
D|-2----2----2----0----|-0---0---0---0---0----0----|-0--0--0--0--0----0----3---3---|
A|-3----3----3----2----|-2---2---2---2---2----2----|-2--2--2--2--2----2----3---3---|
E|----------------3----|-3---3---3---3---3----3----|-3--3--3--3--3----3----1---1---|


E|-1----1---1---1----1---1---|-1----1----1----0----|-0-----0----0----|-0-----0------------|
B|-1----1---1---1----1---1---|-1----1----1----1----|-1-----1----1----|-1-----1---3---1----|
G|-2----2---2---2----2---2---|-2----2----2----0----|-0-----0----2----|-2-----2---0---2----|
D|-3----3---3---3----3---3---|-3----3----3----2----|-2-----2----2----|-2-----2-------3----|
A|-3----3---3---3----3---3---|-3----3----3----3----|-3-----3----0----|-0-----0-------3----|
E|-1----1---1---1----1---1---|-1----1----1---------|-----------------|---------------1----|


E|----------------0----|-0----0----0----0----|-0----0----0----0----|-0----0----0---------|
B|-1----1----1----1----|-1----1----1----1----|-1----1----1----1----|-1----1----0----1----|
G|-2----2----2----0----|-0----0----0----0----|-0----0----0----2----|-2----2----0----2----|
D|-3----3----3----2----|-2----2----2----2----|-2----2----2----2----|-2----2---------3----|
A|-3----3----3----3----|-3----3----3----3----|-3----3----3----0----|-0----0---------3----|
E|-1----1----1---------|---------------------|---------------------|----------------1----|


E|----------------0----|-0----0----0----0----|-0----0----0----0----|-0----0--0--0--0---0---------|
B|-1----1----1----1----|-1----1----1----1----|-1----1----1----1----|-1----1--1--1--1---1----1----|
G|-2----2----2----0----|-0----0----0----0----|-0----0----0----2----|-2----2--2--2--2---2----2----|
D|-3----3----3----2----|-2----2----2----2----|-2----2----2----2----|-2----2--2--2--2---2----3----|
A|-3----3----3----3----|-3----3----3----3----|-3----3----3----0----|-0----0--0--0--0---0----3----|
E|-1----1----1---------|---------------------|---------------------|------------------------1----|


E|----------------0----|-0----0---0---0---0--------|--------|--------|--------|--------|
B|-1-----1---1----1----|-1----1---1---1---1--------|--------|--------|--------|--------|
G|-2-----2---2----0----|-0----0---0---0---0--------|--------|--------|--------|--------|
D|-3-----3---3----2----|-2----2---2---2---2--------|--------|--------|--------|--------|
A|-3-----3---3----3----|-3----3---3---3---3--------|--------|--------|--------|--------|
E|-1-----1---1---------|---------------------------|--------|--------|--------|--------|


E|--------|--------|--------|--------|--------|--------|--------|--------|--------|
B|--------|--------|--------|--------|--------|--------|--------|--------|--------|
G|--------|--------|--------|--------|--------|--------|--------|--------|--------|
D|--------|--------|--------|--------|--------|--------|--------|--------|--------|
A|--------|--------|--------|--------|--------|--------|--------|--------|--------|
E|--------|--------|--------|--------|--------|--------|--------|--------|--------|


E|--------|--------|--------|--------|--------|--------|--------|
B|--------|--------|--------|--------|--------|--------|--------|
G|--------|--------|--------|--------|--------|--------|--------|
D|--------|--------|--------|--------|--------|--------|--------|
A|--------|--------|--------|--------|--------|--------|--------|
E|--------|--------|--------|--------|--------|--------|--------|





Track 3: Acoustic (steel)

E|--------------------|---------------------------------|---------------------------------|
B|--------------------|-----------------1---------------|---------------------------------|
G|--------------------|-----------------2---------------|---------------------------------|
D|------------2---2---|-2---2---2---2---2---2---7---7---|-7---7---7---7---7---7---7---7---|
A|------------0---0---|-0---0---0---0---0---0---5---5---|-5---5---5---5---5---5---8---8---|
E|--------------------|---------------------------------|---------------------------------|


E|---------------------------------|---------------------------------|---------------------------------|
B|---------------------------------|---------------------------------|---------------------------------|
G|-----5---5-----------------------|---------------------------------|---------------------------------|
D|-7-----------7---7---5---5---5---|-5---5---5---5---5---5-----------|-------------------------7---7---|
A|-------------8---8---5---5---5---|-5---5---5---5---5---5---7---7---|-7---7---7---7---7---7---5---5---|
E|---------------------------------|-------------------------5---5---|-5---5---5---5---5---5-----------|


E|---------------------------------|---------------------------------|---------------------------------|
B|---------------------------------|---------------------------------|-----------------3---------------|
G|-------------7-------------------|-7-------------------------------|-0---------------0---------------|
D|-7---7---7---7---7---7---7---7---|-7---7---7---7---7---7---0---0---|-0---0---0---0---0---0-----------|
A|-5---5---5---5---5---5---8---8---|-8---8---8---8---8---0---2---2---|-2---2---2---2---2---2---7---7---|
E|---------------------------------|-------------------------3---3---|-3---3---3---3---3---3---5---5---|


E|---------------------------------|---------------------------------|---------------------------------|
B|---------------------------------|---------------------------------|-5-------5-----------------------|
G|---------------------------------|-7---------------7-------5-------|-5-------5-------5-------0---0---|
D|-------------------------7---7---|-7---7---7---7---7---7---7---7---|-7---7---7---7---7---0---0---0---|
A|-7---7---7---7---7---7---5---5---|-5---5---5---5---5---5-----------|-------------------------2---2---|
E|-5---5---5---5---5---5-----------|---------------------------------|-------------------------3---3---|


E|-3-------------------------------|---------------------------------|---------------------------------|
B|-3-------0-------3---------------|---------------------------------|---------------------------------|
G|-0-------0-------0-------5-------|---------------------5-----------|-5---------------5---------------|
D|-0---0---0---0---0-------5-------|---------------------5-----------|-7---------------7---------------|
A|-2---2---2---2---2---3---3---3---|-3---3---3---3---3---3---7---7---|-7---7---7---7---7-----------0---|
E|-3---3---3---3---3---------------|-------------------------5---5---|-5---5---5---5---5---3---1-------|


E|------------------------------|------------------------------|---------------------------|
B|-------------1---1---1--------|------------------------------|-----------0---0-------1---|
G|-------------2---2---0---5----|-5---5---5---5---5---0---0----|-0----0----0---0-------2---|
D|-3---3-------3---3---0---2----|-2---2---2---2---2---0---2----|-2----2----2---2-----------|
A|-0---0---0---0---0-------3----|-3---3---3---3---3---0---3----|-3----3----2---2---0-------|
E|-1---1-------1---1------------|------------------------------|---------------------------|


E|--------------0---------------|-0-------------------------------|---------------------------|
B|-1------------1-------1-------|-1-----------1---1---1-----------|---------1----1---3--------|
G|-2----2---2---2-------2-------|-0-----------2---0---0---0---0---|-0---0---0----0---2--------|
D|-2----2---2---2-------3-------|-3---3---3---3---3-------2---2---|-2---2---2----2---0--------|
A|-0----0---0---0---0-----------|-------------------------3---3---|-3---3---3----3------------|
E|----------------------1---1---|-1-----------1---1---------------|---------------------------|


E|--------|--------|--------|--------|--------|--------|--------|--------|--------|
B|--------|--------|--------|--------|--------|--------|--------|--------|--------|
G|--------|--------|--------|--------|--------|--------|--------|--------|--------|
D|--------|--------|--------|--------|--------|--------|--------|--------|--------|
A|--------|--------|--------|--------|--------|--------|--------|--------|--------|
E|--------|--------|--------|--------|--------|--------|--------|--------|--------|


E|--------|--------|--------|--------|--------|--------|--------|--------|--------|
B|--------|--------|--------|--------|--------|--------|--------|--------|--------|
G|--------|--------|--------|--------|--------|--------|--------|--------|--------|
D|--------|--------|--------|--------|--------|--------|--------|--------|--------|
A|--------|--------|--------|--------|--------|--------|--------|--------|--------|
E|--------|--------|--------|--------|--------|--------|--------|--------|--------|


E|--------|--------|--------|--------|--------|--------|--------|--------|--------|
B|--------|--------|--------|--------|--------|--------|--------|--------|--------|
G|--------|--------|--------|--------|--------|--------|--------|--------|--------|
D|--------|--------|--------|--------|--------|--------|--------|--------|--------|
A|--------|--------|--------|--------|--------|--------|--------|--------|--------|
E|--------|--------|--------|--------|--------|--------|--------|--------|--------|


E|--------|--------|--------|--------|--------|--------|--------|--------|--------|
B|--------|--------|--------|--------|--------|--------|--------|--------|--------|
G|--------|--------|--------|--------|--------|--------|--------|--------|--------|
D|--------|--------|--------|--------|--------|--------|--------|--------|--------|
A|--------|--------|--------|--------|--------|--------|--------|--------|--------|
E|--------|--------|--------|--------|--------|--------|--------|--------|--------|


E|--------|--------|--------|--------|--------|--------|--------|--------|--------|
B|--------|--------|--------|--------|--------|--------|--------|--------|--------|
G|--------|--------|--------|--------|--------|--------|--------|--------|--------|
D|--------|--------|--------|--------|--------|--------|--------|--------|--------|
A|--------|--------|--------|--------|--------|--------|--------|--------|--------|
E|--------|--------|--------|--------|--------|--------|--------|--------|--------|


E|--------|--------|--------|--------|--------|--------|--------|--------|--------|
B|--------|--------|--------|--------|--------|--------|--------|--------|--------|
G|--------|--------|--------|--------|--------|--------|--------|--------|--------|
D|--------|--------|--------|--------|--------|--------|--------|--------|--------|
A|--------|--------|--------|--------|--------|--------|--------|--------|--------|
E|--------|--------|--------|--------|--------|--------|--------|--------|--------|


E|--------|--------|--------|--------|--------|--------|--------|--------|--------|
B|--------|--------|--------|--------|--------|--------|--------|--------|--------|
G|--------|--------|--------|--------|--------|--------|--------|--------|--------|
D|--------|--------|--------|--------|--------|--------|--------|--------|--------|
A|--------|--------|--------|--------|--------|--------|--------|--------|--------|
E|--------|--------|--------|--------|--------|--------|--------|--------|--------|


E|--------|--------|--------|--------|--------|--------|--------|--------|--------|
B|--------|--------|--------|--------|--------|--------|--------|--------|--------|
G|--------|--------|--------|--------|--------|--------|--------|--------|--------|
D|--------|--------|--------|--------|--------|--------|--------|--------|--------|
A|--------|--------|--------|--------|--------|--------|--------|--------|--------|
E|--------|--------|--------|--------|--------|--------|--------|--------|--------|


E|--------|--------|--------|--------|--------|--------|--------|--------|--------|
B|--------|--------|--------|--------|--------|--------|--------|--------|--------|
G|--------|--------|--------|--------|--------|--------|--------|--------|--------|
D|--------|--------|--------|--------|--------|--------|--------|--------|--------|
A|--------|--------|--------|--------|--------|--------|--------|--------|--------|
E|--------|--------|--------|--------|--------|--------|--------|--------|--------|





Track 4: Hammond organ

E|--------|--------|--------|--------|--------|--------|--------|--------|--------|
B|--------|--------|--------|--------|--------|--------|--------|--------|--------|
G|--------|--------|--------|--------|--------|--------|--------|--------|--------|
D|--------|--------|--------|--------|--------|--------|--------|--------|--------|
A|--------|--------|--------|--------|--------|--------|--------|--------|--------|
E|--------|--------|--------|--------|--------|--------|--------|--------|--------|


E|--------|--------|--------|--------|--------|--------|--------|--------|--------|
B|--------|--------|--------|--------|--------|--------|--------|--------|--------|
G|--------|--------|--------|--------|--------|--------|--------|--------|--------|
D|--------|--------|--------|--------|--------|--------|--------|--------|--------|
A|--------|--------|--------|--------|--------|--------|--------|--------|--------|
E|--------|--------|--------|--------|--------|--------|--------|--------|--------|


E|--------|--------|-------------|-7----5-----5--5---------5--5-------|-2----------------------------------|
B|--------|--------|--------5----|-7----5-----5--5---------5--5--3----|-3----3--3-----3--3------3--3--1----|
G|--------|--------|-------------|-7----5-----5--5---------5--5--2----|-2----2--2-----2--2------2--2--2----|
D|--------|--------|--------7----|-------------------------------0----|-------------------------------3----|
A|--------|--------|-------------|------------------------------------|------------------------------------|
E|--------|--------|-------------|------------------------------------|------------------------------------|


E|-1----1----------------------3----|-3----3--3-------0---1-----------|------------5------5-----5----------|
B|-1----1------1-1---1-1----1--3----|-6----6--6-------1---1-----------|-7----5-----5------5-----5----------|
G|-2----2------2-2---2-2----2--0----|-0----0--0-------0---2---7-------|-7----5-----5------5-----5-----7----|
D|-3----3------3-3---3-3----3-------|-------------------------7-------|------------------------------------|
A|----------------------------------|---------------------------------|------------------------------------|
E|----------------------------------|---------------------------------|------------------------------------|


E|-7----5-----5------5-----5-------------|-------------------------------|----------------------------------|
B|-7----5-----5------5-----5-------------|-------------------------------|----------------------------------|
G|-7----5-----5------5-----5-----5-------|-5------------7--4--5--2-------|-5----4-----4---------4-----------|
D|---------------------------------------|--------------5--2--3--0--5----|-5----5-----5---------5------7----|
A|---------------------------------------|-------------------------------|----------------------------------|
E|---------------------------------------|-------------------------------|----------------------------------|


E|--------------------------------|------5------------------------|-------------------------------|
B|-7----5-----5-------------------|-5----------7-----7-------1----|-------------------------------|
G|-7----5-----5--------------7----|-7----------7-----7-------2----|----------2---------2----------|
D|--------------------------------|--------------------------3----|-3--------3---------3----------|
A|---------------5---5------------|-------------------------------|-------------------------------|
E|--------------------------------|-------------------------------|-------------------------------|


E|----------------------|--------------------------------|-----------------------------|
B|-3--3-----------------|--------------------------------|-1---------1--1--------------|
G|-4--4-----------------|--------5--5-------4------------|-2---------2--2------2-------|
D|-5--5------------5----|--------5--5-------5------------|---------------------3-------|
A|----------------------|--------------------------------|-----------------------------|
E|----------------------|--------------------------------|-----------------------------|


E|-----------------------------|------------------------|------------------------|
B|-----------------------------|--------------6---------|------------------------|
G|-----------------------------|--------------5----5----|------------------------|
D|-7--5------------------------|-------------------5----|-----------5-------7----|
A|---------------8-------------|-------------------3----|-----------3-------7----|
E|-----------------------------|------------------------|-------------------5----|


E|-----------------|--------------------|-------------|------------------------------|
B|-----------------|--------------------|-------------|-------------------------7----|
G|-----------------|--------------------|-------------|-5----5------5---5---5---7----|
D|------------3----|--------------------|-------------|-7----7------7---7---7--------|
A|------------3----|--------------------|-------------|------------------------------|
E|------------1----|--------------------|-------------|------------------------------|


E|-0----0------0---0---------|-5----5----------------------|-7----7-------------------------|
B|-7----7------7---7---------|-6----7-----6--6---6---------|-8----8-----8-------------------|
G|-7--------------------5----|-5----5-----5--5---5----7----|-7----7-----7-------------------|
D|----------------------7----|-7----7-----7--7---7----9----|-9----9-----9--2---5---5--------|
A|---------------------------|-----------------------------|-------------------3---2---0----|
E|---------------------------|-----------------------------|---------------3----------------|


E|--------------------------------|--------5-----5-------------------|-------------------5--5-----------|
B|-7----5-----5-------------------|--------7-----7-------------------|-5-----------------6--6-----------|
G|-7----5-----5-------------------|-7---9----------------------------|-5--------------------------------|
D|--------------------------------|-----------------2----------------|------3-----3---------------------|
A|-----------------------3---5----|---------------------5---3--------|----------------------------------|
E|---------------3---5------------|-----------------------------1----|-----------------------------3----|


E|--------------------------------|--------------------------------|------5-----5-------------------|
B|--------------------------------|-7----5-----5-------------------|-5----3-----3-------------------|
G|--------------------------------|-7----5-----5-------------------|--------------------------------|
D|-5------------------------------|--------------------------------|---------------2----------------|
A|-------------------3---2---0----|-----------------------3---5----|-------------------5---3--------|
E|------3--3-----0----------------|---------------3---5------------|---------------------------1----|


E|-------------------1------------|--------------------------------|----------------------------------|
B|-1-----------------1------------|--------------------------------|----------------------------------|
G|-2-----------------2------------|---------------------------5----|----------7---7--7--7--5--7--9----|
D|------------3-------------------|-5------------------------------|----------------------------------|
A|--------------------------------|--------------------------------|----------------------------------|
E|------1--------------------3----|------3--3-----0---3---0--------|----------------------------------|


E|----------------------------------|-------------------------------|-------------------------------|
B|----------------------------------|----------5---5--5--------5----|----------5---5--5--------5----|
G|-9--------7---7--7--7--5--7--9----|-9--------7---7--7--7--5--7----|----------7---7--7--7--5--7----|
D|----------------------------------|-------------------------------|-------------------------------|
A|----------------------------------|-------------------------------|-------------------------------|
E|----------------------------------|-------------------------------|-------------------------------|


E|-------------------------------|-------------------------------|-------------------------------|
B|----------5---5--5--------5----|----------5---5--5--------5----|----------5---5--5-------------|
G|----------7---7--7--7--5--7----|----------7---7--7--7--5--7----|----------7---7--7--7--5--5----|
D|-------------------------------|-------------------------------|-------------------------------|
A|-------------------------------|-------------------------------|-------------------------------|
E|-------------------------------|-------------------------------|-------------------------------|


E|-------------------------------|-------------------------------|-------------------------------|
B|--------------------------5----|--------------------------5----|--------------------------5----|
G|----------7---7--7--7--5--7----|----------7---7--7--7--5--7----|----------7---7--7--7--5--7----|
D|-------------------------------|-------------------------------|-------------------------------|
A|-------------------------------|-------------------------------|-------------------------------|
E|-------------------------------|-------------------------------|-------------------------------|


E|---------------------|---------------------|------------------------|---------------------------|
B|----------3-----5----|----------5-----5----|----------5--------3----|----------------------3----|
G|----------5-----7----|----------7-----7----|----------7----5---5----|----------7---7---7---5----|
D|---------------------|---------------------|------------------------|---------------------------|
A|---------------------|---------------------|------------------------|---------------------------|
E|---------------------|---------------------|------------------------|---------------------------|


E|----------------------|----------------------|-------------|-------------------------------|
B|----------------------|----------------------|--------5----|-------------------------------|
G|-------4----4--5--5---|-5-----4----4--5--5---|-5-----------|----------7---7--7--7--5--7----|
D|----------------------|----------------------|-------------|-------------------------------|
A|----------------------|----------------------|-------------|-------------------------------|
E|----------------------|----------------------|-------------|-------------------------------|


E|-------------------------------|-------------------------------|-------------------------------|
B|-------------------------------|-------------------------------|-------------------------------|
G|----------7---7--7--7--5--7----|----------7---7--7--7--5--5----|----------7---7--7--7--5-------|
D|-------------------------------|-------------------------------|--------------------------5----|
A|-------------------------------|-------------------------------|-------------------------------|
E|-------------------------------|-------------------------------|-------------------------------|


E|-------------------------------|-------------------------------|---------------------------|
B|-------------------------------|-------------------------------|---------------------------|
G|----------7---7--7--7--5-------|----------7---7--7--7--5-------|----------7---7---7---5----|
D|--------------------------7----|--------------------------3----|---------------------------|
A|-------------------------------|-------------------------------|---------------------------|
E|-------------------------------|-------------------------------|---------------------------|


E|-----------------|-----------------|---------------------------|---------------------------|
B|-----------------|-----------------|---------------------------|---------------------------|
G|-----------------|-----------------|----------7---7---7---5----|----------7---7---7---5----|
D|------------5----|------------7----|---------------------------|---------------------------|
A|-----------------|-----------------|---------------------------|---------------------------|
E|-----------------|-----------------|---------------------------|---------------------------|


E|---------------------------|--------|--------|--------|--------|--------|--------|
B|---------------------------|--------|--------|--------|--------|--------|--------|
G|----------7---7---7--------|--------|--------|--------|--------|--------|--------|
D|---------------------------|--------|--------|--------|--------|--------|--------|
A|---------------------------|--------|--------|--------|--------|--------|--------|
E|---------------------------|--------|--------|--------|--------|--------|--------|


E|--------|--------|--------|--------|--------|--------|--------|--------|--------|
B|--------|--------|--------|--------|--------|--------|--------|--------|--------|
G|--------|--------|--------|--------|--------|--------|--------|--------|--------|
D|--------|--------|--------|--------|--------|--------|--------|--------|--------|
A|--------|--------|--------|--------|--------|--------|--------|--------|--------|
E|--------|--------|--------|--------|--------|--------|--------|--------|--------|


E|--------|--------|--------|--------|--------|
B|--------|--------|--------|--------|--------|
G|--------|--------|--------|--------|--------|
D|--------|--------|--------|--------|--------|
A|--------|--------|--------|--------|--------|
E|--------|--------|--------|--------|--------|





Track 5: Solo guitar (w/ delay)

E|--------|--------|--------|--------|--------|--------|--------|--------|--------|
B|--------|--------|--------|--------|--------|--------|--------|--------|--------|
G|--------|--------|--------|--------|--------|--------|--------|--------|--------|
D|--------|--------|--------|--------|--------|--------|--------|--------|--------|
A|--------|--------|--------|--------|--------|--------|--------|--------|--------|
E|--------|--------|--------|--------|--------|--------|--------|--------|--------|


E|--------|--------|--------|--------|--------|--------|--------|--------|--------|
B|--------|--------|--------|--------|--------|--------|--------|--------|--------|
G|--------|--------|--------|--------|--------|--------|--------|--------|--------|
D|--------|--------|--------|--------|--------|--------|--------|--------|--------|
A|--------|--------|--------|--------|--------|--------|--------|--------|--------|
E|--------|--------|--------|--------|--------|--------|--------|--------|--------|


E|--------|--------|--------|--------|--------|--------|--------|--------|--------|
B|--------|--------|--------|--------|--------|--------|--------|--------|--------|
G|--------|--------|--------|--------|--------|--------|--------|--------|--------|
D|--------|--------|--------|--------|--------|--------|--------|--------|--------|
A|--------|--------|--------|--------|--------|--------|--------|--------|--------|
E|--------|--------|--------|--------|--------|--------|--------|--------|--------|


E|--------|--------|--------|--------|--------|--------|--------|--------|--------|
B|--------|--------|--------|--------|--------|--------|--------|--------|--------|
G|--------|--------|--------|--------|--------|--------|--------|--------|--------|
D|--------|--------|--------|--------|--------|--------|--------|--------|--------|
A|--------|--------|--------|--------|--------|--------|--------|--------|--------|
E|--------|--------|--------|--------|--------|--------|--------|--------|--------|


E|--------|--------|--------|------------------0----0--|-0----0---0-----0--------|
B|--------|--------|--------|------------------8----8--|-8----8---8-----8--------|
G|--------|--------|--------|-------7--9--9------------|-------------------------|
D|--------|--------|--------|--------------------------|-------------------------|
A|--------|--------|--------|--------------------------|-------------------------|
E|--------|--------|--------|--------------------------|-------------------------|


E|--------|--------|--------|--------|--------|--------|--------|--------|--------|
B|--------|--------|--------|--------|--------|--------|--------|--------|--------|
G|--------|--------|--------|--------|--------|--------|--------|--------|--------|
D|--------|--------|--------|--------|--------|--------|--------|--------|--------|
A|--------|--------|--------|--------|--------|--------|--------|--------|--------|
E|--------|--------|--------|--------|--------|--------|--------|--------|--------|


E|--------|--------|--------|--------|--------|--------|--------|--------|--------|
B|--------|--------|--------|--------|--------|--------|--------|--------|--------|
G|--------|--------|--------|--------|--------|--------|--------|--------|--------|
D|--------|--------|--------|--------|--------|--------|--------|--------|--------|
A|--------|--------|--------|--------|--------|--------|--------|--------|--------|
E|--------|--------|--------|--------|--------|--------|--------|--------|--------|


E|--------|--------|--------|--------|--------|--------|--------|--------|--------|
B|--------|--------|--------|--------|--------|--------|--------|--------|--------|
G|--------|--------|--------|--------|--------|--------|--------|--------|--------|
D|--------|--------|--------|--------|--------|--------|--------|--------|--------|
A|--------|--------|--------|--------|--------|--------|--------|--------|--------|
E|--------|--------|--------|--------|--------|--------|--------|--------|--------|


E|--------|--------|--------|--------|--------|--------|--------|--------|--------|
B|--------|--------|--------|--------|--------|--------|--------|--------|--------|
G|--------|--------|--------|--------|--------|--------|--------|--------|--------|
D|--------|--------|--------|--------|--------|--------|--------|--------|--------|
A|--------|--------|--------|--------|--------|--------|--------|--------|--------|
E|--------|--------|--------|--------|--------|--------|--------|--------|--------|


E|--------|--------|--------|--------|--------|--------|--------|--------|--------|
B|--------|--------|--------|--------|--------|--------|--------|--------|--------|
G|--------|--------|--------|--------|--------|--------|--------|--------|--------|
D|--------|--------|--------|--------|--------|--------|--------|--------|--------|
A|--------|--------|--------|--------|--------|--------|--------|--------|--------|
E|--------|--------|--------|--------|--------|--------|--------|--------|--------|


E|--------|--------|--------|--------|--------|--------|--------|--------|--------|
B|--------|--------|--------|--------|--------|--------|--------|--------|--------|
G|--------|--------|--------|--------|--------|--------|--------|--------|--------|
D|--------|--------|--------|--------|--------|--------|--------|--------|--------|
A|--------|--------|--------|--------|--------|--------|--------|--------|--------|
E|--------|--------|--------|--------|--------|--------|--------|--------|--------|


E|--------|--------|--------|--------|--------|--------|--------|
B|--------|--------|--------|--------|--------|--------|--------|
G|--------|--------|--------|--------|--------|--------|--------|
D|--------|--------|--------|--------|--------|--------|--------|
A|--------|--------|--------|--------|--------|--------|--------|
E|--------|--------|--------|--------|--------|--------|--------|





Track 6: Guitar (clean)

E|--------|--------|--------|--------|--------|--------|--------|--------|--------|
B|--------|--------|--------|--------|--------|--------|--------|--------|--------|
G|--------|--------|--------|--------|--------|--------|--------|--------|--------|
D|--------|--------|--------|--------|--------|--------|--------|--------|--------|
A|--------|--------|--------|--------|--------|--------|--------|--------|--------|
E|--------|--------|--------|--------|--------|--------|--------|--------|--------|


E|--------|--------|--------|--------|--------|--------|--------|--------|--------|
B|--------|--------|--------|--------|--------|--------|--------|--------|--------|
G|--------|--------|--------|--------|--------|--------|--------|--------|--------|
D|--------|--------|--------|--------|--------|--------|--------|--------|--------|
A|--------|--------|--------|--------|--------|--------|--------|--------|--------|
E|--------|--------|--------|--------|--------|--------|--------|--------|--------|


E|--------|--------|--------|--------|--------|--------|--------|--------|--------|
B|--------|--------|--------|--------|--------|--------|--------|--------|--------|
G|--------|--------|--------|--------|--------|--------|--------|--------|--------|
D|--------|--------|--------|--------|--------|--------|--------|--------|--------|
A|--------|--------|--------|--------|--------|--------|--------|--------|--------|
E|--------|--------|--------|--------|--------|--------|--------|--------|--------|


E|--------|--------|--------|--------|--------|--------|--------|--------|--------|
B|--------|--------|--------|--------|--------|--------|--------|--------|--------|
G|--------|--------|--------|--------|--------|--------|--------|--------|--------|
D|--------|--------|--------|--------|--------|--------|--------|--------|--------|
A|--------|--------|--------|--------|--------|--------|--------|--------|--------|
E|--------|--------|--------|--------|--------|--------|--------|--------|--------|


E|--------|--------|--------|--------|------------------|--------------------|----------------|
B|--------|--------|--------|--------|--------8--8--5---|-5----5-----7----7--|-7------6----6--|
G|--------|--------|--------|--------|------------------|--------------------|----------------|
D|--------|--------|--------|--------|------------------|--------------------|----------------|
A|--------|--------|--------|--------|------------------|--------------------|----------------|
E|--------|--------|--------|--------|------------------|--------------------|----------------|


E|----------------|-------------|-------------|-------------|--------|--------|--------|
B|-6------8----8--|-8-----------|-------------|-------------|--------|--------|--------|
G|----------------|-------------|-------------|-------------|--------|--------|--------|
D|----------------|-------------|-------------|-------------|--------|--------|--------|
A|----------------|-------------|-------------|-------------|--------|--------|--------|
E|----------------|-------------|-------------|-------------|--------|--------|--------|


E|--------|--------|--------|--------|--------|--------|--------|--------|--------|
B|--------|--------|--------|--------|--------|--------|--------|--------|--------|
G|--------|--------|--------|--------|--------|--------|--------|--------|--------|
D|--------|--------|--------|--------|--------|--------|--------|--------|--------|
A|--------|--------|--------|--------|--------|--------|--------|--------|--------|
E|--------|--------|--------|--------|--------|--------|--------|--------|--------|


E|--------|--------|--------|--------|--------|--------|--------|--------|--------|
B|--------|--------|--------|--------|--------|--------|--------|--------|--------|
G|--------|--------|--------|--------|--------|--------|--------|--------|--------|
D|--------|--------|--------|--------|--------|--------|--------|--------|--------|
A|--------|--------|--------|--------|--------|--------|--------|--------|--------|
E|--------|--------|--------|--------|--------|--------|--------|--------|--------|


E|--------|--------|--------|--------|--------|--------|--------|--------|--------|
B|--------|--------|--------|--------|--------|--------|--------|--------|--------|
G|--------|--------|--------|--------|--------|--------|--------|--------|--------|
D|--------|--------|--------|--------|--------|--------|--------|--------|--------|
A|--------|--------|--------|--------|--------|--------|--------|--------|--------|
E|--------|--------|--------|--------|--------|--------|--------|--------|--------|


E|--------|--------|--------|--------|--------|--------|--------|--------|--------|
B|--------|--------|--------|--------|--------|--------|--------|--------|--------|
G|--------|--------|--------|--------|--------|--------|--------|--------|--------|
D|--------|--------|--------|--------|--------|--------|--------|--------|--------|
A|--------|--------|--------|--------|--------|--------|--------|--------|--------|
E|--------|--------|--------|--------|--------|--------|--------|--------|--------|


E|--------|--------|--------|--------|--------|--------|--------|--------|--------|
B|--------|--------|--------|--------|--------|--------|--------|--------|--------|
G|--------|--------|--------|--------|--------|--------|--------|--------|--------|
D|--------|--------|--------|--------|--------|--------|--------|--------|--------|
A|--------|--------|--------|--------|--------|--------|--------|--------|--------|
E|--------|--------|--------|--------|--------|--------|--------|--------|--------|


E|--------|--------|--------|--------|--------|--------|--------|
B|--------|--------|--------|--------|--------|--------|--------|
G|--------|--------|--------|--------|--------|--------|--------|
D|--------|--------|--------|--------|--------|--------|--------|
A|--------|--------|--------|--------|--------|--------|--------|
E|--------|--------|--------|--------|--------|--------|--------|





Track 7: Guitar (clean)

E|--------|--------|--------|--------|--------|--------|--------|--------|--------|
B|--------|--------|--------|--------|--------|--------|--------|--------|--------|
G|--------|--------|--------|--------|--------|--------|--------|--------|--------|
D|--------|--------|--------|--------|--------|--------|--------|--------|--------|
A|--------|--------|--------|--------|--------|--------|--------|--------|--------|
E|--------|--------|--------|--------|--------|--------|--------|--------|--------|


E|--------|--------|--------|--------|--------|--------|--------|--------|--------|
B|--------|--------|--------|--------|--------|--------|--------|--------|--------|
G|--------|--------|--------|--------|--------|--------|--------|--------|--------|
D|--------|--------|--------|--------|--------|--------|--------|--------|--------|
A|--------|--------|--------|--------|--------|--------|--------|--------|--------|
E|--------|--------|--------|--------|--------|--------|--------|--------|--------|


E|--------|--------|--------|--------|--------|--------|--------|--------|--------|
B|--------|--------|--------|--------|--------|--------|--------|--------|--------|
G|--------|--------|--------|--------|--------|--------|--------|--------|--------|
D|--------|--------|--------|--------|--------|--------|--------|--------|--------|
A|--------|--------|--------|--------|--------|--------|--------|--------|--------|
E|--------|--------|--------|--------|--------|--------|--------|--------|--------|


E|--------|--------|--------|--------|--------|--------|--------|--------|--------|
B|--------|--------|--------|--------|--------|--------|--------|--------|--------|
G|--------|--------|--------|--------|--------|--------|--------|--------|--------|
D|--------|--------|--------|--------|--------|--------|--------|--------|--------|
A|--------|--------|--------|--------|--------|--------|--------|--------|--------|
E|--------|--------|--------|--------|--------|--------|--------|--------|--------|


E|--------|--------|--------|--------|--------|--------|--------|--------|--------|
B|--------|--------|--------|--------|--------|--------|--------|--------|--------|
G|--------|--------|--------|--------|--------|--------|--------|--------|--------|
D|--------|--------|--------|--------|--------|--------|--------|--------|--------|
A|--------|--------|--------|--------|--------|--------|--------|--------|--------|
E|--------|--------|--------|--------|--------|--------|--------|--------|--------|


E|--------|--------|--------|--------|--------|--------|--------|--------|--------|
B|--------|--------|--------|--------|--------|--------|--------|--------|--------|
G|--------|--------|--------|--------|--------|--------|--------|--------|--------|
D|--------|--------|--------|--------|--------|--------|--------|--------|--------|
A|--------|--------|--------|--------|--------|--------|--------|--------|--------|
E|--------|--------|--------|--------|--------|--------|--------|--------|--------|


E|--------|--------|--------|--------|--------|--------|--------|--------|--------|
B|--------|--------|--------|--------|--------|--------|--------|--------|--------|
G|--------|--------|--------|--------|--------|--------|--------|--------|--------|
D|--------|--------|--------|--------|--------|--------|--------|--------|--------|
A|--------|--------|--------|--------|--------|--------|--------|--------|--------|
E|--------|--------|--------|--------|--------|--------|--------|--------|--------|


E|--------|--------|--------|--------|--------|--------|--------|--------|--------|
B|--------|--------|--------|--------|--------|--------|--------|--------|--------|
G|--------|--------|--------|--------|--------|--------|--------|--------|--------|
D|--------|--------|--------|--------|--------|--------|--------|--------|--------|
A|--------|--------|--------|--------|--------|--------|--------|--------|--------|
E|--------|--------|--------|--------|--------|--------|--------|--------|--------|


E|--------|--------|--------|--------|--------|--------|--------|--------|--------|
B|--------|--------|--------|--------|--------|--------|--------|--------|--------|
G|--------|--------|--------|--------|--------|--------|--------|--------|--------|
D|--------|--------|--------|--------|--------|--------|--------|--------|--------|
A|--------|--------|--------|--------|--------|--------|--------|--------|--------|
E|--------|--------|--------|--------|--------|--------|--------|--------|--------|


E|-------------|-------------------------------|---------------------------|---------------------------|
B|-------------|-------------------------------|---------------------------|---------------------------|
G|--------5----|----------7---7--7--7--5-------|----------7---7---7---5----|----------7---7---7---5----|
D|-------------|--------------------------7----|---------------------------|---------------------------|
A|-------------|-------------------------------|---------------------------|---------------------------|
E|-------------|-------------------------------|---------------------------|---------------------------|


E|---------------------------|-------------------------------|---------------------------|
B|----------5---5------------|-------------------------------|---------------------------|
G|----------7---7---7---5----|----------7---7--7--7--5-------|----------7---7---7---5----|
D|---------------------------|--------------------------7----|---------------------------|
A|---------------------------|-------------------------------|---------------------------|
E|---------------------------|-------------------------------|---------------------------|


E|---------------------------|------------------------------|---------------------------|
B|---------------------------|------------------------------|---------------------------|
G|----------7---7---7---5----|----------7---7---7---7---9---|----------7---7---7---5----|
D|---------------------------|------------------------------|---------------------------|
A|---------------------------|------------------------------|---------------------------|
E|---------------------------|------------------------------|---------------------------|


E|---------------------------|---------------------------|---------------------------|
B|---------------------------|---------------------------|---------------------------|
G|----------7---7---7---5----|----------7---7---7---5----|----------7---7---7---5----|
D|---------------------------|---------------------------|---------------------------|
A|---------------------------|---------------------------|---------------------------|
E|---------------------------|---------------------------|---------------------------|


E|---------------------------|---------------------------|---------------------------|
B|---------------------------|---------------------------|---------------------------|
G|----------7---7---7---5----|----------7---7---7---5----|----------7---7---7---5----|
D|---------------------------|---------------------------|---------------------------|
A|---------------------------|---------------------------|---------------------------|
E|---------------------------|---------------------------|---------------------------|


E|---------------------------|---------------------------|---------------------------|
B|---------------------------|---------------------------|---------------------------|
G|----------7---7---7---5----|----------7---7---7---5----|----------7---7---7---5----|
D|---------------------------|---------------------------|---------------------------|
A|---------------------------|---------------------------|---------------------------|
E|---------------------------|---------------------------|---------------------------|


E|---------------------------|-------------|
B|---------------------------|-------------|
G|----------7---7---7---5----|--------5----|
D|---------------------------|-------------|
A|---------------------------|-------------|
E|---------------------------|-------------|





Track 8: Guitar (clean)

E|--------|--------|--------|--------|--------|--------|--------|--------|--------|
B|--------|--------|--------|--------|--------|--------|--------|--------|--------|
G|--------|--------|--------|--------|--------|--------|--------|--------|--------|
D|--------|--------|--------|--------|--------|--------|--------|--------|--------|
A|--------|--------|--------|--------|--------|--------|--------|--------|--------|
E|--------|--------|--------|--------|--------|--------|--------|--------|--------|


E|--------|--------|--------|--------|--------|--------|--------|--------|--------|
B|--------|--------|--------|--------|--------|--------|--------|--------|--------|
G|--------|--------|--------|--------|--------|--------|--------|--------|--------|
D|--------|--------|--------|--------|--------|--------|--------|--------|--------|
A|--------|--------|--------|--------|--------|--------|--------|--------|--------|
E|--------|--------|--------|--------|--------|--------|--------|--------|--------|


E|--------|--------|--------|--------|--------|--------|--------|--------|--------|
B|--------|--------|--------|--------|--------|--------|--------|--------|--------|
G|--------|--------|--------|--------|--------|--------|--------|--------|--------|
D|--------|--------|--------|--------|--------|--------|--------|--------|--------|
A|--------|--------|--------|--------|--------|--------|--------|--------|--------|
E|--------|--------|--------|--------|--------|--------|--------|--------|--------|


E|--------|--------|--------|--------|--------|--------|--------|--------|--------|
B|--------|--------|--------|--------|--------|--------|--------|--------|--------|
G|--------|--------|--------|--------|--------|--------|--------|--------|--------|
D|--------|--------|--------|--------|--------|--------|--------|--------|--------|
A|--------|--------|--------|--------|--------|--------|--------|--------|--------|
E|--------|--------|--------|--------|--------|--------|--------|--------|--------|


E|--------|--------|--------|--------|--------|--------|--------|--------|--------|
B|--------|--------|--------|--------|--------|--------|--------|--------|--------|
G|--------|--------|--------|--------|--------|--------|--------|--------|--------|
D|--------|--------|--------|--------|--------|--------|--------|--------|--------|
A|--------|--------|--------|--------|--------|--------|--------|--------|--------|
E|--------|--------|--------|--------|--------|--------|--------|--------|--------|


E|--------|--------|--------|--------|--------|--------|--------|--------|--------|
B|--------|--------|--------|--------|--------|--------|--------|--------|--------|
G|--------|--------|--------|--------|--------|--------|--------|--------|--------|
D|--------|--------|--------|--------|--------|--------|--------|--------|--------|
A|--------|--------|--------|--------|--------|--------|--------|--------|--------|
E|--------|--------|--------|--------|--------|--------|--------|--------|--------|


E|--------|--------|--------|--------|--------|--------|--------|--------|--------|
B|--------|--------|--------|--------|--------|--------|--------|--------|--------|
G|--------|--------|--------|--------|--------|--------|--------|--------|--------|
D|--------|--------|--------|--------|--------|--------|--------|--------|--------|
A|--------|--------|--------|--------|--------|--------|--------|--------|--------|
E|--------|--------|--------|--------|--------|--------|--------|--------|--------|


E|--------|--------|--------|--------|--------|--------|--------|--------|--------|
B|--------|--------|--------|--------|--------|--------|--------|--------|--------|
G|--------|--------|--------|--------|--------|--------|--------|--------|--------|
D|--------|--------|--------|--------|--------|--------|--------|--------|--------|
A|--------|--------|--------|--------|--------|--------|--------|--------|--------|
E|--------|--------|--------|--------|--------|--------|--------|--------|--------|


E|--------|--------|--------|--------|--------|--------|--------|--------|--------|
B|--------|--------|--------|--------|--------|--------|--------|--------|--------|
G|--------|--------|--------|--------|--------|--------|--------|--------|--------|
D|--------|--------|--------|--------|--------|--------|--------|--------|--------|
A|--------|--------|--------|--------|--------|--------|--------|--------|--------|
E|--------|--------|--------|--------|--------|--------|--------|--------|--------|


E|--------12---|----------12--13--15-------|-12-------12--13--15--12---|--------12-12----------------|
B|--------13---|----------------------13---|----------12---------------|-----13------------13---13---|
G|-------------|----------------------14---|---------------------------|---------------12------------|
D|-------------|---------------------------|---------------------------|-----------------------------|
A|-------------|---------------------------|---------------------------|-----------------------------|
E|-------------|---------------------------|---------------------------|-----------------------------|


E|-12------12-12--13--12-------|-12---13----13-13-----------------|-------------------------------------|
B|----------------13------13---|------------------------15-17-17--|-----17-17-----18--17--15--15-17-17--|
G|-----------------------------|------------------------12-14-14--|-----14-14-----------------------17--|
D|-----------------------------|----------------------------------|-------------------------------------|
A|-----------------------------|----------------------------------|-------------------------------------|
E|-----------------------------|----------------------------------|-------------------------------------|


E|---------------0-------------------|----------------12---|-----13---12---13--12---12-|
B|-----17-17-----18--17--15--13------|------13---13---13---|-------------------10---10-|
G|-----14-14---------14----------12--|------12---12--------|---------------------------|
D|-----------------------------------|---------------------|---------------------------|
A|-----------------------------------|---------------------|---------------------------|
E|-----------------------------------|---------------------|---------------------------|


E|-12---12-12-----------12---12-|-12----------------12---12-|-12-12-12-12-----12------13--15-15-15--|
B|-10---------13--------13---13-|-13--13--15--13----13---13-|-13-13-13-13-----------------17-17-17--|
G|------------------------------|---------------------------|---------------------------------------|
D|------------------------------|---------------------------|---------------------------------------|
A|------------------------------|---------------------------|---------------------------------------|
E|------------------------------|---------------------------|---------------------------------------|


E|----------12--13--15------12--|----------12--13--15--12--12--|-----12----------17--------------|
B|----------------------10------|----------------------10--10--|-----10------17------15--17---17-|
G|------------------------------|------------------------------|-------------------------17---17-|
D|------------------------------|------------------------------|---------------------------------|
A|------------------------------|------------------------------|---------------------------------|
E|------------------------------|------------------------------|---------------------------------|


E|----------------------------------|----------12--13-----------12-12--|-12--12-12----12-12--12--12-12----12-12--|
B|-17----------------17--------17---|------------------13-15-10----10--|-10--------10----10--10--------10----10--|
G|----17---------17-----17-----17---|-----17---------------------------|-----------------------------------------|
D|-----------17---------------------|-----17---------------------------|-----------------------------------------|
A|----------------------------------|----------------------------------|-----------------------------------------|
E|----------------------------------|----------------------------------|-----------------------------------------|


E|-12-------------------12---|--------12---|
B|-10------------------------|-------------|
G|------------------12-------|-------------|
D|---------------------------|-------------|
A|---------------------------|-------------|
E|---------------------------|-------------|





Track 9: Untitled

G|-----------------|--------|--------|--------|--------|--------|--------|--------|
D|-----------------|--------|--------|--------|--------|--------|--------|--------|
A|-----------------|--------|--------|--------|--------|--------|--------|--------|
E|-----------------|--------|--------|--------|--------|--------|--------|--------|


G|--------|--------|--------|--------|--------|--------|--------|--------|--------|
D|--------|--------|--------|--------|--------|--------|--------|--------|--------|
A|--------|--------|--------|--------|--------|--------|--------|--------|--------|
E|--------|--------|--------|--------|--------|--------|--------|--------|--------|


G|--------|--------|--------|--------|--------|--------|--------|----------------|
D|--------|--------|--------|--------|--------|--------|--------|----------------|
A|--------|--------|--------|--------|--------|--------|--------|----------------|
E|--------|--------|--------|--------|--------|--------|--------|--------5-------|


G|---------------------------------|---------------------------------|---------------------------------|
D|---------------------------------|-------------------------3-------|-----3---3---------------5---5---|
A|---------------------3---5-------|-----5---5-------3---5-----------|-------------5---3---5-----------|
E|-----5---5---3---5---------------|-------------5-------------------|---------------------------------|


G|---------------------------------|---------------------------------|---------------------------------|
D|-5---5---5-----------------------|---------------------------------|-------------------------3-------|
A|-------------7---5---3-----------|---------------------3---5-------|-----5-----------3---5-----------|
E|-------------------------5-------|-----5---5---3---5---------------|-------------5-------------------|


G|------------------------------|------------------------------|------------------------------|
D|-----3---3-----------3---5----|-----5---5--------------------|------------------------------|
A|-------------5---3------------|-------------7---5-------3----|-----3---3---2---3---2--------|
E|------------------------------|---------------------5--------|-------------------------5----|


G|------------------------------|---------------------------------|------------------------------|
D|------------------------------|---------------------------------|------------------------------|
A|------------------------------|---------------------0---3---3---|-----3-------3---2-------3----|
E|-----5-------3---5---3---1----|-----1-------0---1---------------|---------------------3--------|


G|------------------------------|------------------------------|---------------------------------|
D|------------------------------|------------------------------|---------------------------------|
A|-----3---3---3---3---2--------|------------------------------|-------------------------3---3---|
E|-------------------------5----|-----5---5---5---5---3---1----|-----1---1---1---3---5-----------|


G|---------------------------------|------------------------------|---------------------------------|
D|---------------------------------|------------------------------|-------------------------3---3---|
A|-----3-------3---2---------------|---------------------3---5----|-----5-----------3---5-----------|
E|---------------------3---5---5---|-----5---5---3---5------------|-------------5-------------------|


G|---------------------------------|---------------------------------|---------------------------------|
D|-3---3---3-----------3---5---5---|-5---5---5---2-------------------|---------------------------------|
A|-------------5---3---------------|-----------------5---3-----------|---------------------3---5-------|
E|---------------------------------|-------------------------5-------|-----5---5---3---5---------------|


G|---------------------------------|---------------------------------|---------------------------------|
D|-------------------------3-------|-3---3---3---------------5---5---|-5---5---5-----------------------|
A|-----5---5-------3---5-----------|-------------5---3---------------|-----------------3---2-----------|
E|-------------5-------------------|---------------------5-----------|-------------3-----------5-------|


G|---------------------------------|---------------------------------|---------------------------------|
D|---------------------------------|-------------------------3-------|-3---3---3-----------3---5---5---|
A|---------------------3---5-------|-----5---5-------3---5-----------|-------------5---3---------------|
E|-----5---5---3---5---------------|-------------5-------------------|---------------------------------|


G|------------------------------|------------------------------|---------------------------------|
D|-5---5---5---2----------------|------------------------------|---------------------------------|
A|-----------------5---3---3----|-----3---3---3---3---2--------|---------------------------------|
E|------------------------------|-------------------------5----|-----5---5---5---5---3---1---1---|


G|---------------------------------|------------------------------|---------------------------------|
D|---------------------------------|------------------------------|---------------------------------|
A|---------------------0---3---3---|-----3---3---3---3-------3----|-----3---3---3---3---2-----------|
E|-1---1---1---1---3---------------|---------------------3--------|-------------------------5---5---|


G|---------------------------------|------------------------------|------------------------------|
D|---------------------------------|------------------------------|------------------------------|
A|---------------------------------|---------------------0---3----|-----3---3---3---3-------3----|
E|-----5---5---5---5---3---1---1---|-----1---1---1---3------------|---------------------3--------|


G|---------------------------------|---------------------------------|-5-------------------------------|
D|---------------------------------|-7-------------------------------|---------------------------------|
A|-----3---3---3---3---2-----------|---------------------2---3---3---|-----3---3---3---3---2-----------|
E|-------------------------5---5---|-----5---5---5---5---------------|-------------------------5---5---|


G|---------------------------------|-5-------------------------------|---------------------------------|
D|---------------------------------|---------------------------------|---------------------------------|
A|---------------------2---3---3---|-----3---3---3---3---3-----------|---------------------------------|
E|-----5---5---5---5---------------|-------------------------3---3---|-3---3---3---3---3---0---3---3---|


G|---------------------------------|---------------------------------|------------------------------|
D|---------------------------------|---------------------------------|------------------------------|
A|---------------------------------|---------------------------------|-------------------------3----|
E|-----3---3---3---3---0---1---1---|-1---1---1---1---1---0---1---1---|-1---1---1---1---3---5--------|


G|---------------------------------|---------------------------------|---------------------------------|
D|---------------------------------|---------------------------------|---------------------------------|
A|-----3---3---3---3---2-----------|---------------------------------|-------------------------3---3---|
E|-------------------------5---5---|-5---5---5---5---5---3---1---1---|-1---1---1---1---3---5-----------|


G|---------------------------------|---------------------------------|---------------------------------|
D|---------------------------------|---------------------------------|---------------------------------|
A|-3---3---3---3---3-------3---3---|-3---3---3---3---3---2-----------|---------------------------------|
E|---------------------3-----------|-------------------------5---5---|-5---5---5---5---5---3---1---1---|


G|---------------------------------|---------------------------------|---------------------------------|
D|---------------------------------|---------------------------------|---------------------------------|
A|-------------------------3---3---|-3---3---3---3---3-------3---3---|-3---3---3---3---3---2-----------|
E|-1---1---1---1---3---5-----------|---------------------3-----------|-------------------------5---5---|


G|---------------------------------|---------------------------------|---------------------------------|
D|---------------------------------|---------------------------------|---------------------------------|
A|---------------------------------|-------------------------3---3---|-3---3---3---3---3-------3---3---|
E|-5---5---5---5---5---3---1---1---|-1---1---1---1---3---5-----------|---------------------3-----------|


G|---------------------------------|---------------------------------|---------------------------------|
D|---------------------------------|---------------------------------|---------------------------------|
A|-3---3---3---3---3---2-----------|---------------------------------|-------------------------3---3---|
E|-------------------------5---5---|-5---5---5---5---5---3---1---1---|-1---1---1---1---3---5-----------|


G|---------------------------------|---------------------------------|---------------------------------|
D|---------------------------------|---------------------------------|---------------------------------|
A|-3---3---3---3---3-------3---3---|-3---3---3---3---3---2-----------|---------------------------------|
E|---------------------3-----------|-------------------------5---5---|-5---5---5---5---5---3---1---1---|


G|---------------------------------|---------------------------------|---------------------------------|
D|---------------------------------|---------------------------------|---------------------------------|
A|-------------------------3---3---|-3---3---3---3---3-------3---3---|-3---3---3---3---3---2-----------|
E|-1---1---1---1---3---5-----------|---------------------3-----------|-------------------------5---5---|


G|---------------------------------|---------------------------------|---------------------------------|
D|---------------------------------|---------------------------------|---------------------------------|
A|---------------------------------|-------------------------3---3---|-3---3---3---3---3-------3---3---|
E|-5---5---5---5---5---3---1---1---|-1---1---1---1---3---5-----------|---------------------3-----------|


G|---------------------------------|---------------------------------|---------------------------------|
D|---------------------------------|---------------------------------|---------------------------------|
A|-3---3---3---3---3---2-----------|---------------------------------|-------------------------3---3---|
E|-------------------------5---5---|-5---5---5---5---5---3---1---1---|-1---1---1---1---3---5-----------|


G|---------------------------------|---------------------------------|---------------------------------|
D|---------------------------------|---------------------------------|---------------------------------|
A|-3---3---3---3---3-------3---3---|-3---3---3---3---3---2-----------|---------------------------------|
E|---------------------3-----------|-------------------------5---5---|-5---5---5---5---5---3---1---1---|


G|------------------------------|-------------|
D|------------------------------|-------------|
A|-------------------------3----|--------3----|
E|-1---1---1---1---3---5--------|-------------|





Track 10: Strings

E|--------|--------|--------|--------|--------|--------|--------|--------|--------|
B|--------|--------|--------|--------|--------|--------|--------|--------|--------|
G|--------|--------|--------|--------|--------|--------|--------|--------|--------|
D|--------|--------|--------|--------|--------|--------|--------|--------|--------|
A|--------|--------|--------|--------|--------|--------|--------|--------|--------|
E|--------|--------|--------|--------|--------|--------|--------|--------|--------|


E|--------|--------|--------|--------|--------|--------|--------|--------|--------|
B|--------|--------|--------|--------|--------|--------|--------|--------|--------|
G|--------|--------|--------|--------|--------|--------|--------|--------|--------|
D|--------|--------|--------|--------|--------|--------|--------|--------|--------|
A|--------|--------|--------|--------|--------|--------|--------|--------|--------|
E|--------|--------|--------|--------|--------|--------|--------|--------|--------|


E|--------|--------|--------|--------|--------|--------|--------|--------|--------|
B|--------|--------|--------|--------|--------|--------|--------|--------|--------|
G|--------|--------|--------|--------|--------|--------|--------|--------|--------|
D|--------|--------|--------|--------|--------|--------|--------|--------|--------|
A|--------|--------|--------|--------|--------|--------|--------|--------|--------|
E|--------|--------|--------|--------|--------|--------|--------|--------|--------|


E|--------|--------|--------|--------|--------|--------|--------|--------|--------|
B|--------|--------|--------|--------|--------|--------|--------|--------|--------|
G|--------|--------|--------|--------|--------|--------|--------|--------|--------|
D|--------|--------|--------|--------|--------|--------|--------|--------|--------|
A|--------|--------|--------|--------|--------|--------|--------|--------|--------|
E|--------|--------|--------|--------|--------|--------|--------|--------|--------|


E|--------|--------|--------|--------|-------------|-------------|--------5----|--------7----|
B|--------|--------|--------|--------|-------------|-------------|--------6----|--------8----|
G|--------|--------|--------|--------|-------------|-------------|--------5----|--------7----|
D|--------|--------|--------|--------|-------------|-------------|-------------|-------------|
A|--------|--------|--------|--------|-------------|-------------|-------------|-------------|
E|--------|--------|--------|--------|-------------|-------------|-------------|-------------|


E|-7----8----7----5----|--------5----|--------5----|--------7----|--------5----|--------5----|
B|-8--------------5----|--------5----|--------6----|--------8----|--------5----|--------5----|
G|-7----9----7----5----|--------5----|--------5----|--------7----|--------5----|--------5----|
D|---------------------|-------------|-------------|-------------|-------------|-------------|
A|---------------------|-------------|-------------|-------------|-------------|-------------|
E|---------------------|-------------|-------------|-------------|-------------|-------------|


E|--------5----|--------7----|--------8----|-------7----5----|--------5----|--------8----|
B|--------6----|--------8----|--------8----|-------8----5----|--------5----|--------8----|
G|--------5----|--------7----|--------9----|-------9----5----|--------5----|--------9----|
D|-------------|-------------|-------------|-----------------|-------------|-------------|
A|-------------|-------------|-------------|-----------------|-------------|-------------|
E|-------------|-------------|-------------|-----------------|-------------|-------------|


E|--------8----|------------5----|--------5----|--------8----|--------8----|-----------7---5----|
B|--------8----|------------5----|--------5----|--------8----|--------8----|-----------8---5----|
G|--------9----|------------5----|--------5----|--------9----|--------9----|-----------9---5----|
D|-------------|-----------------|-------------|-------------|-------------|--------------------|
A|-------------|-----------------|-------------|-------------|-------------|--------------------|
E|-------------|-----------------|-------------|-------------|-------------|--------------------|


E|-----------7---8----|-----------7---5----|--------8----|--------3----|--------3----|
B|-----------8---8----|-----------8---5----|--------8----|--------3----|--------3----|
G|-----------9---9----|-----------9---5----|--------9----|--------4----|--------4----|
D|--------------------|--------------------|-------------|-------------|-------------|
A|--------------------|--------------------|-------------|-------------|-------------|
E|--------------------|--------------------|-------------|-------------|-------------|


E|--------1----|--------1----|--------8----|--------8----|--------8----|--------8----|
B|--------1----|--------1----|--------8----|--------8----|--------8----|--------8----|
G|--------2----|--------2----|--------9----|--------9----|--------9----|--------9----|
D|-------------|-------------|-------------|-------------|-------------|-------------|
A|-------------|-------------|-------------|-------------|-------------|-------------|
E|-------------|-------------|-------------|-------------|-------------|-------------|


E|--------8----|--------8----|--------8----|--------8----|--------8----|-------7----5----|
B|--------8----|--------8----|--------8----|--------8----|--------8----|-------8----5----|
G|--------9----|--------9----|--------9----|--------9----|--------9----|-------9----5----|
D|-------------|-------------|-------------|-------------|-------------|-----------------|
A|-------------|-------------|-------------|-------------|-------------|-----------------|
E|-------------|-------------|-------------|-------------|-------------|-----------------|


E|--------1----|--------8----|--------8----|-------7----5----|--------1----|--------8----|
B|--------1----|--------8----|--------8----|-------8----5----|--------1----|--------8----|
G|--------2----|--------9----|--------9----|-------9----5----|--------2----|--------9----|
D|-------------|-------------|-------------|-----------------|-------------|-------------|
A|-------------|-------------|-------------|-----------------|-------------|-------------|
E|-------------|-------------|-------------|-----------------|-------------|-------------|


E|--------8----|-------7----5----|--------1----|--------8----|--------8----|-------7----5----|
B|--------8----|-------8----5----|--------1----|--------8----|--------8----|-------8----5----|
G|--------9----|-------9----5----|--------2----|--------9----|--------9----|-------9----5----|
D|-------------|-----------------|-------------|-------------|-------------|-----------------|
A|-------------|-----------------|-------------|-------------|-------------|-----------------|
E|-------------|-----------------|-------------|-------------|-------------|-----------------|


E|--------1----|--------8----|--------8----|-------7----5----|--------1----|--------8----|
B|--------1----|--------8----|--------8----|-------8----5----|--------1----|--------8----|
G|--------2----|--------9----|--------9----|-------9----5----|--------2----|--------9----|
D|-------------|-------------|-------------|-----------------|-------------|-------------|
A|-------------|-------------|-------------|-----------------|-------------|-------------|
E|-------------|-------------|-------------|-----------------|-------------|-------------|


E|--------8----|--------5----|--------1----|--------0----|--------0----|
B|--------8----|--------5----|--------1----|--------1----|--------1----|
G|--------9----|--------5----|--------2----|--------0----|--------0----|
D|-------------|-------------|-------------|--------2----|--------2----|
A|-------------|-------------|-------------|--------3----|--------3----|
E|-------------|-------------|-------------|-------------|-------------|