Site menu:

    

Browse: 0-9 A B C D E F G H I J K L N O P Q R S T U V W X Y Z

u2 - mysterious ways:



Title: Mysterious Ways
Artist: 
Album: Achtung Baby
Author: U2


Track 1: Untitled

E|----------0---------0-----------|----------0--0------0-----------|----------0--0-----0-----1----------|
B|----------0---------0-----------|----------0--0------0-----------|----------0--0-----0-----1----------|
G|----------1--1------1-----------|----------1--1------1-----------|----------1--1-----1-----0----------|
D|-8----8-----------------6---8---|-8----8-----------------6---8---|-8----8---------------8-----6---8---|
A|-8----8-------------------------|-8----8-------------------------|-8----8-----------------------------|
E|-6----6-------------------------|-6----6-------------------------|-6----6-----------------------------|


E|----------0--0-----0-----1----------|----------0---------0-----------|----------0--0------0-----------|
B|----------0--0-----0-----1----------|----------0---------0-----------|----------0--0------0-----------|
G|----------1--1-----1-----0----------|----------1--1------1-----------|----------1--1------1-----------|
D|-8----8---------------8-----6---8---|-8----8-----------------6---8---|-8----8-----------------6---8---|
A|-8----8-----------------------------|-8----8-------------------------|-8----8-------------------------|
E|-6----6-----------------------------|-6----6-------------------------|-6----6-------------------------|


E|----------0--0-----0-----1----------|--------------0--------------|-----------------|
B|----------0--0-----0-----1----------|--------------0--------------|-----------------|
G|----------1--1-----1-----0----------|--------------1--------------|-----------------|
D|-8----8---------------8-----6---8---|-8----8--------------6---8---|-8---------------|
A|-8----8-----------------------------|-8----8----------------------|-8---------------|
E|-6----6-----------------------------|-6----6----------------------|-6---------------|


E|--------|--------|--------|--------|--------|--------|--------|-6----6----------|
B|--------|--------|--------|--------|--------|--------|--------|-6----6----------|
G|--------|--------|--------|--------|--------|--------|--------|-7----7----------|
D|--------|--------|--------|--------|--------|--------|--------|-8---------------|
A|--------|--------|--------|--------|--------|--------|--------|-8---------------|
E|--------|--------|--------|--------|--------|--------|--------|-6---------------|


E|-11---11---------|-6----6---6--6-----11-11-11-11-11-11--|-----11-11-11-11-11-11------11---|
B|-11---11---------|-6----6---6--6-----11-11-11-11-11-11--|-----11-11-11-11-11-11------11---|
G|-12---12---------|-7----7---7--7-----12-12-12-12-12-12--|-----12-12-12-12-12-12------12---|
D|-13--------------|-8-----------------13-13-13-13-13-13--|-----13-13-13-13-13-13------13---|
A|-13--------------|-8------------------------------------|---------------------------------|
E|-11--------------|-6------------------------------------|---------------------------------|


E|-6------|-11----------|-9------|-4------|-6------|-11----------|-9------|-4------|
B|-6------|-11----------|-9------|-4------|-6------|-11----------|-9------|-4------|
G|-7------|-12-----13---|-10-----|-5------|-7------|-12-----13---|-10-----|-5------|
D|-8------|-13-----13---|-11-----|-6------|-8------|-13-----13---|-11-----|-6------|
A|-8------|-13----------|-11-----|-6------|-8------|-13----------|-11-----|-6------|
E|-6------|-11----------|-9------|-4------|-6------|-11----------|-9------|-4------|


E|-----------0-----0--------------|-----------0-----0--------------|-----------0--0--0--0----------|
B|-----------0-----0--------------|-----------0-----0--------------|-----------0--0--0--0----------|
G|-----------1-----1--------------|-----------1-----1--------------|-----------1--1--1--1----------|
D|-8----8-----------------6---8---|-8----8-----------------6---8---|-8----8----------------6---8---|
A|-8----8-------------------------|-8----8-------------------------|-8----8------------------------|
E|-6----6-------------6-----------|-6----6-------------4-----------|-6----6------------------------|


E|-----------------|--------|--------|--------|--------|--------|--------|--------|
B|-----------------|--------|--------|--------|--------|--------|--------|--------|
G|-----------------|--------|--------|--------|--------|--------|--------|--------|
D|-8---------------|--------|--------|--------|--------|--------|--------|--------|
A|-8---------------|--------|--------|--------|--------|--------|--------|--------|
E|-6---------------|--------|--------|--------|--------|--------|--------|--------|


E|-6----6----------|-11---11---------|-6----6---6--6-----11-11-11-11-11-11--|-----11-11-11-11-11-11------11---|
B|-6----6----------|-11---11---------|-6----6---6--6-----11-11-11-11-11-11--|-----11-11-11-11-11-11------11---|
G|-7----7----------|-12---12---------|-7----7---7--7-----12-12-12-12-12-12--|-----12-12-12-12-12-12------12---|
D|-8---------------|-13--------------|-8-----------------13-13-13-13-13-13--|-----13-13-13-13-13-13------13---|
A|-8---------------|-13--------------|-8------------------------------------|---------------------------------|
E|-6---------------|-11--------------|-6------------------------------------|---------------------------------|


E|-6------|-11----------|-9------|-4------|-6------|-11----------|-9------|-4------|
B|-6------|-11----------|-9------|-4------|-6------|-11----------|-9------|-4------|
G|-7------|-12-----13---|-10-----|-5------|-7------|-12-----13---|-10-----|-5------|
D|-8------|-13-----13---|-11-----|-6------|-8------|-13-----13---|-11-----|-6------|
A|-8------|-13----------|-11-----|-6------|-8------|-13----------|-11-----|-6------|
E|-6------|-11----------|-9------|-4------|-6------|-11----------|-9------|-4------|


E|-6------|-11---11----------------|-9------|-4-----4---4---4----|--------|--------|
B|-6------|-11---11---11------11---|-9------|-4-----4---4---4----|--------|--------|
G|-7------|-12---12---12------12---|-10-----|-5-----5---5---5----|--------|--------|
D|-8------|-13---13---13------13---|-11-----|-6-----6---6---6----|--------|--------|
A|-8------|-13---13----------------|-11-----|-6-----6---6---6----|--------|--------|
E|-6------|-11---11----------------|-9------|-4-----4---4---4----|--------|--------|


E|--------|--------|--------|----------------------------------|----------------------------------------|
B|--------|--------|--------|-15--15-15------------------------|-15-15-15-15-15-15-15-16----15-15--13---|
G|--------|--------|--------|-14--14-14-----------13-----------|-14-14-14-14-14-14-14-------14-14--14---|
D|--------|--------|--------|---------------13-15-----15--13---|----------------------------------------|
A|--------|--------|--------|----------------------------------|----------------------------------------|
E|--------|--------|--------|----------------------------------|----------------------------------------|


E|----------------------------------------|------------------------------------|----------------------------------------|
B|-15-15-15-15-15-15-15-16----15-15--13---|-15-15-15-15-15-15-15--16--15--13---|-15-15-15-15-15-15-15-16----15-15--13---|
G|-14-14-14-14-14-14-14-------14-14--14---|-14-14-14-14-14-14-14--14--14--14---|-14-14-14-14-14-14-14-------14-14--14---|
D|----------------------------------------|------------------------------------|----------------------------------------|
A|----------------------------------------|------------------------------------|----------------------------------------|
E|----------------------------------------|------------------------------------|----------------------------------------|


E|----------------------------------------|----------6--6-----------------|-----------------------------------|
B|-15-15-15-15-15-15-15-16----15-15--13---|-6----6---6--6--6--6------6----|-8----8--9--8----------------------|
G|-14-14-14-14-14-14-14-------14-14--14---|-6----6---6--6--6--6------6----|-8-------------10--8---------------|
D|----------------------------------------|-6----6---------6--6--8---6----|-8-----------------8---8---8---10--|
A|----------------------------------------|-------------------------------|-----------------------------------|
E|----------------------------------------|-------------------------------|-----------------------------------|


E|-6---6--6--6---6--6--6--6--6---6----|-4---4---4---4---4---4---4----|-6-----------6--6--6------6----|
B|-6---6--6--6---6--6--6--6--6---6----|-4---4---4---4---4---4---4----|-6-----------6--6--6------6----|
G|-6---6--6--6---6--6--6--6--6---6----|-5---5---5---5---5---5---5----|-7-----------7--7--7------7----|
D|-6---6--6--6---6--6--6--6--6---6----|-6---6---6---6---6---6---6----|-8----8---8--8--8--8--8---8----|
A|------------------------------------|------------------------------|-8----8---8-----------8--------|
E|------------------------------------|------------------------------|-6----6---6-----------6--------|


E|-11----------11-11-11-----11------|-9-----------9--9--9------9---4--4--|-4-----------4--4--4------4---4--4--|
B|-11----------11-11-11-----11------|-9-----------9--9--9------9---4--4--|-4-----------4--4--4------4---4--4--|
G|-12----------12-12-12-----12------|-10----------10-10-10-----10--5--5--|-5-----------5--5--5------5---5--5--|
D|-13---13--13-13-13-13-13--13--13--|-11---11--11-11-11-11-11--11--6--6--|-6----6---6--6--6--6--6---6---6--6--|
A|-13---13--13----------13------13--|-11---11--11----------11------------|-6----6---6-----------6-------------|
E|-11---11--11----------11------11--|-9----9---9-----------9-------------|-4----4---4-----------4-------------|


E|--------|--------|--------|--------|--------|--------|--------|--------|--------|
B|--------|--------|--------|--------|--------|--------|--------|--------|--------|
G|--------|--------|--------|--------|--------|--------|--------|--------|--------|
D|--------|--------|--------|--------|--------|--------|--------|--------|--------|
A|--------|--------|--------|--------|--------|--------|--------|--------|--------|
E|--------|--------|--------|--------|--------|--------|--------|--------|--------|


E|--------|--------|--------|--------|--------|--------|--------|--------|--------|
B|--------|--------|--------|--------|--------|--------|--------|--------|--------|
G|--------|--------|--------|--------|--------|--------|--------|--------|--------|
D|--------|--------|--------|--------|--------|--------|--------|--------|--------|
A|--------|--------|--------|--------|--------|--------|--------|--------|--------|
E|--------|--------|--------|--------|--------|--------|--------|--------|--------|


E|--------|--------|--------|
B|--------|--------|--------|
G|--------|--------|--------|
D|--------|--------|--------|
A|--------|--------|--------|
E|--------|--------|--------|





Track 2: Piano arr for guitar

E|--------|--------|--------|--------|--------|--------|--------|--------|--------|
B|--------|--------|--------|--------|--------|--------|--------|--------|--------|
G|--------|--------|--------|--------|--------|--------|--------|--------|--------|
D|--------|--------|--------|--------|--------|--------|--------|--------|--------|
A|--------|--------|--------|--------|--------|--------|--------|--------|--------|
E|--------|--------|--------|--------|--------|--------|--------|--------|--------|


E|--------|--------|--------|--------|--------|--------|-------------|--------|--------|
B|--------|--------|--------|--------|--------|--------|-------------|--------|--------|
G|-8------|-7------|-10-----|-7------|-8------|-7------|-10----7-----|--------|--------|
D|-8------|-8------|-10-----|-8------|-8------|-8------|-10----8-----|--------|--------|
A|--------|--------|--------|--------|--------|--------|-------------|--------|--------|
E|--------|--------|--------|--------|--------|--------|-------------|--------|--------|


E|--------|--------|--------|--------|--------|--------|--------|--------|--------|
B|--------|--------|--------|--------|--------|--------|--------|--------|--------|
G|--------|--------|--------|--------|--------|--------|--------|--------|--------|
D|--------|--------|--------|--------|--------|--------|--------|--------|--------|
A|--------|--------|--------|--------|--------|--------|--------|--------|--------|
E|--------|--------|--------|--------|--------|--------|--------|--------|--------|


E|--------|--------|--------|--------|--------|--------|--------|--------|--------|
B|--------|--------|--------|--------|--------|--------|--------|--------|--------|
G|--------|--------|--------|--------|--------|-8------|-7------|-10-----|-7------|
D|--------|--------|--------|--------|--------|-8------|-8------|-10-----|-8------|
A|--------|--------|--------|--------|--------|--------|--------|--------|--------|
E|--------|--------|--------|--------|--------|--------|--------|--------|--------|


E|--------|--------|-------------|--------|--------|--------|--------|--------|--------|
B|--------|--------|-------------|--------|--------|--------|--------|--------|--------|
G|-8------|-7------|-10----7-----|--------|--------|--------|--------|--------|--------|
D|-8------|-8------|-10----8-----|--------|--------|--------|--------|--------|--------|
A|--------|--------|-------------|--------|--------|--------|--------|--------|--------|
E|--------|--------|-------------|--------|--------|--------|--------|--------|--------|


E|--------|--------|--------|--------|--------|--------|--------|--------|--------|
B|--------|--------|--------|--------|--------|--------|--------|--------|--------|
G|--------|--------|--------|--------|--------|--------|--------|--------|--------|
D|--------|--------|--------|--------|--------|--------|--------|--------|--------|
A|--------|--------|--------|--------|--------|--------|--------|--------|--------|
E|--------|--------|--------|--------|--------|--------|--------|--------|--------|


E|--------|--------|--------|--------|--------|--------|--------|--------|--------|
B|--------|--------|--------|--------|--------|--------|--------|--------|--------|
G|--------|--------|--------|--------|--------|--------|--------|--------|--------|
D|--------|--------|--------|--------|--------|--------|--------|--------|--------|
A|--------|--------|--------|--------|--------|--------|--------|--------|--------|
E|--------|--------|--------|--------|--------|--------|--------|--------|--------|


E|--------|--------|--------|--------|--------|--------|--------|--------|--------|
B|--------|--------|--------|--------|--------|--------|--------|--------|--------|
G|--------|--------|--------|--------|--------|--------|--------|--------|--------|
D|--------|--------|--------|--------|--------|--------|--------|--------|--------|
A|--------|--------|--------|--------|--------|--------|--------|--------|--------|
E|--------|--------|--------|--------|--------|--------|--------|--------|--------|


E|--------|--------|--------|--------|--------|--------|--------|--------|--------|
B|--------|--------|--------|--------|--------|--------|--------|--------|--------|
G|--------|--------|--------|--------|--------|--------|--------|--------|--------|
D|--------|--------|--------|--------|--------|--------|--------|--------|--------|
A|--------|--------|--------|--------|--------|--------|--------|--------|--------|
E|--------|--------|--------|--------|--------|--------|--------|--------|--------|


E|--------|--------|--------|--------|--------|--------|--------|--------|--------|
B|--------|--------|--------|--------|--------|--------|--------|--------|--------|
G|--------|--------|--------|--------|--------|--------|--------|--------|--------|
D|--------|--------|--------|--------|--------|--------|--------|--------|--------|
A|--------|--------|--------|--------|--------|--------|--------|--------|--------|
E|--------|--------|--------|--------|--------|--------|--------|--------|--------|


E|--------|--------|--------|--------|--------|
B|--------|--------|--------|--------|--------|
G|--------|--------|--------|--------|--------|
D|--------|--------|--------|--------|--------|
A|--------|--------|--------|--------|--------|
E|--------|--------|--------|--------|--------|





Track 3: Electric

E|--------|--------|--------|--------|--------|--------|--------|--------|--------|
B|--------|--------|--------|--------|--------|--------|--------|--------|--------|
G|--------|--------|--------|--------|--------|--------|--------|--------|--------|
D|--------|--------|--------|--------|--------|--------|--------|--------|--------|
A|--------|--------|--------|--------|--------|--------|--------|--------|--------|
E|--------|--------|--------|--------|--------|--------|--------|--------|--------|


E|--------|--------|--------|--------|--------|--------|--------|--------|--------|
B|--------|--------|--------|--------|--------|--------|--------|--------|--------|
G|--------|--------|--------|--------|--------|--------|--------|--------|--------|
D|--------|--------|--------|--------|--------|--------|--------|--------|--------|
A|--------|--------|--------|--------|--------|--------|--------|--------|--------|
E|--------|--------|--------|--------|--------|--------|--------|--------|--------|


E|--------|--------|--------|--------|--------|--------|--------|--------|--------|
B|--------|--------|--------|--------|--------|--------|--------|--------|--------|
G|--------|--------|--------|--------|--------|--------|--------|--------|--------|
D|--------|--------|--------|--------|--------|--------|--------|--------|--------|
A|--------|--------|--------|--------|--------|--------|--------|--------|--------|
E|--------|--------|--------|--------|--------|--------|--------|--------|--------|


E|--------|--------|--------|--------|--------|--------|--------|--------|--------|
B|--------|--------|--------|--------|--------|--------|--------|--------|--------|
G|--------|--------|--------|--------|--------|--------|--------|--------|--------|
D|--------|--------|--------|--------|--------|--------|--------|--------|--------|
A|--------|--------|--------|--------|--------|--------|--------|--------|--------|
E|--------|--------|--------|--------|--------|--------|--------|--------|--------|


E|--------|--------|--------|--------|--------|--------|--------|--------|--------|
B|--------|--------|--------|--------|--------|--------|--------|--------|--------|
G|--------|--------|--------|--------|--------|--------|--------|--------|--------|
D|--------|--------|--------|--------|--------|--------|--------|--------|--------|
A|--------|--------|--------|--------|--------|--------|--------|--------|--------|
E|--------|--------|--------|--------|--------|--------|--------|--------|--------|


E|--------|--------|--------|--------|--------|--------|--------|--------|--------|
B|--------|--------|--------|--------|--------|--------|--------|--------|--------|
G|--------|--------|--------|--------|--------|--------|--------|--------|--------|
D|--------|--------|--------|--------|--------|--------|--------|--------|--------|
A|--------|--------|--------|--------|--------|--------|--------|--------|--------|
E|--------|--------|--------|--------|--------|--------|--------|--------|--------|


E|--------|---------16--18--16-18--16-16--18--|---------16--18--16-18--16-16--18--|
B|--------|-----18----------------------------|-----18----------------------------|
G|--------|-----------------------------------|-----------------------------------|
D|--------|-----------------------------------|-----------------------------------|
A|--------|-----------------------------------|-----------------------------------|
E|--------|-----------------------------------|-----------------------------------|


E|---------16--18--16-18--16-16--18--|---------16--18--16-18--16-16--18--|---------16--18--16-18--16-16--18--|
B|-----18----------------------------|-----18----------------------------|-----18----------------------------|
G|-----------------------------------|-----------------------------------|-----------------------------------|
D|-----------------------------------|-----------------------------------|-----------------------------------|
A|-----------------------------------|-----------------------------------|-----------------------------------|
E|-----------------------------------|-----------------------------------|-----------------------------------|


E|--------|--------|--------|--------|--------|--------|--------|--------|--------|
B|--------|--------|--------|--------|--------|--------|--------|--------|--------|
G|--------|--------|--------|--------|--------|--------|--------|--------|--------|
D|--------|--------|--------|--------|--------|--------|--------|--------|--------|
A|--------|--------|--------|--------|--------|--------|--------|--------|--------|
E|--------|--------|--------|--------|--------|--------|--------|--------|--------|


E|--------|--------|--------|--------|--------|--------|--------|--------|--------|
B|--------|--------|--------|--------|--------|--------|--------|--------|--------|
G|--------|--------|--------|--------|--------|--------|--------|--------|--------|
D|--------|--------|--------|--------|--------|--------|--------|--------|--------|
A|--------|--------|--------|--------|--------|--------|--------|--------|--------|
E|--------|--------|--------|--------|--------|--------|--------|--------|--------|


E|--------|--------|--------|--------|--------|--------|--------|--------|--------|
B|--------|--------|--------|--------|--------|--------|--------|--------|--------|
G|--------|--------|--------|--------|--------|--------|--------|--------|--------|
D|--------|--------|--------|--------|--------|--------|--------|--------|--------|
A|--------|--------|--------|--------|--------|--------|--------|--------|--------|
E|--------|--------|--------|--------|--------|--------|--------|--------|--------|


E|--------|--------|--------|--------|--------|--------|--------|--------|
B|--------|--------|--------|--------|--------|--------|--------|--------|
G|--------|--------|--------|--------|--------|--------|--------|--------|
D|--------|--------|--------|--------|--------|--------|--------|--------|
A|--------|--------|--------|--------|--------|--------|--------|--------|
E|--------|--------|--------|--------|--------|--------|--------|--------|





Track 4: Untitled

E|--------|--------|--------|--------|--------|--------|--------|--------|--------|
B|--------|--------|--------|--------|--------|--------|--------|--------|--------|
G|--------|--------|--------|--------|--------|--------|--------|--------|--------|
D|--------|--------|--------|--------|--------|--------|--------|--------|--------|
A|--------|--------|--------|--------|--------|--------|--------|--------|--------|
E|--------|--------|--------|--------|--------|--------|--------|--------|--------|


E|--------|--------|--------|--------|--------|--------|--------|--------|--------|
B|--------|--------|--------|--------|--------|--------|--------|--------|--------|
G|--------|--------|--------|--------|--------|--------|--------|--------|--------|
D|--------|--------|--------|--------|--------|--------|--------|--------|--------|
A|--------|--------|--------|--------|--------|--------|--------|--------|--------|
E|--------|--------|--------|--------|--------|--------|--------|--------|--------|


E|--------|--------|--------|--------|--------|--------|--------|--------|--------|
B|--------|--------|--------|--------|--------|--------|--------|--------|--------|
G|--------|--------|--------|--------|--------|--------|--------|--------|--------|
D|--------|--------|--------|--------|--------|--------|--------|--------|--------|
A|--------|--------|--------|--------|--------|--------|--------|--------|--------|
E|--------|--------|--------|--------|--------|--------|--------|--------|--------|


E|--------|--------|--------|--------|--------|--------|--------|--------|--------|
B|--------|--------|--------|--------|--------|--------|--------|--------|--------|
G|--------|--------|--------|--------|--------|--------|--------|--------|--------|
D|--------|--------|--------|--------|--------|--------|--------|--------|--------|
A|--------|--------|--------|--------|--------|--------|--------|--------|--------|
E|--------|--------|--------|--------|--------|--------|--------|--------|--------|


E|--------|--------|--------|--------|--------|--------|--------|--------|--------|
B|--------|--------|--------|--------|--------|--------|--------|--------|--------|
G|--------|--------|--------|--------|--------|--------|--------|--------|--------|
D|--------|--------|--------|--------|--------|--------|--------|--------|--------|
A|--------|--------|--------|--------|--------|--------|--------|--------|--------|
E|--------|--------|--------|--------|--------|--------|--------|--------|--------|


E|--------|--------|--------|--------|--------|--------|--------|--------|--------|
B|--------|--------|--------|--------|--------|--------|--------|--------|--------|
G|--------|--------|--------|--------|--------|--------|--------|--------|--------|
D|--------|--------|--------|--------|--------|--------|--------|--------|--------|
A|--------|--------|--------|--------|--------|--------|--------|--------|--------|
E|--------|--------|--------|--------|--------|--------|--------|--------|--------|


E|--------|--------|--------|--------|--------|--------|--------|--------|--------|
B|--------|--------|--------|--------|--------|--------|--------|--------|--------|
G|--------|--------|--------|--------|--------|--------|--------|--------|--------|
D|--------|--------|--------|--------|--------|--------|--------|--------|--------|
A|--------|--------|--------|--------|--------|--------|--------|--------|--------|
E|--------|--------|--------|--------|--------|--------|--------|--------|--------|


E|--------|--------|--------|--------|--------|--------|--------|--------|--------|
B|--------|--------|--------|--------|--------|--------|--------|--------|--------|
G|--------|--------|--------|--------|--------|--------|--------|--------|--------|
D|--------|--------|--------|--------|--------|--------|--------|--------|--------|
A|--------|--------|--------|--------|--------|--------|--------|--------|--------|
E|--------|--------|--------|--------|--------|--------|--------|--------|--------|


E|--------|--------|-6-----------6--6--6------6----|-11----------11-11-11-----11------|
B|--------|--------|-6-----------6--6--6------6----|-11----------11-11-11-----11------|
G|--------|--------|-7-----------7--7--7------7----|-12----------12-12-12-----12------|
D|--------|--------|-8----8---8--8--8--8--8---8----|-13---13--13-13-13-13-13--13--13--|
A|--------|--------|-8----8---8-----------8--------|-13---13--13----------13------13--|
E|--------|--------|-6----6---6-----------6--------|-11---11--11----------11------11--|


E|-9-----------9--9--9------9---4--4--|-4-----------4--4--4------4---4--4--|-6-----------6--6--6------6----|
B|-9-----------9--9--9------9---4--4--|-4-----------4--4--4------4---4--4--|-6-----------6--6--6------6----|
G|-10----------10-10-10-----10--5--5--|-5-----------5--5--5------5---5--5--|-7-----------7--7--7------7----|
D|-11---11--11-11-11-11-11--11--6--6--|-6----6---6--6--6--6--6---6---6--6--|-8----8---8--8--8--8--8---8----|
A|-11---11--11----------11------------|-6----6---6-----------6-------------|-8----8---8-----------8--------|
E|-9----9---9-----------9-------------|-4----4---4-----------4-------------|-6----6---6-----------6--------|


E|-11----------11-11-11-----11------|-9-----------9--9--9------9---4--4--|-4-----------4--4--4------4---4--4--|
B|-11----------11-11-11-----11------|-9-----------9--9--9------9---4--4--|-4-----------4--4--4------4---4--4--|
G|-12----------12-12-12-----12------|-10----------10-10-10-----10--5--5--|-5-----------5--5--5------5---5--5--|
D|-13---13--13-13-13-13-13--13--13--|-11---11--11-11-11-11-11--11--6--6--|-6----6---6--6--6--6--6---6---6--6--|
A|-13---13--13----------13------13--|-11---11--11----------11------------|-6----6---6-----------6-------------|
E|-11---11--11----------11------11--|-9----9---9-----------9-------------|-4----4---4-----------4-------------|


E|-6-----------6--6--6------6----|-11----------11-11-11-----11------|-9-----------9--9--9------9---4--4--|
B|-6-----------6--6--6------6----|-11----------11-11-11-----11------|-9-----------9--9--9------9---4--4--|
G|-7-----------7--7--7------7----|-12----------12-12-12-----12------|-10----------10-10-10-----10--5--5--|
D|-8----8---8--8--8--8--8---8----|-13---13--13-13-13-13-13--13--13--|-11---11--11-11-11-11-11--11--6--6--|
A|-8----8---8-----------8--------|-13---13--13----------13------13--|-11---11--11----------11------------|
E|-6----6---6-----------6--------|-11---11--11----------11------11--|-9----9---9-----------9-------------|


E|-4-----------4--4--4------4---4--4--|-6-----------6--6--6------6----|-11----------11-11-11-----11------|
B|-4-----------4--4--4------4---4--4--|-6-----------6--6--6------6----|-11----------11-11-11-----11------|
G|-5-----------5--5--5------5---5--5--|-7-----------7--7--7------7----|-12----------12-12-12-----12------|
D|-6----6---6--6--6--6--6---6---6--6--|-8----8---8--8--8--8--8---8----|-13---13--13-13-13-13-13--13--13--|
A|-6----6---6-----------6-------------|-8----8---8-----------8--------|-13---13--13----------13------13--|
E|-4----4---4-----------4-------------|-6----6---6-----------6--------|-11---11--11----------11------11--|


E|-9-----------9--9--9------9---4--4--|-4-----------4--4--4------4---4--4--|-6--6--6--6--6-----------6--6--6---6---|
B|-9-----------9--9--9------9---4--4--|-4-----------4--4--4------4---4--4--|-6--6--6--6--6-----------6--6--6---6---|
G|-10----------10-10-10-----10--5--5--|-5-----------5--5--5------5---5--5--|-7--7--7--7--7-----------7--7--7---7---|
D|-11---11--11-11-11-11-11--11--6--6--|-6----6---6--6--6--6--6---6---6--6--|---------------------------------------|
A|-11---11--11----------11------------|-6----6---6-----------6-------------|---------------------------------------|
E|-9----9---9-----------9-------------|-4----4---4-----------4-------------|---------------------------------------|


E|-11-11-11-11-11---11-11-11-11--11--11--|-9--9--9--9--9---9--9--9--9--9--9--9---9---|
B|-11-11-11-11-11---11-11-11-11--11--11--|-9--9--9--9--9---9--9--9--9--9--9--9---9---|
G|-12-12-12-12-12---12-12-12-12--12--12--|-10-10-10-10-10--10-10-10-10-10-10-10--10--|
D|-13-13-13-13-13---13-13-13-13--13--13--|-11-11-11-11-11--11-11-11-11-11-11-11--11--|
A|---------------------------------------|-------------------------------------------|
E|---------------------------------------|-------------------------------------------|


E|-4---4---4---4-----------4----|-6------|
B|-4---4---4---4-----------4----|-6------|
G|-5---5---5---5-----------5----|-7------|
D|-6---6---6---6-------6---6----|-8------|
A|---------------------6--------|-8------|
E|---------------------4--------|-6------|





Track 5: Untitled

G|--------|--------|--------|--------|--------|--------|--------|--------|--------|
D|--------|--------|--------|--------|--------|--------|--------|--------|--------|
A|--------|--------|--------|--------|--------|--------|--------|--------|--------|
E|--------|--------|--------|--------|--------|--------|--------|--------|--------|


G|--------|--------|--------|--------|--------|--------|--------|--------|--------|
D|--------|--------|--------|--------|--------|--------|--------|--------|--------|
A|--------|--------|--------|--------|--------|--------|--------|--------|--------|
E|--------|--------|--------|--------|--------|--------|--------|--------|--------|


G|--------|--------|--------|--------|--------|--------|--------|--------|--------|
D|--------|--------|--------|--------|--------|--------|--------|--------|--------|
A|--------|--------|--------|--------|--------|--------|--------|--------|--------|
E|--------|--------|--------|--------|--------|--------|--------|--------|--------|


G|--------|--------|--------|--------|--------|--------|--------|--------|--------|
D|--------|--------|--------|--------|--------|--------|--------|--------|--------|
A|--------|--------|--------|--------|--------|--------|--------|--------|--------|
E|--------|--------|--------|--------|--------|--------|--------|--------|--------|


G|--------|--------|--------|--------|--------|--------|--------|--------|--------|
D|--------|--------|--------|--------|--------|--------|--------|--------|--------|
A|--------|--------|--------|--------|--------|--------|--------|--------|--------|
E|--------|--------|--------|--------|--------|--------|--------|--------|--------|


G|--------|--------|--------|--------|--------|--------|--------|--------|--------|
D|--------|--------|--------|--------|--------|--------|--------|--------|--------|
A|--------|--------|--------|--------|--------|--------|--------|--------|--------|
E|--------|--------|--------|--------|--------|--------|--------|--------|--------|


G|--------|--------|--------|--------|--------|--------|--------|--------|--------|
D|--------|--------|--------|--------|--------|--------|--------|--------|--------|
A|--------|--------|--------|--------|--------|--------|--------|--------|--------|
E|--------|--------|--------|--------|--------|--------|--------|--------|--------|


G|--------|--------|--------|--------|--------|--------|--------|--------|--------|
D|--------|--------|--------|--------|--------|--------|--------|--------|--------|
A|--------|--------|--------|--------|--------|--------|--------|--------|--------|
E|--------|--------|--------|--------|--------|--------|--------|--------|--------|


G|--------|--------|--------|--------|--------|--------|--------|--------|--------|
D|--------|--------|--------|--------|--------|--------|--------|--------|--------|
A|--------|--------|--------|--------|--------|--------|--------|--------|--------|
E|--------|--------|--------|--------|--------|--------|--------|--------|--------|


G|--------|--------|--------|--------|--------|--------|--------|--------|--------|
D|--------|--------|--------|--------|--------|--------|--------|--------|--------|
A|--------|--------|--------|--------|--------|--------|--------|--------|--------|
E|--------|--------|--------|--------|--------|--------|--------|--------|--------|


G|--------|--------|--------|--------|--------|
D|--------|--------|--------|--------|--------|
A|--------|--------|--------|--------|--------|
E|--------|--------|--------|--------|--------|