Site menu:

    

Browse: 0-9 A B C D E F G H I J K L N O P Q R S T U V W X Y Z

u2 - love and peace or else:



Title: Love And Peace Or Else
Artist: 
Album: How To Dismantle An Atomic Bomb
Author: U2


Track 1: Clean Left

E|--------|--------|--------|--------|--------|--------|--------|--------|--------|
B|--------|--------|--------|--------|--------|--------|--------|--------|--------|
G|--------|--------|--------|--------|--------|--------|--------|--------|--------|
D|--------|--------|--------|--------|--------|--------|--------|--------|--------|
A|--------|--------|--------|--------|--------|--------|--------|--------|--------|
D|--------|--------|--------|--------|--------|--------|--------|--------|--------|


E|--------|--------|--------|--------|--------|--------|--------|--------|--------|
B|--------|--------|--------|--------|--------|--------|--------|--------|--------|
G|--------|--------|--------|--------|--------|--------|--------|--------|--------|
D|--------|--------|--------|--------|--------|--------|--------|--------|--------|
A|--------|--------|--------|--------|--------|--------|--------|--------|--------|
D|--------|--------|--------|--------|--------|--------|--------|--------|--------|


E|--------|--------|--------|--------|--------|--------|--------|--------|--------|
B|--------|--------|--------|--------|--------|--------|--------|--------|--------|
G|--------|--------|--------|--------|--------|--------|--------|--------|--------|
D|--------|--------|--------|--------|--------|--------|--------|--------|--------|
A|--------|--------|--------|--------|--------|--------|--------|--------|--------|
D|--------|--------|--------|--------|--------|--------|--------|--------|--------|


E|-----------------|-------------|-----------------|-------------|-----------------|
B|-----------------|-------------|-----------------|-------------|-----------------|
G|-------10--------|-------12----|-------10--------|-------12----|-------10--------|
D|-----------------|-------------|-----------------|-------------|-----------------|
A|-------8---------|-------10----|-------8---------|-------10----|-------8---------|
D|-----------------|-------------|-----------------|-------------|-----------------|


E|-------------|-----------------|-------------|-----------------|-------------|-----------------|
B|-------------|-----------------|-------------|-----------------|-------------|-----------------|
G|-------12----|-------10--------|-------12----|-------10--------|-------12----|-------10--------|
D|-------------|-----------------|-------------|-----------------|-------------|-----------------|
A|-------10----|-------8---------|-------10----|-------8---------|-------10----|-------8---------|
D|-------------|-----------------|-------------|-----------------|-------------|-----------------|


E|-------------|-----------------|-------------|-----------------|-------------|--------|
B|-------------|-----------------|-------------|-----------------|-------------|--------|
G|-------12----|-------10--------|-------12----|-------10--------|-------12----|--------|
D|-------------|-----------------|-------------|-----------------|-------------|--------|
A|-------10----|-------8---------|-------10----|-------8---------|-------10----|--------|
D|-------------|-----------------|-------------|-----------------|-------------|--------|


E|--------|-----------------|--------|--------|--------|--------|--------|--------|
B|--------|-----------------|--------|--------|--------|--------|--------|--------|
G|--------|-------10--------|--------|--------|--------|--------|--------|--------|
D|--------|-----------------|--------|--------|--------|--------|--------|--------|
A|--------|-------8---------|--------|--------|--------|--------|--------|--------|
D|--------|-----------------|--------|--------|--------|--------|--------|--------|


E|--------|--------|--------|--------|--------|--------|--------|--------|--------|
B|--------|--------|--------|--------|--------|--------|--------|--------|--------|
G|--------|--------|--------|--------|--------|--------|--------|--------|--------|
D|--------|--------|--------|--------|--------|--------|--------|--------|--------|
A|--------|--------|--------|--------|--------|--------|--------|--------|--------|
D|--------|--------|--------|--------|--------|--------|--------|--------|--------|


E|--------|--------|--------|--------|--------|--------|--------|--------|-------------|
B|--------|--------|--------|--------|--------|--------|--------|--------|-------------|
G|--------|--------|--------|--------|--------|--------|--------|--------|-5-----7-----|
D|--------|--------|--------|--------|--------|--------|--------|--------|-------------|
A|--------|--------|--------|--------|--------|--------|--------|--------|-3-----5-----|
D|--------|--------|--------|--------|--------|--------|--------|--------|-------------|


E|---------------------|---------------------|---------------------|--------|--------|
B|---------------------|---------------------|---------------------|--------|--------|
G|-9----12---11---9----|-5----12---11---7----|-5----12---11---5----|--------|--------|
D|---------------------|---------------------|---------------------|--------|--------|
A|-7----10---9----7----|-3----10---9----5----|-3----10---9----3----|--------|--------|
D|---------------------|---------------------|---------------------|--------|--------|


E|--------|--------|--------|--------|--------|--------|-----------------|-------------|
B|--------|--------|--------|--------|--------|--------|-----------------|-------------|
G|--------|--------|--------|--------|--------|--------|-------10--------|-------12----|
D|--------|--------|--------|--------|--------|--------|-----------------|-------------|
A|--------|--------|--------|--------|--------|--------|-------8---------|-------10----|
D|--------|--------|--------|--------|--------|--------|-----------------|-------------|


E|-----------------|-------------|-----------------|-------------|-----------------|
B|-----------------|-------------|-----------------|-------------|-----------------|
G|-------10--------|-------12----|-------10--------|-------12----|-------10--------|
D|-----------------|-------------|-----------------|-------------|-----------------|
A|-------8---------|-------10----|-------8---------|-------10----|-------8---------|
D|-----------------|-------------|-----------------|-------------|-----------------|


E|-------------|--------|--------|--------|--------|--------|--------|-------------|
B|-------------|--------|--------|--------|--------|--------|--------|-------------|
G|-------12----|--------|--------|--------|--------|--------|--------|-5-----7-----|
D|-------------|--------|--------|--------|--------|--------|--------|-------------|
A|-------10----|--------|--------|--------|--------|--------|--------|-3-----5-----|
D|-------------|--------|--------|--------|--------|--------|--------|-------------|


E|---------------------|---------------------|---------------------|--------|--------|
B|---------------------|---------------------|---------------------|--------|--------|
G|-9----12---11---9----|-5----12---11---7----|-5----12---11---5----|--------|--------|
D|---------------------|---------------------|---------------------|--------|--------|
A|-7----10---9----7----|-3----10---9----5----|-3----10---9----3----|--------|--------|
D|---------------------|---------------------|---------------------|--------|--------|


E|--------|--------|--------|--------|--------|--------|---------------------|-12------------------|
B|--------|--------|--------|--------|--------|--------|-13--------15--------|-----------15--------|
G|--------|--------|--------|--------|--------|--------|------12--------12---|------12--------12---|
D|--------|--------|--------|--------|--------|--------|---------------------|---------------------|
A|--------|--------|--------|--------|--------|--------|---------------------|---------------------|
D|--------|--------|--------|--------|--------|--------|---------------------|---------------------|


E|---------------------|-12------------------|-----------12--------|-14--------12--------|
B|-13--------15--------|-----------13--------|-15------------------|---------------------|
G|------12--------12---|------12--------12---|------14--------14---|------14--------14---|
D|---------------------|---------------------|---------------------|---------------------|
A|---------------------|---------------------|---------------------|---------------------|
D|---------------------|---------------------|---------------------|---------------------|


E|-----------12--------|-14--------12--------|---------------------|-12------------------|
B|-15------------------|---------------------|-13--------15--------|-----------15--------|
G|------14--------14---|------14--------14---|------12--------12---|------12--------12---|
D|---------------------|---------------------|---------------------|---------------------|
A|---------------------|---------------------|---------------------|---------------------|
D|---------------------|---------------------|---------------------|---------------------|


E|---------------------|-12--------12--------|--------|--------|--------|--------|
B|-13--------15--------|---------------------|--------|--------|--------|--------|
G|------12--------12---|------12--------12---|--------|--------|--------|--------|
D|---------------------|---------------------|--------|--------|--------|--------|
A|---------------------|---------------------|--------|--------|--------|--------|
D|---------------------|---------------------|--------|--------|--------|--------|


E|--------|--------|--------|--------|--------|--------|--------|--------|--------|
B|--------|--------|--------|--------|--------|--------|--------|--------|--------|
G|--------|--------|--------|--------|--------|--------|--------|--------|--------|
D|--------|--------|--------|--------|--------|--------|--------|--------|--------|
A|--------|--------|--------|--------|--------|--------|--------|--------|--------|
D|--------|--------|--------|--------|--------|--------|--------|--------|--------|


E|--------|--------|--------|--------|--------|--------|--------|--------|--------|
B|--------|--------|--------|--------|--------|--------|--------|--------|--------|
G|--------|--------|--------|--------|--------|--------|--------|--------|--------|
D|--------|--------|--------|--------|--------|--------|--------|--------|--------|
A|--------|--------|--------|--------|--------|--------|--------|--------|--------|
D|--------|--------|--------|--------|--------|--------|--------|--------|--------|


E|--------|--------|--------|--------|--------|
B|--------|--------|--------|--------|--------|
G|--------|--------|--------|--------|--------|
D|--------|--------|--------|--------|--------|
A|--------|--------|--------|--------|--------|
D|--------|--------|--------|--------|--------|





Track 2: Clean Center

E|--------|--------|--------|--------|--------|--------|--------|--------|--------|
B|--------|--------|--------|--------|--------|--------|--------|--------|--------|
G|--------|--------|--------|--------|--------|--------|--------|--------|--------|
D|--------|--------|--------|--------|--------|--------|--------|--------|--------|
A|--------|--------|--------|--------|--------|--------|--------|--------|--------|
D|--------|--------|--------|--------|--------|--------|--------|--------|--------|


E|--------|--------|--------|--------|--------|--------|--------|--------|--------|
B|--------|--------|--------|--------|--------|--------|--------|--------|--------|
G|--------|--------|--------|--------|--------|--------|--------|--------|--------|
D|--------|--------|--------|--------|--------|--------|--------|--------|--------|
A|--------|--------|--------|--------|--------|--------|--------|--------|--------|
D|--------|--------|--------|--------|--------|--------|--------|--------|--------|


E|--------|--------|--------|--------|--------|--------|--------|--------|--------|
B|--------|--------|--------|--------|--------|--------|--------|--------|--------|
G|--------|--------|--------|--------|--------|--------|--------|--------|--------|
D|--------|--------|--------|--------|--------|--------|--------|--------|--------|
A|--------|--------|--------|--------|--------|--------|--------|--------|--------|
D|--------|--------|--------|--------|--------|--------|--------|--------|--------|


E|--------|--------|--------|--------|--------|--------|--------|--------|--------|
B|--------|--------|--------|--------|--------|--------|--------|--------|--------|
G|--------|--------|--------|--------|--------|--------|--------|--------|--------|
D|--------|--------|--------|--------|--------|--------|--------|--------|--------|
A|--------|--------|--------|--------|--------|--------|--------|--------|--------|
D|--------|--------|--------|--------|--------|--------|--------|--------|--------|


E|--------|--------|--------|--------|--------|--------|--------|--------|--------|
B|--------|--------|--------|--------|--------|--------|--------|--------|--------|
G|--------|--------|--------|--------|--------|--------|--------|--------|--------|
D|--------|--------|--------|--------|--------|--------|--------|--------|--------|
A|--------|--------|--------|--------|--------|--------|--------|--------|--------|
D|--------|--------|--------|--------|--------|--------|--------|--------|--------|


E|--------|--------|-------1---1--------|-------3----1----|-------1---1--------|--------------3----1----|
B|--------|--------|-3-----1---1----3---|-3-----3----1----|-3-----1---1----3---|-3------------3----1----|
G|--------|--------|-2-----0---0----2---|-2-----0----0----|-2-----0---0----2---|-2------------0----0----|
D|--------|--------|-0-----3---3----0---|-0-----5----3----|-0-----3---3----0---|-0------------5----3----|
A|--------|--------|-0-----3---3----0---|-0-----5----3----|-0-----3---3----0---|-0------------5----3----|
D|--------|--------|-0-----3---3----0---|-0-----5----3----|-0-----3---3----0---|-0----0---0---5----3----|


E|-------1---1--------|--------------3----1----|-------1---1--------|--------------3----1----|
B|-3-----1---1----3---|-3------------3----1----|-3-----1---1----3---|-3------------3----1----|
G|-2-----0---0----2---|-2------------0----0----|-2-----0---0----2---|-2------------0----0----|
D|-0-----3---3----0---|-0------------5----3----|-0-----3---3----0---|-0------------5----3----|
A|-0-----3---3----0---|-0------------5----3----|-0-----3---3----0---|-0------------5----3----|
D|-0-----3---3----0---|-0----0---0---5----3----|-0-----3---3----0---|-0----0---0---5----3----|


E|-------1---1--------|--------------3----1----|-------1---1--------|--------------3----1----|
B|-3-----1---1----3---|-3------------3----1----|-3-----1---1----3---|-3------------3----1----|
G|-2-----0---0----2---|-2------------0----0----|-2-----0---0----2---|-2------------0----0----|
D|-0-----3---3----0---|-0------------5----3----|-0-----3---3----0---|-0------------5----3----|
A|-0-----3---3----0---|-0------------5----3----|-0-----3---3----0---|-0------------5----3----|
D|-0-----3---3----0---|-0----0---0---5----3----|-0-----3---3----0---|-0----0---0---5----3----|


E|-------1---1--------|--------------3----1----|-------1---1--------|--------------3----1----|
B|-3-----1---1----3---|-3------------3----1----|-3-----1---1----3---|-3------------3----1----|
G|-2-----0---0----2---|-2------------0----0----|-2-----0---0----2---|-2------------0---------|
D|-0-----3---3----0---|-0------------5----3----|-0-----3---3----0---|-0------------0----3----|
A|-0-----3---3----0---|-0------------5----3----|-0-----3---3----0---|-0-----------------3----|
D|-0-----3---3----0---|-0----0---0---5----3----|-0-----3---3----0---|-0----0---0---5----3----|


E|---------------------|------------------------|-------1---1--------|--------------3----1----|
B|-8----8----8----8----|-8---8---8----8----8----|-3-----1---1----3---|-3------------3----1----|
G|-0----0----0----0----|-0---0---0----0----0----|-2-----0---0----2---|-2------------0----0----|
D|-10---10---10---10---|-10--10--10---10---10---|-0-----3---3----0---|-0------------5----3----|
A|-10---10---10---10---|-10--10--10---10---10---|-0-----3---3----0---|-0------------5----3----|
D|-10---10---10---10---|-10--10--10---10---10---|-0-----3---3----0---|-0----0---0---5----3----|


E|---------------------|------------------------|--------|--------|--------|--------|
B|-5----5----5----5----|-5---5---5----5----5----|--------|--------|--------|--------|
G|-7----7----7----7----|-7---7---7----7----7----|--------|--------|--------|--------|
D|-7----7----7----7----|-7---7---7----7----7----|--------|--------|--------|--------|
A|-7----7----7----7----|-7---7---7----7----7----|--------|--------|--------|--------|
D|-7----7----7----7----|-7---7---7----7----7----|--------|--------|--------|--------|


E|--------|--------|--------|--------|--------|--------|--------|--------|--------|
B|--------|--------|--------|--------|--------|--------|--------|--------|--------|
G|--------|--------|--------|--------|--------|--------|--------|--------|--------|
D|--------|--------|--------|--------|--------|--------|--------|--------|--------|
A|--------|--------|--------|--------|--------|--------|--------|--------|--------|
D|--------|--------|--------|--------|--------|--------|--------|--------|--------|


E|--------|--------|--------|--------|--------|--------|--------|---------------------|
B|--------|--------|--------|--------|--------|--------|--------|-8----8----8----8----|
G|--------|--------|--------|--------|--------|--------|--------|-0----0----0----0----|
D|--------|--------|--------|--------|--------|--------|--------|-10---10---10---10---|
A|--------|--------|--------|--------|--------|--------|--------|-10---10---10---10---|
D|--------|--------|--------|--------|--------|--------|--------|-10---10---10---10---|


E|------------------------|-------1---1--------|--------------3----1----|---------------------|
B|-8---8---8----8----8----|-3-----1---1----3---|-3------------3----1----|-5----5----5----5----|
G|-0---0---0----0----0----|-2-----0---0----2---|-2------------0----0----|-7----7----7----7----|
D|-10--10--10---10---10---|-0-----3---3----0---|-0------------5----3----|-7----7----7----7----|
A|-10--10--10---10---10---|-0-----3---3----0---|-0------------5----3----|-7----7----7----7----|
D|-10--10--10---10---10---|-0-----3---3----0---|-0----0---0---5----3----|-7----7----7----7----|


E|------------------------|--------|--------|--------|--------|--------|--------|--------|
B|-5---5---5----5----5----|--------|--------|--------|--------|--------|--------|--------|
G|-7---7---7----7----7----|--------|--------|--------|--------|--------|--------|--------|
D|-7---7---7----7----7----|--------|--------|--------|--------|--------|--------|--------|
A|-7---7---7----7----7----|--------|--------|--------|--------|--------|--------|--------|
D|-7---7---7----7----7----|--------|--------|--------|--------|--------|--------|--------|


E|--------|--------|--------|--------|--------|--------|--------|--------|--------|
B|--------|--------|--------|--------|--------|--------|--------|--------|--------|
G|--------|--------|--------|--------|--------|--------|--------|--------|--------|
D|--------|--------|--------|--------|--------|--------|--------|--------|--------|
A|--------|--------|--------|--------|--------|--------|--------|--------|--------|
D|--------|--------|--------|--------|--------|--------|--------|--------|--------|


E|--------|--------|--------|--------|--------|--------|--------|--------|--------|
B|--------|--------|--------|--------|--------|--------|--------|--------|--------|
G|--------|--------|--------|--------|--------|--------|--------|--------|--------|
D|--------|--------|--------|--------|--------|--------|--------|--------|--------|
A|--------|--------|--------|--------|--------|--------|--------|--------|--------|
D|--------|--------|--------|--------|--------|--------|--------|--------|--------|


E|--------|--------|--------|--------|--------|--------|--------|-------1---1--------|
B|--------|--------|--------|--------|--------|--------|--------|-3-----1---1----3---|
G|--------|--------|--------|--------|--------|--------|--------|-2-----0---0----2---|
D|--------|--------|--------|--------|--------|--------|--------|-0-----3---3----0---|
A|--------|--------|--------|--------|--------|--------|--------|-0-----3---3----0---|
D|--------|--------|--------|--------|--------|--------|--------|-0-----3---3----0---|


E|--------------3----1----|-------1---1--------|--------------3----1----|-------1---1--------|
B|-3------------3----1----|-3-----1---1----3---|-3------------3----1----|-3-----1---1----3---|
G|-2------------0----0----|-2-----0---0----2---|-2------------0----0----|-2-----0---0----2---|
D|-0------------5----3----|-0-----3---3----0---|-0------------5----3----|-0-----3---3----0---|
A|-0------------5----3----|-0-----3---3----0---|-0------------5----3----|-0-----3---3----0---|
D|-0----0---0---5----3----|-0-----3---3----0---|-0----0---0---5----3----|-0-----3---3----0---|


E|--------------3----1----|-------1---1--------|--------------3----1----|-------1---1--------|
B|-3------------3----1----|-3-----1---1----3---|-3------------3----1----|-3-----1---1----3---|
G|-2------------0----0----|-2-----0---0----2---|-2------------0----0----|-2-----0---0----2---|
D|-0------------5----3----|-0-----3---3----0---|-0------------5----3----|-0-----3---3----0---|
A|-0------------5----3----|-0-----3---3----0---|-0------------5----3----|-0-----3---3----0---|
D|-0----0---0---5----3----|-0-----3---3----0---|-0----0---0---5----3----|-0-----3---3----0---|


E|--------------3----1----|-------1---1--------|--------------3----1----|--------|
B|-3------------3----1----|-3-----1---1----3---|-3------------3----1----|--------|
G|-2------------0----0----|-2-----0---0----2---|-2------------0----0----|--------|
D|-0------------5----3----|-0-----3---3----0---|-0------------5----3----|--------|
A|-0------------5----3----|-0-----3---3----0---|-0------------5----3----|--------|
D|-0----0---0---5----3----|-0-----3---3----0---|-0----0---0---5----3----|--------|


E|--------|--------|--------|--------|--------|--------|
B|--------|--------|--------|--------|--------|--------|
G|--------|--------|--------|--------|--------|--------|
D|--------|--------|--------|--------|--------|--------|
A|--------|--------|--------|--------|--------|--------|
D|--------|--------|--------|--------|--------|--------|





Track 3: Distortion

E|--------|--------|--------|--------|--------|--------|--------|--------|--------|
B|--------|--------|--------|--------|--------|--------|--------|--------|--------|
G|--------|--------|--------|--------|--------|--------|--------|--------|--------|
D|--------|--------|--------|--------|--------|--------|--------|--------|--------|
A|--------|--------|--------|--------|--------|--------|--------|--------|--------|
D|--------|--------|--------|--------|--------|--------|--------|--------|--------|


E|--------|--------|--------|--------|--------|--------|--------|--------|--------|
B|--------|--------|--------|--------|--------|--------|--------|--------|--------|
G|--------|--------|--------|--------|--------|--------|--------|--------|--------|
D|--------|--------|--------|--------|--------|--------|--------|--------|--------|
A|--------|--------|--------|--------|--------|--------|--------|--------|--------|
D|--------|--------|--------|--------|--------|--------|--------|--------|--------|


E|--------|--------|--------|--------|--------|--------|--------|--------|--------|
B|--------|--------|--------|--------|--------|--------|--------|--------|--------|
G|--------|--------|--------|--------|--------|--------|--------|--------|--------|
D|--------|--------|--------|--------|--------|--------|--------|--------|--------|
A|--------|--------|--------|--------|--------|--------|--------|--------|--------|
D|--------|--------|--------|--------|--------|--------|--------|--------|--------|


E|--------|--------|--------|--------|--------|--------|--------|--------|--------|
B|--------|--------|--------|--------|--------|--------|--------|--------|--------|
G|--------|--------|--------|--------|--------|--------|--------|--------|--------|
D|--------|--------|--------|--------|--------|--------|--------|--------|--------|
A|--------|--------|--------|--------|--------|--------|--------|--------|--------|
D|--------|--------|--------|--------|--------|--------|--------|--------|--------|


E|--------|--------|--------|--------|--------|--------|--------|--------|--------|
B|--------|--------|--------|--------|--------|--------|--------|--------|--------|
G|--------|--------|--------|--------|--------|--------|--------|--------|--------|
D|--------|--------|--------|--------|--------|--------|--------|--------|--------|
A|--------|--------|--------|--------|--------|--------|--------|--------|--------|
D|--------|--------|--------|--------|--------|--------|--------|--------|--------|


E|--------|--------|--------|--------|--------|--------|--------|--------|--------|
B|--------|--------|--------|--------|--------|--------|--------|--------|--------|
G|--------|--------|--------|--------|--------|--------|--------|--------|--------|
D|--------|--------|--------|--------|--------|--------|--------|--------|--------|
A|--------|--------|--------|--------|--------|--------|--------|--------|--------|
D|--------|--------|--------|--------|--------|--------|--------|--------|--------|


E|--------|--------|--------|--------|--------|--------|--------|--------|--------|
B|--------|--------|--------|--------|--------|--------|--------|--------|--------|
G|--------|--------|--------|--------|--------|--------|--------|--------|--------|
D|--------|--------|--------|--------|--------|--------|--------|--------|--------|
A|--------|--------|--------|--------|--------|--------|--------|--------|--------|
D|--------|--------|--------|--------|--------|--------|--------|--------|--------|


E|--------|--------|--------|--------|--------|--------|--------|--------|--------|
B|--------|--------|--------|--------|--------|--------|--------|--------|--------|
G|--------|--------|--------|--------|--------|--------|--------|--------|--------|
D|--------|--------|--------|--------|--------|--------|--------|--------|--------|
A|--------|--------|--------|--------|--------|--------|--------|--------|--------|
D|--------|--------|--------|--------|--------|--------|--------|--------|--------|


E|--------|--------------------|---------------------|--------------------|---------------------|
B|--------|--------------------|---------------------|--------------------|---------------------|
G|--------|-7-----10--10---7---|-7----5----4----5----|-7-----10--10---7---|-7----5----4----5----|
D|--------|--------------------|---------------------|--------------------|---------------------|
A|--------|-5-----8---8----5---|-5----3----2----3----|-5-----8---8----5---|-5----3----2----3----|
D|--------|--------------------|---------------------|--------------------|---------------------|


E|--------------------|---------------------|--------------------|---------------------|
B|--------------------|---------------------|--------------------|---------------------|
G|-7-----10--10---7---|-7----5----4----5----|-7-----10--10---7---|-7----5----4----5----|
D|--------------------|---------------------|--------------------|---------------------|
A|-5-----8---8----5---|-5----3----2----3----|-5-----8---8----5---|-5----3----2----3----|
D|--------------------|---------------------|--------------------|---------------------|


E|--------|--------|--------|--------|--------|--------|--------|--------|--------|
B|--------|--------|--------|--------|--------|--------|--------|--------|--------|
G|--------|--------|--------|--------|--------|--------|--------|--------|--------|
D|--------|--------|--------|--------|--------|--------|--------|--------|--------|
A|--------|--------|--------|--------|--------|--------|--------|--------|--------|
D|--------|--------|--------|--------|--------|--------|--------|--------|--------|


E|--------|--------|--------|--------|--------|--------|--------|--------|--------|
B|--------|--------|--------|--------|--------|--------|--------|--------|--------|
G|--------|--------|--------|--------|--------|--------|--------|--------|--------|
D|--------|--------|--------|--------|--------|--------|--------|--------|--------|
A|--------|--------|--------|--------|--------|--------|--------|--------|--------|
D|--------|--------|--------|--------|--------|--------|--------|--------|--------|


E|--------------------|---------------------|--------------------|---------------------|
B|--------------------|---------------------|--------------------|---------------------|
G|-7-----10--10---7---|-7----5----4----5----|-7-----10--10---7---|-7----5----4----5----|
D|--------------------|---------------------|--------------------|---------------------|
A|-5-----8---8----5---|-5----3----2----3----|-5-----8---8----5---|-5----3----2----3----|
D|--------------------|---------------------|--------------------|---------------------|


E|--------------------|---------------------|--------------------|-------------------------------------------------|
B|--------------------|---------------------|--------------------|-----13------13------13------13------13------13--|
G|-7-----10--10---7---|-7----5----4----5----|-7-----10--10---7---|-16------16--5---16------16------16--5---16------|
D|--------------------|---------------------|--------------------|-------------------------------------------------|
A|-5-----8---8----5---|-5----3----2----3----|-5-----8---8----5---|-5-----------3-----------2-----------3-----------|
D|--------------------|---------------------|--------------------|-------------------------------------------------|


E|--------|--------|--------|--------|--------|--------|--------|--------|--------|
B|--------|--------|--------|--------|--------|--------|--------|--------|--------|
G|--------|--------|--------|--------|--------|--------|--------|--------|--------|
D|--------|--------|--------|--------|--------|--------|--------|--------|--------|
A|--------|--------|--------|--------|--------|--------|--------|--------|--------|
D|--------|--------|--------|--------|--------|--------|--------|--------|--------|


E|--------|--------|--------|--------|--------|--------|--------|--------|--------|
B|--------|--------|--------|--------|--------|--------|--------|--------|--------|
G|--------|--------|--------|--------|--------|--------|--------|--------|--------|
D|--------|--------|--------|--------|--------|--------|--------|--------|--------|
A|--------|--------|--------|--------|--------|--------|--------|--------|--------|
D|--------|--------|--------|--------|--------|--------|--------|--------|--------|


E|--------|--------|--------|--------|--------|--------|--------|--------|--------|
B|--------|--------|--------|--------|--------|--------|--------|--------|--------|
G|--------|--------|--------|--------|--------|--------|--------|--------|--------|
D|--------|--------|--------|--------|--------|--------|--------|--------|--------|
A|--------|--------|--------|--------|--------|--------|--------|--------|--------|
D|--------|--------|--------|--------|--------|--------|--------|--------|--------|


E|--------|--------|--------|--------|--------|--------|--------|--------|--------|
B|--------|--------|--------|--------|--------|--------|--------|--------|--------|
G|--------|--------|--------|--------|--------|--------|--------|--------|--------|
D|--------|--------|--------|--------|--------|--------|--------|--------|--------|
A|--------|--------|--------|--------|--------|--------|--------|--------|--------|
D|--------|--------|--------|--------|--------|--------|--------|--------|--------|


E|--------|--------|--------|
B|--------|--------|--------|
G|--------|--------|--------|
D|--------|--------|--------|
A|--------|--------|--------|
D|--------|--------|--------|





Track 4: Guitar Solo

E|--------|--------|--------|--------|--------|--------|--------|--------|--------|
B|--------|--------|--------|--------|--------|--------|--------|--------|--------|
G|--------|--------|--------|--------|--------|--------|--------|--------|--------|
D|--------|--------|--------|--------|--------|--------|--------|--------|--------|
A|--------|--------|--------|--------|--------|--------|--------|--------|--------|
D|--------|--------|--------|--------|--------|--------|--------|--------|--------|


E|--------|--------|--------|--------|--------|--------|--------|--------|--------|
B|--------|--------|--------|--------|--------|--------|--------|--------|--------|
G|--------|--------|--------|--------|--------|--------|--------|--------|--------|
D|--------|--------|--------|--------|--------|--------|--------|--------|--------|
A|--------|--------|--------|--------|--------|--------|--------|--------|--------|
D|--------|--------|--------|--------|--------|--------|--------|--------|--------|


E|--------|--------|--------|--------|--------|--------|--------|--------|--------|
B|--------|--------|--------|--------|--------|--------|--------|--------|--------|
G|--------|--------|--------|--------|--------|--------|--------|--------|--------|
D|--------|--------|--------|--------|--------|--------|--------|--------|--------|
A|--------|--------|--------|--------|--------|--------|--------|--------|--------|
D|--------|--------|--------|--------|--------|--------|--------|--------|--------|


E|--------|--------|--------|--------|--------|--------|--------|--------|--------|
B|--------|--------|--------|--------|--------|--------|--------|--------|--------|
G|--------|--------|--------|--------|--------|--------|--------|--------|--------|
D|--------|--------|--------|--------|--------|--------|--------|--------|--------|
A|--------|--------|--------|--------|--------|--------|--------|--------|--------|
D|--------|--------|--------|--------|--------|--------|--------|--------|--------|


E|--------|--------|--------|--------|--------|--------|--------|--------|--------|
B|--------|--------|--------|--------|--------|--------|--------|--------|--------|
G|--------|--------|--------|--------|--------|--------|--------|--------|--------|
D|--------|--------|--------|--------|--------|--------|--------|--------|--------|
A|--------|--------|--------|--------|--------|--------|--------|--------|--------|
D|--------|--------|--------|--------|--------|--------|--------|--------|--------|


E|--------|--------|--------|--------|--------|--------|--------|--------|--------|
B|--------|--------|--------|--------|--------|--------|--------|--------|--------|
G|--------|--------|--------|--------|--------|--------|--------|--------|--------|
D|--------|--------|--------|--------|--------|--------|--------|--------|--------|
A|--------|--------|--------|--------|--------|--------|--------|--------|--------|
D|--------|--------|--------|--------|--------|--------|--------|--------|--------|


E|--------|--------|--------|--------|--------|--------|--------|--------|--------|
B|--------|--------|--------|--------|--------|--------|--------|--------|--------|
G|--------|--------|--------|--------|--------|--------|--------|--------|--------|
D|--------|--------|--------|--------|--------|--------|--------|--------|--------|
A|--------|--------|--------|--------|--------|--------|--------|--------|--------|
D|--------|--------|--------|--------|--------|--------|--------|--------|--------|


E|--------|--------|--------|--------|--------|--------|--------|--------|--------|
B|--------|--------|--------|--------|--------|--------|--------|--------|--------|
G|--------|--------|--------|--------|--------|--------|--------|--------|--------|
D|--------|--------|--------|--------|--------|--------|--------|--------|--------|
A|--------|--------|--------|--------|--------|--------|--------|--------|--------|
D|--------|--------|--------|--------|--------|--------|--------|--------|--------|


E|--------|--------|--------|--------|--------|--------|--------|--------|--------|
B|--------|--------|--------|--------|--------|--------|--------|--------|--------|
G|--------|--------|--------|--------|--------|--------|--------|--------|--------|
D|--------|--------|--------|--------|--------|--------|--------|--------|--------|
A|--------|--------|--------|--------|--------|--------|--------|--------|--------|
D|--------|--------|--------|--------|--------|--------|--------|--------|--------|


E|--------|--------|--------|--------|--------|--------|--------|--------|--------|
B|--------|--------|--------|--------|--------|--------|--------|--------|--------|
G|--------|--------|--------|--------|--------|--------|--------|--------|--------|
D|--------|--------|--------|--------|--------|--------|--------|--------|--------|
A|--------|--------|--------|--------|--------|--------|--------|--------|--------|
D|--------|--------|--------|--------|--------|--------|--------|--------|--------|


E|--------|--------|--------|--------|--------|--------|--------|--------|--------|
B|--------|--------|--------|--------|--------|--------|--------|--------|--------|
G|--------|--------|--------|--------|--------|--------|--------|--------|--------|
D|--------|--------|--------|--------|--------|--------|--------|--------|--------|
A|--------|--------|--------|--------|--------|--------|--------|--------|--------|
D|--------|--------|--------|--------|--------|--------|--------|--------|--------|


E|--------|--------|--------|--------|--------|--------|--------|--------|--------|
B|--------|--------|--------|--------|--------|--------|--------|--------|--------|
G|--------|--------|--------|--------|--------|--------|--------|--------|--------|
D|--------|--------|--------|--------|--------|--------|--------|--------|--------|
A|--------|--------|--------|--------|--------|--------|--------|--------|--------|
D|--------|--------|--------|--------|--------|--------|--------|--------|--------|


E|--------|--------|--------|--------|--------|--------|--------|--------|--------|
B|--------|--------|--------|--------|--------|--------|--------|--------|--------|
G|--------|--------|--------|--------|--------|--------|--------|--------|--------|
D|--------|--------|--------|--------|--------|--------|--------|--------|--------|
A|--------|--------|--------|--------|--------|--------|--------|--------|--------|
D|--------|--------|--------|--------|--------|--------|--------|--------|--------|


E|--------|--------|--------|--------|--------|--------|-----10------10------10------10------10------10--|
B|--------|--------|--------|--------|--------|--------|-10------10------10------10------10------10------|
G|--------|--------|--------|--------|--------|--------|-------------------------------------------------|
D|--------|--------|--------|--------|--------|--------|-------------------------------------------------|
A|--------|--------|--------|--------|--------|--------|-------------------------------------------------|
D|--------|--------|--------|--------|--------|--------|-------------------------------------------------|


E|-----10------10------10---------------|-----10------10------10------10------10------10--|
B|-10------10------10------8---8---8----|-10------10------10------10------10------10------|
G|--------------------------------------|-------------------------------------------------|
D|--------------------------------------|-------------------------------------------------|
A|--------------------------------------|-------------------------------------------------|
D|--------------------------------------|-------------------------------------------------|


E|-----10------10------10---------------|-----10------10------10------10------10------10--|
B|-10------10------10------8---8---8----|-10------10------10------10------10------10------|
G|--------------------------------------|-------------------------------------------------|
D|--------------------------------------|-------------------------------------------------|
A|--------------------------------------|-------------------------------------------------|
D|--------------------------------------|-------------------------------------------------|


E|-----10------10------10------8---8----|-----10------10------10------10------10------10--|
B|-10------10------10------10--8---8----|-10------10------10------10------10------10------|
G|--------------------------------------|-------------------------------------------------|
D|--------------------------------------|-------------------------------------------------|
A|--------------------------------------|-------------------------------------------------|
D|--------------------------------------|-------------------------------------------------|


E|-----10------10------10------8---8----|-----10------10------10------10------10------10--|
B|-10------10------10------10--8---8----|-10------10------10------10------10------10------|
G|--------------------------------------|-------------------------------------------------|
D|--------------------------------------|-------------------------------------------------|
A|--------------------------------------|-------------------------------------------------|
D|--------------------------------------|-------------------------------------------------|


E|-----10------10------10---------------|-----10------10------10------10------10------10--|
B|-10------10------10------10--8---8----|-10------10------10------10------10------10------|
G|--------------------------------------|-------------------------------------------------|
D|--------------------------------------|-------------------------------------------------|
A|--------------------------------------|-------------------------------------------------|
D|--------------------------------------|-------------------------------------------------|


E|-----10------10------10---------------|-----10------10------10------10------10------10--|
B|-10------10------10------10--8---8----|-10------10------10------10------10------10------|
G|--------------------------------------|-------------------------------------------------|
D|--------------------------------------|-------------------------------------------------|
A|--------------------------------------|-------------------------------------------------|
D|--------------------------------------|-------------------------------------------------|


E|-10---12---12---12---12---12---|-12---13---13---13---13---13---|-13---15---15---15---15---15---|
B|-------------------------------|-------------------------------|-------------------------------|
G|-------------------------------|-------------------------------|-------------------------------|
D|-------------------------------|-------------------------------|-------------------------------|
A|-------------------------------|-------------------------------|-------------------------------|
D|-------------------------------|-------------------------------|-------------------------------|


E|-15---14---14---14---12---10---|-10---8----8----8----7----7----|-7----5----5----5----3----3----|
B|-------------------------------|-------------------------------|-------------------------------|
G|-------------------------------|-------------------------------|-------------------------------|
D|-------------------------------|-------------------------------|-------------------------------|
A|-------------------------------|-------------------------------|-------------------------------|
D|-------------------------------|-------------------------------|-------------------------------|


E|-3----2----2----2----3----3----|-2---3---2---3---2---3---2---3---|-2------|-2------|
B|-------------------------------|---------------------------------|--------|--------|
G|-------------------------------|---------------------------------|--------|--------|
D|-------------------------------|---------------------------------|--------|--------|
A|-------------------------------|---------------------------------|--------|--------|
D|-------------------------------|---------------------------------|--------|--------|





Track 5: Bass Keyboard Left

G|-----------------|--------|-----------------|--------|-----------------|--------|
D|-----------------|--------|-----------------|--------|-----------------|--------|
A|-----------------|--------|-----------------|--------|-----------------|--------|
D|------7----5-----|-0------|-0----7----5-----|-0------|-0----7----5-----|-0------|


G|-----------------|--------|-----------------|--------|-----------------|--------|
D|-----------------|--------|-----------------|--------|-----------------|--------|
A|-----------------|--------|-----------------|--------|-----------------|--------|
D|-0----7----5-----|-0------|-0----7----5-----|-0------|-0----7----5-----|-0------|


G|-----------------|--------|-----------------|--------|-----------------|--------|
D|-----------------|--------|-----------------|--------|-----------------|--------|
A|-----------------|--------|-----------------|--------|-----------------|--------|
D|-0----7----5-----|-0------|-0----7----5-----|-0------|-0----7----5-----|-0------|


G|-----------------|--------|-----------------|--------|-----------------|-----------------|
D|-----------------|--------|-----------------|--------|-----------------|-----------------|
A|-----------------|--------|-----------------|--------|-----------------|-----------------|
D|-0----7----5-----|-0------|-0----7----5-----|-0------|-0----7----5-----|-0----7----5-----|


G|--------|--------|--------|--------|--------|--------|--------|--------|--------|
D|--------|--------|--------|--------|--------|--------|--------|--------|--------|
A|--------|--------|--------|--------|--------|--------|--------|--------|--------|
D|--------|--------|--------|--------|--------|--------|--------|--------|--------|


G|--------|--------|--------|--------|--------|--------|--------|--------|--------|
D|--------|--------|--------|--------|--------|--------|--------|--------|--------|
A|--------|--------|--------|--------|--------|--------|--------|--------|--------|
D|--------|--------|--------|--------|--------|--------|--------|--------|--------|


G|--------|--------|--------|--------|--------|--------|--------|--------|--------|
D|--------|--------|--------|--------|--------|--------|--------|--------|--------|
A|--------|--------|--------|--------|--------|--------|--------|--------|--------|
D|--------|--------|--------|--------|--------|--------|--------|--------|--------|


G|--------|--------|--------|--------|--------|--------|--------|--------|--------|
D|--------|--------|--------|--------|--------|--------|--------|--------|--------|
A|--------|--------|--------|--------|--------|--------|--------|--------|--------|
D|--------|--------|--------|--------|--------|--------|--------|--------|--------|


G|--------|--------|--------|--------|--------|--------|--------|--------|--------|
D|--------|--------|--------|--------|--------|--------|--------|--------|--------|
A|--------|--------|--------|--------|--------|--------|--------|--------|--------|
D|--------|--------|--------|--------|--------|--------|--------|--------|--------|


G|--------|--------|--------|--------|--------|--------|--------|--------|--------|
D|--------|--------|--------|--------|--------|--------|--------|--------|--------|
A|--------|--------|--------|--------|--------|--------|--------|--------|--------|
D|--------|--------|--------|--------|--------|--------|--------|--------|--------|


G|--------|--------|--------|--------|--------|--------|--------|--------|--------|
D|--------|--------|--------|--------|--------|--------|--------|--------|--------|
A|--------|--------|--------|--------|--------|--------|--------|--------|--------|
D|--------|--------|--------|--------|--------|--------|--------|--------|--------|


G|--------|--------|--------|--------|--------|--------|--------|--------|--------|
D|--------|--------|--------|--------|--------|--------|--------|--------|--------|
A|--------|--------|--------|--------|--------|--------|--------|--------|--------|
D|--------|--------|--------|--------|--------|--------|--------|--------|--------|


G|--------|--------|--------|--------|--------|--------|--------|--------|--------|
D|--------|--------|--------|--------|--------|--------|--------|--------|--------|
A|--------|--------|--------|--------|--------|--------|--------|--------|--------|
D|--------|--------|--------|--------|--------|--------|--------|--------|--------|


G|--------|--------|--------|--------|--------|--------|--------|--------|--------|
D|--------|--------|--------|--------|--------|--------|--------|--------|--------|
A|--------|--------|--------|--------|--------|--------|--------|--------|--------|
D|--------|--------|--------|--------|--------|--------|--------|--------|--------|


G|--------|--------|--------|-----------------|--------|-----------------|--------|
D|--------|--------|--------|-----------------|--------|-----------------|--------|
A|--------|--------|--------|-----------------|--------|-----------------|--------|
D|--------|--------|-0------|-0----7----5-----|-0------|-0----7----5-----|--------|


G|--------|--------|--------|--------|--------|--------|--------|--------|--------|
D|--------|--------|--------|--------|--------|--------|--------|--------|--------|
A|--------|--------|--------|--------|--------|--------|--------|--------|--------|
D|--------|--------|--------|--------|--------|--------|--------|--------|--------|


G|--------|--------|--------|--------|--------|--------|--------|--------|--------|
D|--------|--------|--------|--------|--------|--------|--------|--------|--------|
A|--------|--------|--------|--------|--------|--------|--------|--------|--------|
D|--------|--------|--------|--------|--------|--------|--------|--------|--------|


G|--------|--------|--------|--------|--------|--------|--------|
D|--------|--------|--------|--------|--------|--------|--------|
A|--------|--------|--------|--------|--------|--------|--------|
D|--------|--------|--------|--------|--------|--------|--------|





Track 6: Adam

G|--------|--------|--------|--------|--------|--------|--------|--------|--------|
D|--------|--------|--------|--------|--------|--------|--------|--------|--------|
A|--------|--------|--------|--------|--------|--------|--------|--------|--------|
D|--------|--------|--------|--------|--------|--------|--------|--------|--------|


G|--------|--------|--------|--------|--------|--------|--------|--------|--------|
D|--------|--------|--------|--------|--------|--------|--------|--------|--------|
A|--------|--------|--------|--------|--------|--------|--------|--------|--------|
D|--------|--------|--------|--------|--------|--------|--------|--------|--------|


G|--------|--------|--------|--------|--------|--------|-----------------|--------|
D|--------|--------|--------|--------|--------|--------|-----------------|--------|
A|--------|--------|--------|--------|--------|--------|-----------------|--------|
D|--------|--------|--------|--------|--------|--------|-0----0----------|--------|


G|-----------------|--------|------------------------|------------------------------|
D|-----------------|--------|------------------------|------------------------------|
A|-----------------|--------|--------------------3---|-5---5---3---5------------3---|
D|-0----0----------|--------|-0----0-----------------|------------------------------|


G|------------------------------|---------------------|--------------------|------------------------------|
D|------------------------------|---------------------|--------------------|------------------------------|
A|-5-------3---5------------3---|-5----3----2----3----|----------------3---|-5---5---3---5------------3---|
D|-----0------------------------|---------------------|--------------------|------------------------------|


G|------------------------------|---------------------|--------------------|------------------------------|
D|------------------------------|---------------------|--------------------|------------------------------|
A|-5---5---3---5------------3---|-5----3----2----3----|----------------3---|-5---5---3---5------------3---|
D|------------------------------|---------------------|--------------------|------------------------------|


G|------------------------------|---------------------|------------------------------|
D|------------------------------|---------------------|------------------------------|
A|-5---5---3---5------------3---|-5----3----2----3----|-5---5---3---5------------3---|
D|------------------------------|---------------------|------------------------------|


G|------------------------------|------------------------------|------------------------|
D|------------------------------|------------------------------|------------------------|
A|-5---5---3---5------------3---|-5---5---3---5------------3---|-5---5---3----2----3----|
D|------------------------------|------------------------------|------------------------|


G|------------------------|---------------------|------------------------|---------------------|
D|------------------------|---------------------|------------------------|---------------------|
A|-5----5----8---8----5---|-5----5----10---8----|-5----5----8---8----5---|-5----5----10---8----|
D|------------------------|---------------------|------------------------|---------------------|


G|------------------------|---------------------|------------------------|---------------------|
D|------------------------|---------------------|------------------------|---------------------|
A|-5----5----8---8----5---|-5----5----10---8----|-5----5----8---8----5---|-5----5----10---8----|
D|------------------------|---------------------|------------------------|---------------------|


G|------------------------|---------------------|------------------------|---------------------|
D|------------------------|---------------------|------------------------|---------------------|
A|-5----5----8---8----5---|-5----5----10---8----|-5----5----8---8----5---|-5----5----10---8----|
D|------------------------|---------------------|------------------------|---------------------|


G|------------------------|---------------------|------------------------|---------------------|
D|------------------------|---------------------|------------------------|---------------------|
A|-5----5----8---8----5---|-5----5----10---8----|-5----5----8---8----5---|-5----5----10---8----|
D|------------------------|---------------------|------------------------|---------------------|


G|---------------------|---------------------|------------------------|---------------------|
D|---------------------|---------------------|------------------------|---------------------|
A|-3----3----3----3----|-3----3----3----3----|-5----5----8---8----5---|-5----5----10---8----|
D|---------------------|---------------------|------------------------|---------------------|


G|---------------------|---------------------|---------------------|---------------------|
D|---------------------|---------------------|---------------------|---------------------|
A|-12---12---12---12---|-12---12---12---12---|-3----3----3----3----|-3----3----3----3----|
D|---------------------|---------------------|---------------------|---------------------|


G|---------------------|---------------------|------------------------|---------------------|
D|---------------------|---------------------|------------------------|---------------------|
A|-3----3----3----3----|-3----3----3----3----|-5----5----8---8----5---|-5----3----2----3----|
D|---------------------|---------------------|------------------------|---------------------|


G|------------------------|---------------------|------------------------|---------------------|
D|------------------------|---------------------|------------------------|---------------------|
A|-5----5----8---8----5---|-5----3----2----3----|-5----5----8---8----5---|-5----3----2----3----|
D|------------------------|---------------------|------------------------|---------------------|


G|------------------------|---------------------|------------------------|---------------------|
D|------------------------|---------------------|------------------------|---------------------|
A|-5----5----8---8----5---|-5----3----2----3----|-5----5----8---8----5---|-5----5----10---8----|
D|------------------------|---------------------|------------------------|---------------------|


G|------------------------|---------------------|------------------------|---------------------|
D|------------------------|---------------------|------------------------|---------------------|
A|-5----5----8---8----5---|-5----5----10---8----|-5----5----8---8----5---|-5----5----10---8----|
D|------------------------|---------------------|------------------------|---------------------|


G|------------------------|---------------------|---------------------|---------------------|
D|------------------------|---------------------|---------------------|---------------------|
A|-5----5----8---8----5---|-5----5----10---8----|-3----3----3----3----|-3----3----3----3----|
D|------------------------|---------------------|---------------------|---------------------|


G|------------------------|---------------------|---------------------|---------------------|
D|------------------------|---------------------|---------------------|---------------------|
A|-5----5----8---8----5---|-5----5----10---8----|-12---12---12---12---|-12---12---12---12---|
D|------------------------|---------------------|---------------------|---------------------|


G|---------------------|---------------------|---------------------|---------------------|
D|---------------------|---------------------|---------------------|---------------------|
A|-3----3----3----3----|-3----3----3----3----|-3----3----3----3----|-3----3----3----3----|
D|---------------------|---------------------|---------------------|---------------------|


G|------------------------|---------------------|------------------------|---------------------|
D|------------------------|---------------------|------------------------|---------------------|
A|-5----5----8---8----5---|-5----3----2----3----|-5----5----8---8----5---|-5----3----2----3----|
D|------------------------|---------------------|------------------------|---------------------|


G|------------------------|---------------------|------------------------|---------------------|
D|------------------------|---------------------|------------------------|---------------------|
A|-5----5----8---8----5---|-5----3----2----3----|-5----5----8---8----5---|-5----3----2----3----|
D|------------------------|---------------------|------------------------|---------------------|


G|--------|--------|--------|--------|--------|--------|--------|--------|--------|
D|--------|--------|--------|--------|--------|--------|--------|--------|--------|
A|--------|--------|--------|--------|--------|--------|--------|--------|--------|
D|--------|--------|--------|--------|--------|--------|--------|--------|--------|


G|--------|--------|--------|--------|--------|--------|--------|------------------------|
D|--------|--------|--------|--------|--------|--------|--------|------------------------|
A|--------|--------|--------|--------|--------|--------|--------|-5----5----8---8----5---|
D|--------|--------|--------|--------|--------|--------|--------|------------------------|


G|---------------------|------------------------|---------------------|------------------------|
D|---------------------|------------------------|---------------------|------------------------|
A|-5----5----10---8----|-5----5----8---8----5---|-5----5----10---8----|-5----5----8---8----5---|
D|---------------------|------------------------|---------------------|------------------------|


G|---------------------|------------------------|---------------------|------------------------|
D|---------------------|------------------------|---------------------|------------------------|
A|-5----5----10---8----|-5----5----8---8----5---|-5----5----10---8----|-5----5----8---8----5---|
D|---------------------|------------------------|---------------------|------------------------|


G|---------------------|------------------------|---------------------|------------------------|
D|---------------------|------------------------|---------------------|------------------------|
A|-5----5----10---8----|-5----5----8---8----5---|-5----5----10---8----|-5----5----8---8----5---|
D|---------------------|------------------------|---------------------|------------------------|


G|---------------------|------------------------|---------------------|---------------------------------|
D|---------------------|------------------------|---------------------|---------------------------------|
A|-5----5----10---8----|-5----5----8---8----5---|-5----5----10---8----|---------------------------------|
D|---------------------|------------------------|---------------------|-3---3---3---3---3---3---3---3---|


G|---------------------------------|---------------------------------|---------------------------------|
D|---------------------------------|---------------------------------|---------------------------------|
A|---------------------------------|---------------------------------|---------------------------------|
D|-3---3---3---3---3---3---3---3---|-5---5---5---5---5---5---5---5---|-5---5---5---5---5---5---5---5---|


G|---------------------------------|--------|--------|--------|--------|--------|
D|---------------------------------|--------|--------|--------|--------|--------|
A|-5---5---5---5---5---5---5---5---|-5------|-5------|--------|--------|--------|
D|---------------------------------|--------|--------|--------|--------|--------|