Site menu:

    

Browse: 0-9 A B C D E F G H I J K L N O P Q R S T U V W X Y Z

u2 - i will follow:



Title: I Will Follow
Artist: 
Album: Boy
Author: U2


Track 1: Untitled

D#|---------------------------------|---------------------12--12--12--|---------------------------------|
A#|-12--12--12--12--12--12--12--12--|-10--10--10--10--10--------------|-12--12--12--12--12--12--12--12--|
F#|-9---9---9---9---9---9---9---9---|-9---9---9---9-------------------|-9---9---9---9---9---9---9---9---|
C#|-9-----------9-----------9-------|-9-------9-----------------------|-9-----------9-----------9-------|
G#|---------------------------------|---------------------------------|---------------------------------|
D#|---------------------------------|---------------------------------|---------------------------------|


D#|---------------------12------12--|---------------------------------|---------------------12------12--|
A#|-10--10--10--10--10------10------|-12--12--12--12--12--12--12--12--|-10--10--10--10--10------10------|
F#|-9---9---9---9-------------------|-9---9---9---9---9---9---9---9---|-9---9---9---9-------------------|
C#|-9-------9-----------------------|-9-----------9-----------9-------|-9-------9-----------------------|
G#|---------------------------------|---------------------------------|---------------------------------|
D#|---------------------------------|---------------------------------|---------------------------------|


D#|---------------------------------|---------------------12------12--|---------------------------------|
A#|-12--12--12--12--12--12--12--12--|-10--10--10--10--10------10------|-12--12--12--12--12--12--12--12--|
F#|-9---9---9---9---9---9---9---9---|-9---9---9---9-------------------|-9---9---9---9---9---9---9---9---|
C#|-9-----------9-----------9-------|-9-------9-----------------------|-9-----------9-----------9-------|
G#|---------------------------------|---------------------------------|---------------------------------|
D#|---------------------------------|---------------------------------|---------------------------------|


D#|---------------------12--12--12--|---------------------------------|-------------12------12--10--10--|
A#|-10--10--10--10--10--------------|-12--12--12--12--12--12--12--12--|-10--10--10--10--10--10----------|
F#|-9---9---9---9-------------------|-9---9---9---9---9---9---9---9---|-9---9---9-----------------------|
C#|-9-------9-----------------------|-9-----------9-----------9-------|-9-------9-----------------------|
G#|---------------------------------|---------------------------------|---------------------------------|
D#|---------------------------------|---------------------------------|---------------------------------|


D#|---------------------------------|---------------------12--12--12--|---------------------------------|
A#|-12--12--12--12--12--12--12--12--|-10--10--10--10--10--------------|-12--12--12--12--12--12--12--12--|
F#|-9---9---9---9---9---9---9---9---|-9---9---9---9-------------------|-9---9---9---9---9---9---9---9---|
C#|-9-----------9-----------9-------|-9-------9-----------------------|-9-----------9-----------9-------|
G#|---------------------------------|---------------------------------|---------------------------------|
D#|---------------------------------|---------------------------------|---------------------------------|


D#|-------------12------12--10--10--|--------|--------|--------|--------|--------|
A#|-10--10--10--10--10--10----------|--------|--------|--------|--------|--------|
F#|-9---9---9-----------------------|--------|--------|--------|--------|--------|
C#|-9-------9-----------------------|--------|--------|--------|--------|--------|
G#|---------------------------------|--------|--------|--------|--------|--------|
D#|---------------------------------|--------|--------|--------|--------|--------|


D#|--------|--------|--------|---------------------------------|---------------------12--12--12--|
A#|--------|--------|--------|-12--12--12--12--12--12--12--12--|-10--10--10--10--10--------------|
F#|--------|--------|--------|-9---9---9---9---9---9---9---9---|-9---9---9---9-------------------|
C#|--------|--------|--------|-9-----------9-----------9-------|-9-------9-----------------------|
G#|--------|--------|--------|---------------------------------|---------------------------------|
D#|--------|--------|--------|---------------------------------|---------------------------------|


D#|---------------------------------|-------------12------12--10--10--|---------------------------------|
A#|-12--12--12--12--12--12--12--12--|-10--10--10--10--10--10----------|-12--12--12--12--12--12--12--12--|
F#|-9---9---9---9---9---9---9---9---|-9---9---9-----------------------|-9---9---9---9---9---9---9---9---|
C#|-9-----------9-----------9-------|-9-------9-----------------------|-9-----------9-----------9-------|
G#|---------------------------------|---------------------------------|---------------------------------|
D#|---------------------------------|---------------------------------|---------------------------------|


D#|---------------------12--12--12--|---------------------------------|-------------12------12--10--10--|
A#|-10--10--10--10--10--------------|-12--12--12--12--12--12--12--12--|-10--10--10--10--10--10----------|
F#|-9---9---9---9-------------------|-9---9---9---9---9---9---9---9---|-9---9---9-----------------------|
C#|-9-------9-----------------------|-9-----------9-----------9-------|-9-------9-----------------------|
G#|---------------------------------|---------------------------------|---------------------------------|
D#|---------------------------------|---------------------------------|---------------------------------|


D#|--------|--------|--------|--------|--------|--------|--------|--------|--------|
A#|--------|--------|--------|--------|--------|--------|--------|--------|--------|
F#|--------|--------|--------|--------|--------|--------|--------|--------|--------|
C#|--------|--------|--------|--------|--------|--------|--------|--------|--------|
G#|--------|--------|--------|--------|--------|--------|--------|--------|--------|
D#|--------|--------|--------|--------|--------|--------|--------|--------|--------|


D#|--------|--------|--------|--------|--------|--------|--------|---------------------------------|
A#|--------|--------|--------|--------|--------|--------|--------|-12--12--12--12--12--12--12--12--|
F#|--------|--------|--------|--------|--------|--------|--------|-9---9---9---9---9---9---9---9---|
C#|--------|--------|--------|--------|--------|--------|--------|-9-----------9-----------9-------|
G#|--------|--------|--------|--------|--------|--------|--------|---------------------------------|
D#|--------|--------|--------|--------|--------|--------|--------|---------------------------------|


D#|---------------------12--12--12--|---------------------------------|-------------12------12--10--10--|
A#|-10--10--10--10--10--------------|-12--12--12--12--12--12--12--12--|-10--10--10--10--10--10----------|
F#|-9---9---9---9-------------------|-9---9---9---9---9---9---9---9---|-9---9---9-----------------------|
C#|-9-------9-----------------------|-9-----------9-----------9-------|-9-------9-----------------------|
G#|---------------------------------|---------------------------------|---------------------------------|
D#|---------------------------------|---------------------------------|---------------------------------|


D#|---------------------------------|---------------------12--12--12--|---------------------------------|
A#|-12--12--12--12--12--12--12--12--|-10--10--10--10--10--------------|-12--12--12--12--12--12--12--12--|
F#|-9---9---9---9---9---9---9---9---|-9---9---9---9-------------------|-9---9---9---9---9---9---9---9---|
C#|-9-----------9-----------9-------|-9-------9-----------------------|-9-----------9-----------9-------|
G#|---------------------------------|---------------------------------|---------------------------------|
D#|---------------------------------|---------------------------------|---------------------------------|


D#|-------------12------12--10--10--|--------|--------|--------|--------|--------|
A#|-10--10--10--10--10--10----------|--------|--------|--------|--------|--------|
F#|-9---9---9-----------------------|--------|--------|--------|--------|--------|
C#|-9-------9-----------------------|--------|--------|--------|--------|--------|
G#|---------------------------------|--------|--------|--------|--------|--------|
D#|---------------------------------|--------|--------|--------|--------|--------|


D#|--------|--------|--------|--------|--------|--------|--------|--------|--------|
A#|--------|--------|--------|--------|--------|--------|--------|--------|--------|
F#|--------|--------|--------|--------|--------|--------|--------|--------|--------|
C#|--------|--------|--------|--------|--------|--------|--------|--------|--------|
G#|--------|--------|--------|--------|--------|--------|--------|--------|--------|
D#|--------|--------|--------|--------|--------|--------|--------|--------|--------|


D#|--------|--------|---------------------------------|---------------------12--12--12--|
A#|--------|--------|-12--12--12--12--12--12--12--12--|-10--10--10--10--10--------------|
F#|--------|--------|-9---9---9---9---9---9---9---9---|-9---9---9---9-------------------|
C#|--------|--------|-9-----------9-----------9-------|-9-------9-----------------------|
G#|--------|--------|---------------------------------|---------------------------------|
D#|--------|--------|---------------------------------|---------------------------------|


D#|---------------------------------|-------------12------12--10--10--|---------------------------------|
A#|-12--12--12--12--12--12--12--12--|-10--10--10--10--10--10----------|-12--12--12--12--12--12--12--12--|
F#|-9---9---9---9---9---9---9---9---|-9---9---9-----------------------|-9---9---9---9---9---9---9---9---|
C#|-9-----------9-----------9-------|-9-------9-----------------------|-9-----------9-----------9-------|
G#|---------------------------------|---------------------------------|---------------------------------|
D#|---------------------------------|---------------------------------|---------------------------------|


D#|---------------------12--12--12--|---------------------------------|-------------12------12--10--10--|
A#|-10--10--10--10--10--------------|-12--12--12--12--12--12--12--12--|-10--10--10--10--10--10----------|
F#|-9---9---9---9-------------------|-9---9---9---9---9---9---9---9---|-9---9---9-----------------------|
C#|-9-------9-----------------------|-9-----------9-----------9-------|-9-------9-----------------------|
G#|---------------------------------|---------------------------------|---------------------------------|
D#|---------------------------------|---------------------------------|---------------------------------|


D#|--------|-7------|-5------|-7------|--------|-7------|-5------|-7------|--------|
A#|-12-----|-7------|-5------|-7------|-12-----|-7------|-5------|-7------|-12-----|
F#|-12-----|-7------|-5------|-7------|-12-----|-7------|-5------|-7------|-12-----|
C#|-12-----|--------|--------|--------|-12-----|--------|--------|--------|-12-----|
G#|-12-----|--------|--------|--------|-12-----|--------|--------|--------|-12-----|
D#|--------|--------|--------|--------|--------|--------|--------|--------|--------|


D#|-7------|-5------|-7------|--------|-7------|-5------|-7------|-----------------12--12--12--12--|
A#|-7------|-5------|-7------|-12-----|-7------|-5------|-7------|-0---0---12--12--12--12--12--12--|
F#|-7------|-5------|-7------|-12-----|-7------|-5------|-7------|-0---0---------------------------|
C#|--------|--------|--------|-12-----|--------|--------|--------|---------------------------------|
G#|--------|--------|--------|-12-----|--------|--------|--------|---------------------------------|
D#|--------|--------|--------|--------|--------|--------|--------|---------------------------------|


D#|-12--12--12--0-------------------|---------------------------------|---------------------------------|
A#|-12--12--12--10--10--10--0---0---|-10--12--12--12--12--12--12--12--|-10--10--10--10--10--10--10--10--|
F#|-------------9---9---9---9---9---|-9---9---9---9---9---9---9---9---|-9---9---9---9---9---9---9---9---|
C#|---------------------------------|-7-------7---------------7-------|---------7-------7-------7-------|
G#|---------------------------------|---------------------------------|---------------------------------|
D#|---------------------------------|---------------------------------|---------------------------------|


D#|---------------------------------|-------------12--12--12----------|-0---0---0---0---0---0---0---0---|
A#|-12--12--12--12--12--12--12--12--|-10--10--10--10--10--10--10--10--|-12--12--12--12--12--12--12--12--|
F#|-9---9---9---9---9---9---9---9---|-9---9---9---9---9---9---9---9---|-9---9---9---9---9---9---9---9---|
C#|-7-------7---------------7-------|---------7---------------7-------|-7-------7---------------7-------|
G#|---------------------------------|---------------------------------|---------------------------------|
D#|---------------------------------|---------------------------------|---------------------------------|


D#|-------------12--12---0---0---|---------------------------------|---------------------12--12--12--|
A#|-10--10--10--10--10---0---0---|-12--12--12--12--12--12--12--12--|-10--10--10--10--10--------------|
F#|-9---9---9---9---9----7---7---|-9---9---9---9---9---9---9---9---|-9---9---9---9-------------------|
C#|---------7--------------------|-9-----------9-----------9-------|-9-------9-----------------------|
G#|------------------------------|---------------------------------|---------------------------------|
D#|------------------------------|---------------------------------|---------------------------------|


D#|---------------------------------|-------------12------12--10--10--|---------------------------------|
A#|-12--12--12--12--12--12--12--12--|-10--10--10--10--10--10----------|-12--12--12--12--12--12--12--12--|
F#|-9---9---9---9---9---9---9---9---|-9---9---9-----------------------|-9---9---9---9---9---9---9---9---|
C#|-9-----------9-----------9-------|-9-------9-----------------------|-9-----------9-----------9-------|
G#|---------------------------------|---------------------------------|---------------------------------|
D#|---------------------------------|---------------------------------|---------------------------------|


D#|---------------------12--12--12--|---------------------------------|-------------12------12--10--10--|
A#|-10--10--10--10--10--------------|-12--12--12--12--12--12--12--12--|-10--10--10--10--10--10----------|
F#|-9---9---9---9-------------------|-9---9---9---9---9---9---9---9---|-9---9---9-----------------------|
C#|-9-------9-----------------------|-9-----------9-----------9-------|-9-------9-----------------------|
G#|---------------------------------|---------------------------------|---------------------------------|
D#|---------------------------------|---------------------------------|---------------------------------|


D#|--------|--------|--------|--------|--------|--------|--------|--------|--------|
A#|--------|--------|--------|--------|--------|--------|--------|--------|--------|
F#|--------|--------|--------|--------|--------|--------|--------|--------|--------|
C#|--------|--------|--------|--------|--------|--------|--------|--------|--------|
G#|--------|--------|--------|--------|--------|--------|--------|--------|--------|
D#|--------|--------|--------|--------|--------|--------|--------|--------|--------|


D#|--------|--------|--------|--------|--------|--------|--------|---------------------------------|
A#|--------|--------|--------|--------|--------|--------|--------|-12--12--12--12--12--12--12--12--|
F#|--------|--------|--------|--------|--------|--------|--------|-9---9---9---9---9---9---9---9---|
C#|--------|--------|--------|--------|--------|--------|--------|-9-----------9-----------9-------|
G#|--------|--------|--------|--------|--------|--------|--------|---------------------------------|
D#|--------|--------|--------|--------|--------|--------|--------|---------------------------------|


D#|---------------------12------12--|---------------------------------|-------------12------12--10--10--|
A#|-10--10--10--10--10------10------|-12--12--12--12--12--12--12--12--|-10--10--10--10--10--10----------|
F#|-9---9---9---9-------------------|-9---9---9---9---9---9---9---9---|-9---9---9-----------------------|
C#|-9-------9-----------------------|-9-----------9-----------9-------|-9-------9-----------------------|
G#|---------------------------------|---------------------------------|---------------------------------|
D#|---------------------------------|---------------------------------|---------------------------------|


D#|---------------------------------|---------------------12--12--12--|---------------------|
A#|-12--12--12--12--12--12--12--12--|-10--10--10--10--10--------------|-12--12----12--------|
F#|-9---9---9---9---9---9---9---9---|-9---9---9---9-------------------|-9---9-----9---------|
C#|-9-----------9-----------9-------|-9-------9-----------------------|---------------------|
G#|---------------------------------|---------------------------------|---------------------|
D#|---------------------------------|---------------------------------|---------------------|





Track 2: Untitled

D#|--------|--------|--------|--------|--------|--------|--------|--------|--------|
A#|--------|--------|--------|--------|--------|--------|--------|--------|--------|
F#|--------|--------|--------|--------|--------|--------|--------|--------|--------|
C#|--------|--------|--------|--------|--------|--------|--------|--------|--------|
G#|--------|--------|--------|--------|--------|--------|--------|--------|--------|
D#|--------|--------|--------|--------|--------|--------|--------|--------|--------|


D#|--------|--------|--------|--------|--------|--------|--------|---------------------------------|
A#|--------|--------|--------|--------|--------|--------|--------|---------------------------------|
F#|--------|--------|--------|--------|--------|--------|--------|---------9-------9-------9-------|
C#|--------|--------|--------|--------|--------|--------|--------|-----9-------9-------9-------7---|
G#|--------|--------|--------|--------|--------|--------|--------|---------------------------------|
D#|--------|--------|--------|--------|--------|--------|--------|---------------------------------|


D#|-----0-------0---0-----|-0------------0---0---0---2---|-2-------0-----------------|
A#|---------3---0---0-----|-0----3---3---3---3---3---3---|-3---3-------0---0---------|
F#|-----------------------|------2---2---2---2---2---2---|-2-------------------------|
C#|-7---------------------|--------------------------2---|---------------------------|
G#|-----------------------|--------------------------0---|-0-------------------------|
D#|-----------------------|------------------------------|---------------------------|


D#|-0----0---0---0---0---0-------|-------------0---0-----------0---|-0---0---0----5---5--------|
A#|-0----5---5---5---5---5---3---|-3---3---3---0---0---3---3---0---|-3---3---3----3---3---3----|
F#|------4---4---4---4---4---2---|-2-------------------2---2-------|-2---2---2----2---2---2----|
C#|------------------------------|---------------------------------|---------------------------|
G#|------------------------------|---------------------------------|---------------------------|
D#|------------------------------|---------------------------------|---------------------------|


D#|-3----3---3---3---3---0---0---|--------|--------|--------|--------|--------|--------|
A#|-3----3---3---3---3---0---0---|--------|--------|--------|--------|--------|--------|
F#|-2----2---2---2---2-----------|--------|--------|--------|--------|--------|--------|
C#|------------------------------|--------|--------|--------|--------|--------|--------|
G#|------------------------------|--------|--------|--------|--------|--------|--------|
D#|------------------------------|--------|--------|--------|--------|--------|--------|


D#|--------|--------|---------------------------------|-------------0---0---0---0-------|
A#|--------|--------|-----5---5---5-------5---5---3---|-3---3---3---0---0---3---3---5---|
F#|--------|--------|-----4---4---4-------4---4---2---|-2---2---2-----------2---2---4---|
C#|--------|--------|---------------------------------|---------------------------------|
G#|--------|--------|---------------------------------|---------------------------------|
D#|--------|--------|---------------------------------|---------------------------------|


D#|-0---0---0---5---5---0---0-------|-0---0---0---0---0---0---0---0---|-0-------------------------------|
A#|-5---5---5---5---5---5---5---3---|-3---3---3---0---3---3---3---3---|-0---5---5---5---5---5---5---3---|
F#|-4---4---4---4---4---4---4---2---|-2---2---2-------2---2---2-------|-----4---4---4---4---4---4---2---|
C#|---------------------------------|-----------------2---2---2-------|---------------------------------|
G#|---------------------------------|-----------------0---0---0-------|---------------------------------|
D#|---------------------------------|---------------------------------|---------------------------------|


D#|-----0---0---0---0---0---0---0---|-0----5---5---0---0---0-------|-0---0---0---0---0---0---0---0---|
A#|-3---3---3---0---0---0---0---5---|-5----5---5---5---5---5---2---|-3---3---3---3---3---3---3---0---|
F#|-2---------------------------4---|-4----4---4---4---4---4---2---|-2---2---2---2---2---2---2-------|
C#|-0-------------------------------|------------------------------|---------2---2---2---2---2-------|
G#|---------------------------------|------------------------------|---------0---0---0---0---0-------|
D#|---------------------------------|------------------------------|---------------------------------|


D#|-0---0---0---5---5---0---0-------|-0---0---0---0---0---0---0---0---|-0---0---0---5---5---0---0-------|
A#|-5---5---5---5---5---5---5---3---|-3---3---3---3---3---3---3---0---|-5---5---5---5---5---5---5---3---|
F#|-4---4---4---4---4---4---4---2---|-2---2---2---2---2---2---2-------|-4---4---4---4---4---4---4---2---|
C#|---------------------------------|---------2---2---2---2---2-------|---------------------------------|
G#|---------------------------------|---------0---0---0---0---0-------|---------------------------------|
D#|---------------------------------|---------------------------------|---------------------------------|


D#|-0---0---0---0---0---0---0---0---|-0---0---0---5---5---0---0-------|-0---0---0---0---0---0---0---0---|
A#|-3---3---3---0---0---0---3---3---|-5---5---5---5---5---5---5---3---|-3---3---3---3---3---3---3---0---|
F#|-2---2---2---------------2---2---|-4---4---4---4---4---4---4---2---|-2---2---2---2---2---2---2-------|
C#|---------------------------------|---------------------------------|---------2---2---2---2---2-------|
G#|---------------------------------|---------------------------------|---------0---0---0---0---0-------|
D#|---------------------------------|---------------------------------|---------------------------------|


D#|-0---0---0---5---5---0---0-------|-0---0---0---0---0---0---0---0---|--------|--------|
A#|-5---5---5---5---5---5---5---3---|-3---3---3---0---0---0---3---3---|--------|--------|
F#|-4---4---4---4---4---4---4---2---|-2---2---2---------------2---2---|--------|--------|
C#|---------------------------------|---------------------------------|--------|--------|
G#|---------------------------------|---------------------------------|--------|--------|
D#|---------------------------------|---------------------------------|--------|--------|


D#|--------|--------|--------|--------|--------|--------|-----------------------------0---|
A#|--------|--------|--------|--------|--------|--------|-5---5---5---5---5---5---5---3---|
F#|--------|--------|--------|--------|--------|--------|-4---4---4---4---4---4---4---2---|
C#|--------|--------|--------|--------|--------|--------|---------------------------------|
G#|--------|--------|--------|--------|--------|--------|---------------------------------|
D#|--------|--------|--------|--------|--------|--------|---------------------------------|


D#|----------0---0----0---0---|-0---0---0---5---5---0---0-------|-0---0---0---0---0---0---0---0---|
A#|------3---3---3----3---0---|-5---5---5---5---5---5---5---3---|-3---3---3---0---3---3---3---3---|
F#|-2----2---2---2------------|-4---4---4---4---4---4---4---2---|-2---2---2-------2---2---2-------|
C#|---------------------------|---------------------------------|-----------------2---2---2-------|
G#|---------------------------|---------------------------------|-----------------0---0---0-------|
D#|---------------------------|---------------------------------|---------------------------------|


D#|---------------------------------|-----0---0---0---0---0---0---0---|-0----5---5---0---0---0-------|
A#|-5---5---5---5---5---5---5---3---|-3---3---3---0---0---0---0---5---|-5----5---5---5---5---5---2---|
F#|-4---4---4---4---4---4---4---2---|-2---------------------------4---|-4----4---4---4---4---4---2---|
C#|---------------------------------|-0-------------------------------|------------------------------|
G#|---------------------------------|---------------------------------|------------------------------|
D#|---------------------------------|---------------------------------|------------------------------|


D#|-0---0---0---0---0---0---0---0---|-0---0---0---5---5---0---0-------|-0---0---0---0---0---0---0---0---|
A#|-3---3---3---3---3---3---3---0---|-5---5---5---5---5---5---5---3---|-3---3---3---3---3---3---3---0---|
F#|-2---2---2---2---2---2---2-------|-4---4---4---4---4---4---4---2---|-2---2---2---2---2---2---2-------|
C#|---------2---2---2---2---2-------|---------------------------------|---------2---2---2---2---2-------|
G#|---------0---0---0---0---0-------|---------------------------------|---------0---0---0---0---0-------|
D#|---------------------------------|---------------------------------|---------------------------------|


D#|-0---0---0---5---5---0---0-------|-0---0---0---0---0---0---0---0---|-0---0---0---5---5---0---0-------|
A#|-5---5---5---5---5---5---5---3---|-3---3---3---0---0---0---3---3---|-5---5---5---5---5---5---5---3---|
F#|-4---4---4---4---4---4---4---2---|-2---2---2---------------2---2---|-4---4---4---4---4---4---4---2---|
C#|---------------------------------|---------------------------------|---------------------------------|
G#|---------------------------------|---------------------------------|---------------------------------|
D#|---------------------------------|---------------------------------|---------------------------------|


D#|-0---0---0---0---0---0---0---0---|-0---0---0---5---5---0---0-------|-0---0---0---0---0---0---0---0---|
A#|-3---3---3---3---3---3---3---0---|-5---5---5---5---5---5---5---3---|-3---3---3---0---0---0---3---3---|
F#|-2---2---2---2---2---2---2-------|-4---4---4---4---4---4---4---2---|-2---2---2---------------2---2---|
C#|---------2---2---2---2---2-------|---------------------------------|---------------------------------|
G#|---------0---0---0---0---0-------|---------------------------------|---------------------------------|
D#|---------------------------------|---------------------------------|---------------------------------|


D#|--------|--------|--------|--------|--------|--------|--------|--------|--------|
A#|--------|--------|--------|--------|--------|--------|--------|--------|--------|
F#|--------|--------|--------|--------|--------|--------|--------|--------|--------|
C#|--------|--------|--------|--------|--------|--------|--------|--------|--------|
G#|--------|--------|--------|--------|--------|--------|--------|--------|--------|
D#|--------|--------|--------|--------|--------|--------|--------|--------|--------|


D#|--------|--------|--------|--------|--------|--------|--------|--------|--------|
A#|--------|--------|--------|--------|--------|--------|--------|--------|--------|
F#|--------|--------|--------|--------|--------|--------|--------|--------|--------|
C#|--------|--------|--------|--------|--------|--------|--------|--------|--------|
G#|--------|--------|--------|--------|--------|--------|--------|--------|--------|
D#|--------|--------|--------|--------|--------|--------|--------|--------|--------|


D#|--------|--------|--------|--------|--------|--------|--------|--------|--------|
A#|--------|--------|--------|--------|--------|--------|--------|--------|--------|
F#|--------|--------|--------|--------|--------|--------|--------|--------|--------|
C#|--------|--------|--------|--------|--------|--------|--------|--------|--------|
G#|--------|--------|--------|--------|--------|--------|--------|--------|--------|
D#|--------|--------|--------|--------|--------|--------|--------|--------|--------|


D#|--------|--------|--------|--------|--------|--------|--------|--------|--------|
A#|--------|--------|--------|--------|--------|--------|--------|--------|--------|
F#|--------|--------|--------|--------|--------|--------|--------|--------|--------|
C#|--------|--------|--------|--------|--------|--------|--------|--------|--------|
G#|--------|--------|--------|--------|--------|--------|--------|--------|--------|
D#|--------|--------|--------|--------|--------|--------|--------|--------|--------|


D#|--------|--------|--------|--------|-0---0---0---5---5---5---0-------|-3----3---3---3---3---3---0---|
A#|--------|--------|--------|--------|-5---5---5---5---5---5---5---3---|-3----3---3---3---3---3---0---|
F#|--------|--------|--------|--------|-4---4---4---4---4---4---4---2---|-2----2---2---2---2---2-------|
C#|--------|--------|--------|--------|-----------------------------0---|------------------------------|
G#|--------|--------|--------|--------|---------------------------------|------------------------------|
D#|--------|--------|--------|--------|---------------------------------|------------------------------|


D#|-0---0---0---5---5---5---0-------|-3---3---3---0---0---0---0---0---|-0---0---0---5---5---5---0-------|
A#|-5---5---5---5---5---5---5---3---|-3---3---3---0---0---0---0---0---|-5---5---5---5---5---5---5---3---|
F#|-4---4---4---4---4---4---4---2---|-2---2---2-----------------------|-4---4---4---4---4---4---4---2---|
C#|---------------------------------|---------------------------------|---------------------------------|
G#|---------------------------------|---------------------------------|---------------------------------|
D#|---------------------------------|---------------------------------|---------------------------------|


D#|-0---0---0---3---3---3---0---0---|-0---0---0---5---5---5---0-------|-3-----3---0----0---|
A#|-3---3---3---3---3---3---5---5---|-5---5---5---5---5---5---5---3---|-3-----3---3----3---|
F#|-2---2---2---2---2---2-----------|-4---4---4---4---4---4---4---2---|-2-----2---2----2---|
C#|---------------------------------|---------------------------------|--------------------|
G#|---------------------------------|---------------------------------|--------------------|
D#|---------------------------------|---------------------------------|--------------------|


D#|-0-------------------------------|-----0-------0-------0---0------0--|------------------------|
A#|---------5---5---5---------------|---------3-------2---2---2---3-----|-3------------------2---|
F#|-----4---4---4---4---3---3---2---|-2-------------------2---2---------|------------------------|
C#|---------------------------------|-----------------------------------|------------------------|
G#|---------------------------------|-----------------------------------|------------------------|
D#|---------------------------------|-----------------------------------|------------------------|


D#|-2-----------0---0-----------3---|-0-------------------------|-2-----------0---0---0---0---0---|
A#|-----3---3-------------------3---|-0---------3---3---3-------|-----3---3-----------0---0---0---|
F#|---------------------2---2-------|-----------4---4---4---2---|---------------------------------|
C#|---------------------------------|---------------------------|---------------------------------|
G#|---------------------------------|---------------------------|---------------------------------|
D#|---------------------------------|---------------------------|---------------------------------|


D#|-0---0---0---0---5---7-----------|-3----3---3---3-----0---|--------|--------|--------|
A#|-0---0---0---0-----------5---5---|-3----3---3---3-----0---|--------|--------|--------|
F#|-------------------------4---4---|-2----2---2---2---------|--------|--------|--------|
C#|---------------------------------|------------------------|--------|--------|--------|
G#|---------------------------------|------------------------|--------|--------|--------|
D#|---------------------------------|------------------------|--------|--------|--------|


D#|--------|--------|--------|--------|
A#|--------|--------|--------|--------|
F#|--------|--------|--------|--------|
C#|--------|--------|--------|--------|
G#|--------|--------|--------|--------|
D#|--------|--------|--------|--------|





Track 3: Untitled

D#|--------|--------|--------|--------|--------|--------|--------|--------|--------|
A#|--------|--------|--------|--------|--------|--------|--------|--------|--------|
F#|--------|--------|--------|--------|--------|--------|--------|--------|--------|
C#|--------|--------|--------|--------|--------|--------|--------|--------|--------|
G#|--------|--------|--------|--------|--------|--------|--------|--------|--------|
D#|--------|--------|--------|--------|--------|--------|--------|--------|--------|


D#|--------|--------|--------|--------|--------|--------|--------|--------|--------|
A#|--------|--------|--------|--------|--------|--------|--------|--------|--------|
F#|--------|--------|--------|--------|--------|--------|--------|--------|--------|
C#|--------|--------|--------|--------|--------|--------|--------|--------|--------|
G#|--------|--------|--------|--------|--------|--------|--------|--------|--------|
D#|--------|--------|--------|--------|--------|--------|--------|--------|--------|


D#|--------------------|--------|--------|--------|------------------------------|
A#|--------------------|--------|--------|--------|-------------10--10-----------|
F#|-----9---9----9-----|-9------|--------|--------|-----9---9-----------9---9----|
C#|-9------------------|--------|--------|--------|-9----------------------------|
G#|--------------------|--------|--------|--------|------------------------------|
D#|--------------------|--------|--------|--------|------------------------------|


D#|--------|--------|--------|--------|--------|--------|--------|--------|--------|
A#|--------|--------|--------|--------|--------|--------|--------|--------|--------|
F#|-9------|--------|--------|--------|--------|--------|--------|--------|--------|
C#|--------|--------|--------|--------|--------|--------|--------|--------|--------|
G#|--------|--------|--------|--------|--------|--------|--------|--------|--------|
D#|--------|--------|--------|--------|--------|--------|--------|--------|--------|


D#|--------|--------|--------------------|--------|--------|--------|-------------5---5------------|
A#|--------|--------|-----5---5----5-----|-5------|--------|--------|-----5---5-----------5---5----|
F#|--------|--------|-4------------------|--------|--------|--------|-4----------------------------|
C#|--------|--------|--------------------|--------|--------|--------|------------------------------|
G#|--------|--------|--------------------|--------|--------|--------|------------------------------|
D#|--------|--------|--------------------|--------|--------|--------|------------------------------|


D#|--------------------|--------|--------|--------|--------|--------|--------|--------|
A#|-3----3---5---5-----|--------|--------|--------|--------|--------|--------|--------|
F#|--------------------|--------|--------|--------|--------|--------|--------|--------|
C#|--------------------|--------|--------|--------|--------|--------|--------|--------|
G#|--------------------|--------|--------|--------|--------|--------|--------|--------|
D#|--------------------|--------|--------|--------|--------|--------|--------|--------|


D#|--------|--------|--------|--------|--------|--------|--------|--------|--------|
A#|--------|--------|--------|--------|--------|--------|--------|--------|--------|
F#|--------|--------|--------|--------|--------|--------|--------|--------|--------|
C#|--------|--------|--------|--------|--------|--------|--------|--------|--------|
G#|--------|--------|--------|--------|--------|--------|--------|--------|--------|
D#|--------|--------|--------|--------|--------|--------|--------|--------|--------|


D#|--------|--------|--------------------|--------|--------|--------|-------------5---5------------|
A#|--------|--------|-----5---5----5-----|-5------|--------|--------|-----5---5-----------5---5----|
F#|--------|--------|-4------------------|--------|--------|--------|-4----------------------------|
C#|--------|--------|--------------------|--------|--------|--------|------------------------------|
G#|--------|--------|--------------------|--------|--------|--------|------------------------------|
D#|--------|--------|--------------------|--------|--------|--------|------------------------------|


D#|--------------------|--------|--------|--------|--------|--------|--------|--------|
A#|-3----3---5---5-----|--------|--------|--------|--------|--------|--------|--------|
F#|--------------------|--------|--------|--------|--------|--------|--------|--------|
C#|--------------------|--------|--------|--------|--------|--------|--------|--------|
G#|--------------------|--------|--------|--------|--------|--------|--------|--------|
D#|--------------------|--------|--------|--------|--------|--------|--------|--------|


D#|--------|--------|--------|--------|--------|--------|--------|--------|--------|
A#|--------|--------|--------|--------|--------|--------|--------|--------|--------|
F#|--------|--------|--------|--------|--------|--------|--------|--------|--------|
C#|--------|--------|--------|--------|--------|--------|--------|--------|--------|
G#|--------|--------|--------|--------|--------|--------|--------|--------|--------|
D#|--------|--------|--------|--------|--------|--------|--------|--------|--------|


D#|--------|--------|--------|--------|--------|--------|--------|--------|--------|
A#|--------|--------|--------|--------|--------|--------|--------|--------|--------|
F#|--------|--------|--------|--------|--------|--------|--------|--------|--------|
C#|--------|--------|--------|--------|--------|--------|--------|--------|--------|
G#|--------|--------|--------|--------|--------|--------|--------|--------|--------|
D#|--------|--------|--------|--------|--------|--------|--------|--------|--------|


D#|--------|--------|--------|--------|--------|--------|--------|--------|--------|
A#|--------|--------|--------|--------|--------|--------|--------|--------|--------|
F#|--------|--------|--------|--------|--------|--------|--------|--------|--------|
C#|--------|--------|--------|--------|--------|--------|--------|--------|--------|
G#|--------|--------|--------|--------|--------|--------|--------|--------|--------|
D#|--------|--------|--------|--------|--------|--------|--------|--------|--------|


D#|--------|--------|--------|--------|--------|--------|--------|--------|--------|
A#|--------|--------|--------|--------|--------|--------|--------|--------|--------|
F#|--------|--------|--------|--------|--------|--------|--------|--------|--------|
C#|--------|--------|--------|--------|--------|--------|--------|--------|--------|
G#|--------|--------|--------|--------|--------|--------|--------|--------|--------|
D#|--------|--------|--------|--------|--------|--------|--------|--------|--------|


D#|--------|--------|--------|--------|--------|--------|--------|--------|--------|
A#|--------|--------|--------|--------|--------|--------|--------|--------|--------|
F#|--------|--------|--------|--------|--------|--------|--------|--------|--------|
C#|--------|--------|--------|--------|--------|--------|--------|--------|--------|
G#|--------|--------|--------|--------|--------|--------|--------|--------|--------|
D#|--------|--------|--------|--------|--------|--------|--------|--------|--------|


D#|--------|--------|--------|--------|--------|--------|--------|--------|--------|
A#|--------|--------|--------|--------|--------|--------|--------|--------|--------|
F#|--------|--------|--------|--------|--------|--------|--------|--------|--------|
C#|--------|--------|--------|--------|--------|--------|--------|--------|--------|
G#|--------|--------|--------|--------|--------|--------|--------|--------|--------|
D#|--------|--------|--------|--------|--------|--------|--------|--------|--------|


D#|--------|--------|--------|--------|--------|--------|--------|--------|--------|
A#|--------|--------|--------|--------|--------|--------|--------|--------|--------|
F#|--------|--------|--------|--------|--------|--------|--------|--------|--------|
C#|--------|--------|--------|--------|--------|--------|--------|--------|--------|
G#|--------|--------|--------|--------|--------|--------|--------|--------|--------|
D#|--------|--------|--------|--------|--------|--------|--------|--------|--------|


D#|--------|
A#|--------|
F#|--------|
C#|--------|
G#|--------|
D#|--------|





Track 4: Bass

F#|--------|--------|--------|--------|--------|--------|--------|--------|-----------------------------------|
C#|--------|--------|--------|--------|--------|--------|--------|--------|-2---2---2---2---2---2---2---------|
G#|--------|--------|--------|--------|--------|--------|--------|--------|-----------------------------3--3--|
D#|--------|--------|--------|--------|--------|--------|--------|--------|-----------------------------------|


F#|-----------------2---2-----------|-----------------------------------|-2----------------------------|
C#|---------------------------------|-2---2---2---2---2---2-------------|----------0---0---0---0---0---|
G#|-3---3---3---3-----------3---0---|-------------------------0---0--0--|------0-----------------------|
D#|---------------------------------|-----------------------------------|------------------------------|


F#|--------------------------------|-----------------------------------|--------------------------------|
C#|-2----2---2---2---2---2---------|-------------------------------0---|-2----2---2---2---2---2---------|
G#|--------------------------0--0--|-3---3---2---3---0---0---3--0------|--------------------------0--0--|
D#|--------------------------------|-----------------------------------|--------------------------------|


F#|-2----------------------------|------------------------------|---------------------------------|
C#|----------0---0---0---0---0---|-2----2---2---2---2---2---7---|-7---7---7---7---7---7---7---7---|
G#|------------------------------|------------------------------|---------------------------------|
D#|------------------------------|------------------------------|---------------------------------|


F#|--------------------------2--2--|-2----2----2----2---------|---------------------------------|
C#|-2----2---2---2---2-------------|--------------------2--2--|-2---2---2---2---2---2---2-------|
G#|----------------------0---------|-0----0----0--------------|-----------------------------0---|
D#|--------------------------------|--------------------------|---------------------------------|


F#|---------------------------------|--------------------------------2--|-2----2---2---2---2-------------|
C#|-7---7---7---7---7---7---7---0---|-2---2---2---2---2---2---2---------|----------------------0--0--0---|
G#|---------------------------------|-----------------------------0-----|-0------------------------------|
D#|---------------------------------|-----------------------------------|--------------------------------|


F#|---------------------------------|---------------------2-----------|--------------------------2---|
C#|-2---2---2---2---2---2---2-------|---------------------------------|-2----2---2---2---2-----------|
G#|-----------------------------0---|-3---3---2---3---0-------0---0---|----------------------0-------|
D#|---------------------------------|---------------------------------|------------------------------|


F#|-2------------7--7--7-------------|---------9-----------------------|-----------------------------------|
C#|------0--0--------------0--0--0---|-----------------------------0---|-----------------------------------|
G#|----------------------------------|-7---7-------7---7---7---7-------|-3---3---2---3---0---0--3--0---0---|
D#|----------------------------------|---------------------------------|-----------------------------------|


F#|--------------------------------2--|-2-------------------------|--------------------|
C#|-2---2---2---2---2---2---2---------|----------0---0----0---2---|--------------------|
G#|-----------------------------0-----|-0----0--------------------|-7-----7----7---12--|
D#|-----------------------------------|---------------------------|--------------------|


F#|-----------------|----------------------|---------------------------|------------------------|
C#|-----------------|------------7--7------|----------7---7-------7----|------------------------|
G#|-12----12---12---|-7-----7----------0---|-0----0-----------0--------|-7----7----7----7---12--|
D#|-----------------|----------------------|---------------------------|------------------------|


F#|--------------------|--------------------|---------------------|------------------------------|
C#|--------------------|----------------7---|------7---------7----|-9----9---9---9---9---9-------|
G#|-12----12---12------|-7-----7----0-------|-0---------0---------|-7----7---7---7---7---7---0---|
D#|----------------0---|--------------------|---------------------|------------------------------|


F#|-9----9----9----9---9--9--|---------------------------|------------------------|
C#|-7----7----7----7---7--7--|---------------------------|-7----7---7---7----7----|
G#|--------------------------|-----------------------0---|-0----0---0---0----0----|
D#|--------------------------|-0----0----0---0---0-------|------------------------|


F#|---------------------------------|-9---9---9---9---9---9---9---9---|------------------------------|
C#|-9---9---9---9---9---9---9---9---|-7---7---7---7---7---7---7---7---|------------------------------|
G#|-7---7---7---7---7---7---7---7---|---------------------------------|--------------------------0---|
D#|---------------------------------|---------------------------------|-0----0---0---0---0---0-------|


F#|---------------------------------|------------------------------|---------------------2-----------|
C#|-7---7---7---7---7---7---7-------|-2----2---2---2---2---2-------|---------------------------------|
G#|-0---0---0---0---0---0---0---7---|--------------------------0---|-3---3---2---3---0-------3---5---|
D#|---------------------------------|------------------------------|---------------------------------|


F#|------9---9-------9---9-------|---------------------------|---------------------------|
C#|------------------------------|------0---0---0----0-------|-2----2----2---2---2-------|
G#|-7----7---7---7---7---7---0---|-0-------------------------|-----------------------0---|
D#|------------------------------|-----------------------0---|---------------------------|


F#|---------------------2-----------|--------------------------2--2--|-2----------------------------|
C#|---------------------------------|-2---2---2----2---2---2---------|----------0---0---0---0-------|
G#|-3---3---2---3---0-------3-------|--------------------------------|-0----0-------------------7---|
D#|-----------------------------0---|--------------------------------|------------------------------|


F#|--------------------|-----------------|----------------------|-------9---9---9--------|
C#|--------------------|-----------------|----------------7--7--|-7-----7---7---7--------|
G#|-7-----7----7---12--|-12----12---12---|-7-----7--------------|-------------------0----|
D#|--------------------|-----------------|------------0---------|------------------------|


F#|--------------------------|-----------------|--------------------|-----------------|
C#|--------------------------|-----------------|----------------7---|-7-----7----7----|
G#|-7----7----7----7---12-12-|-12----12---12---|-7-----7------------|-----------------|
D#|--------------------------|-----------------|------------0-------|-----------------|


F#|------------------------------|-----9---9---9-------------------|---------------------------|
C#|---------9-----------9--------|-7-------7---7---7---7---7---7---|-9----9---9---9---9---9----|
G#|-7---7-------7---7-------7----|---------------------------------|-7----7---7---7---7---7----|
D#|------------------------------|---------------------------------|---------------------------|


F#|-9---9---9---------------9----|---------------------------------|-9----9---9-------------------|
C#|-7---7---7-----------7---7----|-9---9---9---9---9---9---9---7---|-7----7---7---7---------------|
G#|-0---0---0---0---0------------|-7---7---7---7---7---7---7-------|-0----0---0-------0---0---7---|
D#|------------------------------|---------------------------------|------------------------------|


F#|--------------------------------|------------------------------|------------------------------|
C#|--------------------------------|------7---7---7---------------|------------------------------|
G#|------7---7---7---7---7---7--7--|-0----------------0---0---7---|-7----7---7---7---7---7-------|
D#|-0------------------------------|------------------------------|--------------------------0---|


F#|-----------------------------------|------------------------------|--------------------------------|
C#|-----------------------------------|------------------------------|-7------------------------------|
G#|-----3---2---3---0---0---3--0--7---|-7---7---7----7---7---7---0---|-0--------5---5---5---5---5--5--|
D#|-0---------------------------------|------------------------------|--------------------------------|


F#|------------------------------|---------------------2-----------|-9----9---9----------------|
C#|------------------------------|---------------------------------|---------------------------|
G#|-7-------7----7---7---7---0---|-3---3---2---3---0-------3---5---|-7----7---7---7----7---0---|
D#|-----0------------------------|---------------------------------|---------------------------|


F#|--------------------|--------|--------|--------|--------|--------|--------|--------|
C#|----------0---0-----|--------|--------|--------|--------|--------|--------|--------|
G#|-7----0-------------|--------|--------|--------|--------|--------|--------|--------|
D#|--------------------|-0------|-0------|-0------|-0------|-0------|-0------|-0------|


F#|--------|--------|---------------------------|--------|---------------------------|
C#|--------|--------|----------0---0---0--------|--------|----------0---0---0--------|
G#|--------|--------|-2----2---------------2----|--------|-2----2---------------2----|
D#|-0------|-0------|---------------------------|-0------|---------------------------|


F#|--------|---------------------------|--------|---------------------------|---------------------|
C#|--------|---------------------------|--------|---------------------------|---------------------|
G#|--------|----------5---5---0--------|--------|----------5---5---0--------|---------------------|
D#|-0------|-3----3---------------3----|-0------|-3----3---------------3----|-0----0----0----0----|


F#|---------------------------|---------------------|---------------------------|---------------------|
C#|----------0---0---0--------|---------------------|----------0---0------------|---------------------|
G#|-2----2---------------2----|---------------------|-2----2-----------2--------|---------------------|
D#|----------------------0----|-0----0----0----0----|----------------------0----|-0----0----0----0----|


F#|---------------------------|---------------------|---------------------------|------------------------|
C#|----------0---0---0--------|---------------------|----------0---0------------|-2----2----2----2-------|
G#|-2----2---------------2----|---------------------|-2----2-----------2--------|--------------------0---|
D#|----------------------0----|-0----0----0----0----|----------------------0----|------------------------|


F#|---------------------2-----------|------------------------------|---------------------------|
C#|---------------------------------|------------------------------|-7-------------------------|
G#|-3---3---2---3---0-------3---7---|-7---7---7----7---7---7---0---|------0---5---5----5-------|
D#|---------------------------------|------------------------------|-----------------------0---|


F#|---------------------------------|---------------------2-----------|---------------------------------|
C#|-2---2---2---2---2---2---2-------|---------------------------------|---------------------------------|
G#|-----------------------------0---|-3---3---2---3---0-------3---7---|-7---7---7---7---7---7---7---0---|
D#|---------------------------------|---------------------------------|---------------------------------|


F#|------------------------|---------------------------------|------------------------|
C#|-7----------------------|---------9---9-------9---9-------|-7----7------------7----|
G#|------0---5---5---------|-7-------7---7---7---7---7---0---|-----------0---0--------|
D#|-------------------0----|-----0---------------------------|------------------------|


F#|------------------------|-9---9---9----9---9---9----|------------------------------|
C#|-9----9---9---9----9----|-7---7---7----7---7---7----|-9------------9---9---9-------|
G#|-7----7---7---7----7----|-0---0---0----0---0---0----|-7----7---7---7---7---7---0---|
D#|-0----0---0---0----0----|---------------------------|------------------------------|


F#|------------------------|------------------------------|------------------------------|
C#|------7-----------------|-9----9---9---9---9---9-------|------7---7---7---7-----------|
G#|-0---------0---0---0----|-7----7---7---7---7---7---0---|-0--------------------0---7---|
D#|------------------------|-0----0---0---0---0---0-------|------------------------------|


F#|-----------------|--------------------|-----------------|--------------------|-----------------|
C#|-----------------|--------------------|-----------------|--------------------|-----------------|
G#|-7-----7----7----|-0-----0----0---0---|-7-----7----7----|-0-----0----0---0---|-7-----7----7----|
D#|-----------------|--------------------|-----------------|--------------------|-----------------|


F#|--------------------|---------------------|------------------9---9----|---------------------------------|
C#|--------------------|---------------------|------7---7---7---7---7----|---------------------------------|
G#|-0-----0----0---0---|-7----7----7----7----|-0-------------------------|-7---7---7---7---7---7---7---0---|
D#|--------------------|-0----0----0----0----|---------------------------|-0---0---------------------------|


F#|---------------------2-----------|---------------------------------|------------------------------|
C#|---------------------------------|-----------------------------7---|-7----------------------------|
G#|-3---3---2---3---0-------3---7---|---------7---7---7---7---7-------|-0----0---5---5---5---5---0---|
D#|---------------------------------|-0---0---------------------------|------------------------------|


F#|-----------------------------------|------------------------------|--------------------|
C#|-----------------------------------|------------------------------|--------------------|
G#|-7---7---7---7---7---7---7---0--0--|-3---3---2---3---0---0---5----|-7---7--------------|
D#|-----------------------------------|------------------------------|-0---0--------------|