Site menu:

    

Browse: 0-9 A B C D E F G H I J K L N O P Q R S T U V W X Y Z

u2 - hold me thrill me kiss me kill me:



Title: Hold Me, Thrill Me, Kiss Me, Kill Me
Artist: 
Album: The Best of 1990-2000
Author: U2


Track 1: Edge

D#|---------------------------|---------------------------|---------------------------|
A#|---------------------------|---------------------------|---------------------------|
F#|---------------------------|---------------------------|---------------------------|
C#|---------------------------|---------------------------|---------------------------|
G#|---------------------------|---------------------------|---------------------------|
D#|-0----0---0---0---0---0----|-0---0----0---0----0---0---|-0---0---0----0---0----0---|


D#|------------------------------|---------------------------|---------------------------|
A#|------------------------------|---------------------------|---------------------------|
F#|------------------------------|---------------------------|---------------------------|
C#|------------------------------|-9----9---7---7---7---4----|-4---4---------------------|
G#|----------------------14--14--|-7----7---5---5---5---2----|-2---2---5----5----5---5---|
D#|-0----0---0---0---0---12--12--|---------------------------|---------3----3----3---3---|


D#|---------------------------|---------------------------|---------------------------|
A#|---------------------------|---------------------------|---------------------------|
F#|---------------------------|---------------------------|---------------------------|
C#|-9----9---7---7---7---4----|-4---4---------------------|-9----9---7---7---7---4----|
G#|-7----7---5---5---5---2----|-2---2---5----5----5---5---|-7----7---5---5---5---2----|
D#|---------------------------|---------3----3----3---3---|---------------------------|


D#|---------------------------|---------------------------|------------------------|
A#|---------------------------|---------------------------|------------------------|
F#|---------------------------|---------------------------|------------------------|
C#|---------------------------|-9----9---7---7---7---4----|-4---4------------------|
G#|-9---9---5----5----5---5---|-7----7---5---5---5---2----|-2---2---3----3---------|
D#|-7---7---3----3----3---3---|---------------------------|---------1----1---------|


D#|--------|--------|--------|--------|--------|--------|--------|--------|--------|
A#|--------|--------|--------|--------|--------|--------|--------|--------|--------|
F#|--------|--------|--------|--------|--------|--------|--------|--------|--------|
C#|--------|--------|--------|--------|--------|--------|--------|--------|--------|
G#|--------|--------|--------|--------|--------|--------|--------|--------|--------|
D#|--------|--------|--------|--------|--------|--------|--------|--------|--------|


D#|--------|--------|--------|---------------------|---------------------|---------------------|
A#|--------|--------|--------|---------------------|---------------------|---------------------|
F#|--------|--------|--------|---------------------|---------------------|---------------------|
C#|--------|--------|--------|---------------------|---------------------|---------------------|
G#|--------|--------|--------|-7-----7---7----7----|-7---7-----7---------|-5-----5---5----5----|
D#|--------|--------|--------|-5-----5---5----5----|-5---5-----5---------|-3-----3---3----3----|


D#|---------------------|--------|--------|--------|--------|---------------------------|
A#|---------------------|--------|--------|--------|--------|---------------------------|
F#|---------------------|--------|--------|--------|--------|---------------------------|
C#|---------------------|--------|--------|--------|--------|---------------------------|
G#|-5---5-----5---------|--------|--------|--------|--------|---------------------------|
D#|-3---3-----3---------|--------|--------|--------|--------|-0----0---0---0---0---0----|


D#|---------------------------|---------------------------|---------------------------|
A#|---------------------------|---------------------------|---------------------------|
F#|---------------------------|---------------------------|---------------------------|
C#|-------------------14--14--|---------------------------|-------------------14--14--|
G#|-------------------14--14--|---------------------------|-------------------14--14--|
D#|-0---0----0---0----12--12--|-0----0---0---0---0---0----|-0---0----0---0----12--12--|


D#|---------------------------|---------------------------|---------------------------|
A#|---------------------------|---------------------------|---------------------------|
F#|---------------------------|---------------------------|---------------------------|
C#|---------------------------|-------------------14--14--|---------------------------|
G#|---------------------------|-------------------14--14--|---------------------------|
D#|-0----0---0---0---0---0----|-0---0----0---0----12--12--|-0----0---0---0---0---0----|


D#|---------------------------|-----0-----------0---------------|-0---------------------|
A#|---------------------------|---------0-----------0-----------|-------------8---------|
F#|---------------------------|-6-----------6-----------6---7---|-----7---9-------9-----|
C#|-------------------14--14--|---------------------------------|-----------------------|
G#|-------------------14--14--|---------------------------------|-----------------------|
D#|-0---0----0---0----12--12--|---------------------------------|-----------------------|


D#|-----0-----------0---------------|-0-----------0----------------|---------------------------|
A#|---------0-----------0-----------|-------------------------0----|---------------------------|
F#|-4-----------4-----------4---5---|-----5---7-------7---5--------|---------------------------|
C#|---------------------------------|------------------------------|---------------------------|
G#|---------------------------------|------------------------------|---------------------------|
D#|---------------------------------|------------------------------|-0----0---0---0---0---0----|


D#|---------------------------|---------------------------|---------------------------|
A#|---------------------------|---------------------------|---------------------------|
F#|---------------------------|---------------------------|---------------------------|
C#|-------------------14--14--|---------------------------|-------------------14--14--|
G#|-------------------14--14--|---------------------------|-------------------14--14--|
D#|-0---0----0---0----12--12--|-0----0---0---0---0---0----|-0---0----0---0----12--12--|


D#|--------|--------|--------|--------|--------|--------|--------|--------|--------|
A#|--------|--------|--------|--------|--------|--------|--------|--------|--------|
F#|--------|--------|--------|--------|--------|--------|--------|--------|--------|
C#|--------|--------|--------|--------|--------|--------|--------|--------|--------|
G#|--------|--------|--------|--------|--------|--------|--------|--------|--------|
D#|--------|--------|--------|--------|--------|--------|--------|--------|--------|


D#|--------|--------|--------|--------|--------|--------|--------|---------------------------|
A#|--------|--------|--------|--------|--------|--------|--------|---------------------------|
F#|--------|--------|--------|--------|--------|--------|--------|---------------------------|
C#|--------|--------|--------|--------|--------|--------|--------|---------------------------|
G#|--------|--------|--------|--------|--------|--------|--------|---------------------------|
D#|--------|--------|--------|--------|--------|--------|--------|-0----0---0---0---0---0----|


D#|---------------------------|---------------------------|---------------------------|
A#|---------------------------|---------------------------|---------------------------|
F#|---------------------------|---------------------------|---------------------------|
C#|-------------------14--14--|---------------------------|-------------------14--14--|
G#|-------------------14--14--|---------------------------|-------------------14--14--|
D#|-0---0----0---0----12--12--|-0----0---0---0---0---0----|-0---0----0---0----12--12--|


D#|---------------------------|---------------------------|---------------------------|
A#|---------------------------|---------------------------|---------------------------|
F#|---------------------------|---------------------------|---------------------------|
C#|---------------------------|-------------------14--14--|---------------------------|
G#|---------------------------|-------------------14--14--|---------------------------|
D#|-0----0---0---0---0---0----|-0---0----0---0----12--12--|-0----0---0---0---0---0----|


D#|---------------------------|---------------------------|---------------------------|
A#|---------------------------|---------------------------|---------------------------|
F#|---------------------------|---------------------------|---------------------------|
C#|-------------------14--14--|---------------------------|-------------------14--14--|
G#|-------------------14--14--|---------------------------|-------------------14--14--|
D#|-0---0----0---0----12--12--|-0----0---0---0---0---0----|-0---0----0---0----12--12--|


D#|---------------------------|---------------------------|---------------------------|
A#|---------------------------|---------------------------|---------------------------|
F#|---------------------------|---------------------------|---------------------------|
C#|---------------------------|-------------------14--14--|---------------------------|
G#|---------------------------|-------------------14--14--|---------------------------|
D#|-0----0---0---0---0---0----|-0---0----0---0----12--12--|-0----0---0---0---0---0----|


D#|---------------------------|---------------------------|---------------------------|
A#|---------------------------|---------------------------|---------------------------|
F#|---------------------------|---------------------------|---------------------------|
C#|-------------------14--14--|---------------------------|-------------------14--14--|
G#|-------------------14--14--|---------------------------|-------------------14--14--|
D#|-0---0----0---0----12--12--|-0----0---0---0---0---0----|-0---0----0---0----12--12--|


D#|-----0-----------0---------------|-0---------------------|-----0-----------0---------------|
A#|---------0-----------0-----------|-------------8---------|---------0-----------0-----------|
F#|-6-----------6-----------6---7---|-----7---9-------9-----|-4-----------4-----------4---5---|
C#|---------------------------------|-----------------------|---------------------------------|
G#|---------------------------------|-----------------------|---------------------------------|
D#|---------------------------------|-----------------------|---------------------------------|


D#|-0-----------0----------------|---------------------------|---------------------------|
A#|-------------------------0----|---------------------------|---------------------------|
F#|-----5---7-------7---5--------|---------------------------|---------------------------|
C#|------------------------------|---------------------------|-------------------14--14--|
G#|------------------------------|---------------------------|-------------------14--14--|
D#|------------------------------|-0----0---0---0---0---0----|-0---0----0---0----12--12--|


D#|---------------------------|---------------------------|--------|--------|--------|
A#|---------------------------|---------------------------|--------|--------|--------|
F#|---------------------------|---------------------------|--------|--------|--------|
C#|---------------------------|-------------------14--14--|--------|--------|--------|
G#|---------------------------|-------------------14--14--|--------|--------|--------|
D#|-0----0---0---0---0---0----|-0---0----0---0----12--12--|--------|--------|--------|


D#|--------|--------|--------|--------|--------|--------|--------|--------|--------|
A#|--------|--------|--------|--------|--------|--------|--------|--------|--------|
F#|--------|--------|--------|--------|--------|--------|--------|--------|--------|
C#|--------|--------|--------|--------|--------|--------|--------|--------|--------|
G#|--------|--------|--------|--------|--------|--------|--------|--------|--------|
D#|--------|--------|--------|--------|--------|--------|--------|--------|--------|


D#|--------|--------|--------|--------|---------------------------|---------------------------|
A#|--------|--------|--------|--------|---------------------------|---------------------------|
F#|--------|--------|--------|--------|---------------------------|---------------------------|
C#|--------|--------|--------|--------|---------------------------|-------------------14--14--|
G#|--------|--------|--------|--------|---------------------------|-------------------14--14--|
D#|--------|--------|--------|--------|-0----0---0---0---0---0----|-0---0----0---0----12--12--|


D#|---------------------------|---------------------------|---------------------------|
A#|---------------------------|---------------------------|---------------------------|
F#|---------------------------|---------------------------|---------------------------|
C#|---------------------------|-------------------14--14--|-9----9---7---7---7---4----|
G#|---------------------------|-------------------14--14--|-7----7---5---5---5---2----|
D#|-0----0---0---0---0---0----|-0---0----0---0----12--12--|---------------------------|


D#|---------------------------|---------------------------|---------------------------|
A#|---------------------------|---------------------------|---------------------------|
F#|---------------------------|---------------------------|---------------------------|
C#|---------------------------|-9----9---7---7---7---4----|---------------------------|
G#|-9---9---5----5----5---5---|-7----7---5---5---5---2----|-9---9---5----5----5---5---|
D#|-7---7---3----3----3---3---|---------------------------|-7---7---3----3----3---3---|


D#|---------------------------|---------------------------|---------------------------|
A#|---------------------------|---------------------------|---------------------------|
F#|---------------------------|---------------------------|---------------------------|
C#|-9----9---7---7---7---4----|---------------------------|-9----9---7---7---7---4----|
G#|-7----7---5---5---5---2----|-9---9---5----5----5---5---|-7----7---5---5---5---2----|
D#|---------------------------|-7---7---3----3----3---3---|---------------------------|


D#|------------------------|--------|--------|--------|--------|--------|---------------------------|
A#|------------------------|--------|--------|--------|--------|--------|---------------------------|
F#|------------------------|--------|--------|--------|--------|--------|---------------------------|
C#|------------------------|--------|--------|--------|--------|--------|---------------------------|
G#|-9---9---3----3---------|--------|--------|--------|--------|--------|---------------------------|
D#|-7---7---1----1---------|--------|--------|--------|--------|--------|-0----0---0---0---0---0----|


D#|---------------------------|---------------------------|---------------------------|
A#|---------------------------|---------------------------|---------------------------|
F#|---------------------------|---------------------------|---------------------------|
C#|-------------------14--14--|---------------------------|-------------------14--14--|
G#|-------------------14--14--|---------------------------|-------------------14--14--|
D#|-0---0----0---0----12--12--|-0----0---0---0---0---0----|-0---0----0---0----12--12--|


D#|---------------------------|---------------------------|---------------------------|
A#|---------------------------|---------------------------|---------------------------|
F#|---------------------------|---------------------------|---------------------------|
C#|---------------------------|-------------------14--14--|---------------------------|
G#|---------------------------|-------------------14--14--|---------------------------|
D#|-0----0---0---0---0---0----|-0---0----0---0----12--12--|-0----0---0---0---0---0----|


D#|---------------------------|-----0-----------0---------------|-0---------------------|
A#|---------------------------|---------0-----------0-----------|-------------8---------|
F#|---------------------------|-6-----------6-----------6---7---|-----7---9-------9-----|
C#|-------------------14--14--|---------------------------------|-----------------------|
G#|-------------------14--14--|---------------------------------|-----------------------|
D#|-0---0----0---0----12--12--|---------------------------------|-----------------------|


D#|-----0-----------0---------------|-0-----------0----------------|---------------------------|
A#|---------0-----------0-----------|-------------------------0----|---------------------------|
F#|-4-----------4-----------4---5---|-----5---7-------7---5--------|---------------------------|
C#|---------------------------------|------------------------------|---------------------------|
G#|---------------------------------|------------------------------|---------------------------|
D#|---------------------------------|------------------------------|-0----0---0---0---0---0----|


D#|---------------------------|---------------------------|---------------------------|
A#|---------------------------|---------------------------|---------------------------|
F#|---------------------------|---------------------------|---------------------------|
C#|-------------------14--14--|---------------------------|-------------------14--14--|
G#|-------------------14--14--|---------------------------|-------------------14--14--|
D#|-0---0----0---0----12--12--|-0----0---0---0---0---0----|-0---0----0---0----12--12--|


D#|--------|--------|--------|--------|--------|--------|--------|--------|--------|
A#|--------|--------|--------|--------|--------|--------|--------|--------|--------|
F#|--------|--------|--------|--------|--------|--------|--------|--------|--------|
C#|--------|--------|--------|--------|--------|--------|--------|--------|--------|
G#|--------|--------|--------|--------|--------|--------|--------|--------|--------|
D#|--------|--------|--------|--------|--------|--------|--------|--------|--------|


D#|--------|--------|--------|--------|--------|--------|--------|---------------------------|
A#|--------|--------|--------|--------|--------|--------|--------|---------------------------|
F#|--------|--------|--------|--------|--------|--------|--------|---------------------------|
C#|--------|--------|--------|--------|--------|--------|--------|---------------------------|
G#|--------|--------|--------|--------|--------|--------|--------|---------------------------|
D#|--------|--------|--------|--------|--------|--------|--------|-0----0---0---0---0---0----|


D#|---------------------------|---------------------------|---------------------------|
A#|---------------------------|---------------------------|---------------------------|
F#|---------------------------|---------------------------|---------------------------|
C#|-------------------14--14--|---------------------------|-------------------14--14--|
G#|-------------------14--14--|---------------------------|-------------------14--14--|
D#|-0---0----0---0----12--12--|-0----0---0---0---0---0----|-0---0----0---0----12--12--|


D#|---------------------------|---------------------------|---------------------------|
A#|---------------------------|---------------------------|---------------------------|
F#|---------------------------|---------------------------|---------------------------|
C#|---------------------------|-------------------14--14--|---------------------------|
G#|---------------------------|-------------------14--14--|---------------------------|
D#|-0----0---0---0---0---0----|-0---0----0---0----12--12--|-0----0---0---0---0---0----|


D#|---------------------------|---------------------------|---------------------------|
A#|---------------------------|---------------------------|---------------------------|
F#|---------------------------|---------------------------|---------------------------|
C#|-------------------14--14--|---------------------------|-------------------14--14--|
G#|-------------------14--14--|---------------------------|-------------------14--14--|
D#|-0---0----0---0----12--12--|-0----0---0---0---0---0----|-0---0----0---0----12--12--|


D#|---------------------------|---------------------------|---------------------------|
A#|---------------------------|---------------------------|---------------------------|
F#|---------------------------|---------------------------|---------------------------|
C#|---------------------------|-------------------14--14--|-9----9---7---7---7---4----|
G#|---------------------------|-------------------14--14--|-7----7---5---5---5---2----|
D#|-0----0---0---0---0---0----|-0---0----0---0----12--12--|---------------------------|


D#|---------------------------|---------------------------|---------------------------|
A#|---------------------------|---------------------------|---------------------------|
F#|---------------------------|---------------------------|---------------------------|
C#|---------------------------|-9----9---7---7---7---4----|---------------------------|
G#|-5---5---5----5----5---5---|-7----7---5---5---5---2----|-5---5---5----5----5---5---|
D#|-3---3---3----3----3---3---|---------------------------|-3---3---3----3----3---3---|


D#|---------------------------|---------------------------|---------------------------|
A#|---------------------------|---------------------------|---------------------------|
F#|---------------------------|---------------------------|---------------------------|
C#|-9----9---7---7---7---4----|---------------------------|-9----9---7---7---7---4----|
G#|-7----7---5---5---5---2----|-5---5---5----5----5---5---|-7----7---5---5---5---2----|
D#|---------------------------|-3---3---3----3----3---3---|---------------------------|


D#|---------------------------|---------------------------|---------------------------|
A#|---------------------------|---------------------------|---------------------------|
F#|---------------------------|---------------------------|---------------------------|
C#|---------------------------|-9----9---7---7---7---4----|---------------------------|
G#|-5---5---5----5----5---5---|-7----7---5---5---5---2----|-5---5---3----3----5---5---|
D#|-3---3---3----3----3---3---|---------------------------|-3---3---1----1----3---3---|


D#|---------------------------|---------------------------|---------------------------|
A#|---------------------------|---------------------------|---------------------------|
F#|---------------------------|---------------------------|---------------------------|
C#|-9----9---7---7---7---4----|---------------------------|-9----9---7---7---7---4----|
G#|-7----7---5---5---5---2----|-5---5---3----3----5---5---|-7----7---5---5---5---2----|
D#|---------------------------|-3---3---1----1----3---3---|---------------------------|


D#|---------------------------|---------------------------|---------------------------|
A#|---------------------------|---------------------------|---------------------------|
F#|---------------------------|---------------------------|---------------------------|
C#|---------------------------|-9----9---7---7---7---4----|---------------------------|
G#|-5---5---3----3----5---5---|-7----7---5---5---5---2----|-5---5---3----3----5---5---|
D#|-3---3---1----1----3---3---|---------------------------|-3---3---1----1----3---3---|


D#|---------------------------|---------------------------|---------------------------|
A#|---------------------------|---------------------------|---------------------------|
F#|---------------------------|---------------------------|---------------------------|
C#|-9----9---7---7---7---4----|---------------------------|-9----9---7---7---7---4----|
G#|-7----7---5---5---5---2----|-5---5---3----3----5---5---|-7----7---5---5---5---2----|
D#|---------------------------|-3---3---1----1----3---3---|---------------------------|


D#|---------------------------|---------------------------|---------------------------|
A#|---------------------------|---------------------------|---------------------------|
F#|---------------------------|---------------------------|---------------------------|
C#|---------------------------|-9----9---7---7---7---4----|---------------------------|
G#|-5---5---3----3----5---5---|-7----7---5---5---5---2----|-5---5---3----3----5---5---|
D#|-3---3---1----1----3---3---|---------------------------|-3---3---1----1----3---3---|


D#|---------------------------|---------------------------|--------|--------|--------|
A#|---------------------------|---------------------------|--------|--------|--------|
F#|---------------------------|---------------------------|--------|--------|--------|
C#|-9----9---7---7---7---4----|---------------------------|--------|--------|--------|
G#|-7----7---5---5---5---2----|-5---5---3----3----5---5---|--------|--------|--------|
D#|---------------------------|-3---3---1----1----3---3---|--------|--------|--------|


D#|--------|--------|--------|--------|--------|--------|
A#|--------|--------|--------|--------|--------|--------|
F#|--------|--------|--------|--------|--------|--------|
C#|--------|--------|--------|--------|--------|--------|
G#|--------|--------|--------|--------|--------|--------|
D#|--------|--------|--------|--------|--------|--------|





Track 2: Drum intro

E|--------|--------|---------------------|-----------------------------------|--------|
B|--------|--------|---------------------|-----------------------------------|--------|
G|--------|--------|---------------------|-----------------------------------|--------|
D|--------|--------|---------------------|-----------------------------------|--------|
A|--------|--------|-3-----3---3-----3---|-3----3----3---3---3---3---3---3---|--------|
E|--------|--------|---------------------|-----------------------------------|--------|


E|--------|--------|--------|--------|--------|--------|--------|--------|--------|
B|--------|--------|--------|--------|--------|--------|--------|--------|--------|
G|--------|--------|--------|--------|--------|--------|--------|--------|--------|
D|--------|--------|--------|--------|--------|--------|--------|--------|--------|
A|--------|--------|--------|--------|--------|--------|--------|--------|--------|
E|--------|--------|--------|--------|--------|--------|--------|--------|--------|


E|--------|--------|--------|--------|--------|--------|--------|--------|--------|
B|--------|--------|--------|--------|--------|--------|--------|--------|--------|
G|--------|--------|--------|--------|--------|--------|--------|--------|--------|
D|--------|--------|--------|--------|--------|--------|--------|--------|--------|
A|--------|--------|--------|--------|--------|--------|--------|--------|--------|
E|--------|--------|--------|--------|--------|--------|--------|--------|--------|


E|--------|--------|--------|--------|--------|--------|--------|--------|--------|
B|--------|--------|--------|--------|--------|--------|--------|--------|--------|
G|--------|--------|--------|--------|--------|--------|--------|--------|--------|
D|--------|--------|--------|--------|--------|--------|--------|--------|--------|
A|--------|--------|--------|--------|--------|--------|--------|--------|--------|
E|--------|--------|--------|--------|--------|--------|--------|--------|--------|


E|--------|--------|--------|--------|--------|--------|--------|--------|--------|
B|--------|--------|--------|--------|--------|--------|--------|--------|--------|
G|--------|--------|--------|--------|--------|--------|--------|--------|--------|
D|--------|--------|--------|--------|--------|--------|--------|--------|--------|
A|--------|--------|--------|--------|--------|--------|--------|--------|--------|
E|--------|--------|--------|--------|--------|--------|--------|--------|--------|


E|--------|--------|--------|--------|--------|--------|--------|--------|--------|
B|--------|--------|--------|--------|--------|--------|--------|--------|--------|
G|--------|--------|--------|--------|--------|--------|--------|--------|--------|
D|--------|--------|--------|--------|--------|--------|--------|--------|--------|
A|--------|--------|--------|--------|--------|--------|--------|--------|--------|
E|--------|--------|--------|--------|--------|--------|--------|--------|--------|


E|--------|--------|--------|--------|--------|--------|--------|--------|--------|
B|--------|--------|--------|--------|--------|--------|--------|--------|--------|
G|--------|--------|--------|--------|--------|--------|--------|--------|--------|
D|--------|--------|--------|--------|--------|--------|--------|--------|--------|
A|--------|--------|--------|--------|--------|--------|--------|--------|--------|
E|--------|--------|--------|--------|--------|--------|--------|--------|--------|


E|--------|--------|--------|--------|--------|--------|--------|--------|--------|
B|--------|--------|--------|--------|--------|--------|--------|--------|--------|
G|--------|--------|--------|--------|--------|--------|--------|--------|--------|
D|--------|--------|--------|--------|--------|--------|--------|--------|--------|
A|--------|--------|--------|--------|--------|--------|--------|--------|--------|
E|--------|--------|--------|--------|--------|--------|--------|--------|--------|


E|--------|--------|--------|--------|--------|--------|--------|--------|--------|
B|--------|--------|--------|--------|--------|--------|--------|--------|--------|
G|--------|--------|--------|--------|--------|--------|--------|--------|--------|
D|--------|--------|--------|--------|--------|--------|--------|--------|--------|
A|--------|--------|--------|--------|--------|--------|--------|--------|--------|
E|--------|--------|--------|--------|--------|--------|--------|--------|--------|


E|--------|--------|--------|--------|--------|--------|--------|--------|--------|
B|--------|--------|--------|--------|--------|--------|--------|--------|--------|
G|--------|--------|--------|--------|--------|--------|--------|--------|--------|
D|--------|--------|--------|--------|--------|--------|--------|--------|--------|
A|--------|--------|--------|--------|--------|--------|--------|--------|--------|
E|--------|--------|--------|--------|--------|--------|--------|--------|--------|


E|--------|--------|--------|--------|--------|--------|--------|--------|--------|
B|--------|--------|--------|--------|--------|--------|--------|--------|--------|
G|--------|--------|--------|--------|--------|--------|--------|--------|--------|
D|--------|--------|--------|--------|--------|--------|--------|--------|--------|
A|--------|--------|--------|--------|--------|--------|--------|--------|--------|
E|--------|--------|--------|--------|--------|--------|--------|--------|--------|


E|--------|--------|--------|--------|--------|--------|--------|--------|--------|
B|--------|--------|--------|--------|--------|--------|--------|--------|--------|
G|--------|--------|--------|--------|--------|--------|--------|--------|--------|
D|--------|--------|--------|--------|--------|--------|--------|--------|--------|
A|--------|--------|--------|--------|--------|--------|--------|--------|--------|
E|--------|--------|--------|--------|--------|--------|--------|--------|--------|


E|--------|--------|--------|--------|--------|--------|--------|--------|--------|
B|--------|--------|--------|--------|--------|--------|--------|--------|--------|
G|--------|--------|--------|--------|--------|--------|--------|--------|--------|
D|--------|--------|--------|--------|--------|--------|--------|--------|--------|
A|--------|--------|--------|--------|--------|--------|--------|--------|--------|
E|--------|--------|--------|--------|--------|--------|--------|--------|--------|


E|--------|--------|--------|--------|--------|--------|--------|--------|--------|
B|--------|--------|--------|--------|--------|--------|--------|--------|--------|
G|--------|--------|--------|--------|--------|--------|--------|--------|--------|
D|--------|--------|--------|--------|--------|--------|--------|--------|--------|
A|--------|--------|--------|--------|--------|--------|--------|--------|--------|
E|--------|--------|--------|--------|--------|--------|--------|--------|--------|


E|--------|--------|--------|--------|--------|--------|--------|--------|--------|
B|--------|--------|--------|--------|--------|--------|--------|--------|--------|
G|--------|--------|--------|--------|--------|--------|--------|--------|--------|
D|--------|--------|--------|--------|--------|--------|--------|--------|--------|
A|--------|--------|--------|--------|--------|--------|--------|--------|--------|
E|--------|--------|--------|--------|--------|--------|--------|--------|--------|


E|--------|--------|--------|--------|--------|--------|--------|--------|--------|
B|--------|--------|--------|--------|--------|--------|--------|--------|--------|
G|--------|--------|--------|--------|--------|--------|--------|--------|--------|
D|--------|--------|--------|--------|--------|--------|--------|--------|--------|
A|--------|--------|--------|--------|--------|--------|--------|--------|--------|
E|--------|--------|--------|--------|--------|--------|--------|--------|--------|


E|--------|--------|--------|--------|--------|--------|--------|--------|--------|
B|--------|--------|--------|--------|--------|--------|--------|--------|--------|
G|--------|--------|--------|--------|--------|--------|--------|--------|--------|
D|--------|--------|--------|--------|--------|--------|--------|--------|--------|
A|--------|--------|--------|--------|--------|--------|--------|--------|--------|
E|--------|--------|--------|--------|--------|--------|--------|--------|--------|


E|--------|--------|--------|--------|--------|--------|--------|--------|--------|
B|--------|--------|--------|--------|--------|--------|--------|--------|--------|
G|--------|--------|--------|--------|--------|--------|--------|--------|--------|
D|--------|--------|--------|--------|--------|--------|--------|--------|--------|
A|--------|--------|--------|--------|--------|--------|--------|--------|--------|
E|--------|--------|--------|--------|--------|--------|--------|--------|--------|


E|--------|--------|--------|--------|--------|--------|--------|--------|--------|
B|--------|--------|--------|--------|--------|--------|--------|--------|--------|
G|--------|--------|--------|--------|--------|--------|--------|--------|--------|
D|--------|--------|--------|--------|--------|--------|--------|--------|--------|
A|--------|--------|--------|--------|--------|--------|--------|--------|--------|
E|--------|--------|--------|--------|--------|--------|--------|--------|--------|


E|--------|--------|--------|--------|--------|--------|--------|--------|--------|
B|--------|--------|--------|--------|--------|--------|--------|--------|--------|
G|--------|--------|--------|--------|--------|--------|--------|--------|--------|
D|--------|--------|--------|--------|--------|--------|--------|--------|--------|
A|--------|--------|--------|--------|--------|--------|--------|--------|--------|
E|--------|--------|--------|--------|--------|--------|--------|--------|--------|


E|--------|--------|--------|--------|--------|--------|--------|--------|--------|
B|--------|--------|--------|--------|--------|--------|--------|--------|--------|
G|--------|--------|--------|--------|--------|--------|--------|--------|--------|
D|--------|--------|--------|--------|--------|--------|--------|--------|--------|
A|--------|--------|--------|--------|--------|--------|--------|--------|--------|
E|--------|--------|--------|--------|--------|--------|--------|--------|--------|


E|--------|--------|--------|--------|--------|--------|--------|--------|--------|
B|--------|--------|--------|--------|--------|--------|--------|--------|--------|
G|--------|--------|--------|--------|--------|--------|--------|--------|--------|
D|--------|--------|--------|--------|--------|--------|--------|--------|--------|
A|--------|--------|--------|--------|--------|--------|--------|--------|--------|
E|--------|--------|--------|--------|--------|--------|--------|--------|--------|


E|--------|--------|--------|--------|
B|--------|--------|--------|--------|
G|--------|--------|--------|--------|
D|--------|--------|--------|--------|
A|--------|--------|--------|--------|
E|--------|--------|--------|--------|





Track 3: Bono

D#|--------|--------|--------|--------|--------|--------|--------|--------|--------|
A#|--------|--------|--------|--------|--------|--------|--------|--------|--------|
F#|--------|--------|--------|--------|--------|--------|--------|--------|--------|
C#|--------|--------|--------|--------|--------|--------|--------|--------|--------|
G#|--------|--------|--------|--------|--------|--------|--------|--------|--------|
D#|--------|--------|--------|--------|--------|--------|--------|--------|--------|


D#|--------|--------|--------|---------------------------|---------------------------------|
A#|--------|--------|--------|---------------------------|---------------------------------|
F#|--------|--------|--------|---------------------------|---------------------------------|
C#|--------|--------|--------|---------------------------|---------------------------------|
G#|--------|--------|--------|-7----7---7---5---7----7---|-6---7---7---7---7---5---5---5---|
D#|--------|--------|--------|-0----0---0---0---0----0---|-0---0---0---0---0---0---0---0---|


D#|---------------------------|---------------------------------|---------------------------|
A#|---------------------------|---------------------------------|---------------------------|
F#|---------------------------|---------------------------------|---------------------------|
C#|---------------------------|---------------------------------|---------------------------|
G#|-7----7---7---5---7----7---|-6---7---7---7---7---5---5---5---|-7----7---7---5---7----7---|
D#|-0----0---0---0---0----0---|-0---0---0---0---0---0---0---0---|-0----0---0---0---0----0---|


D#|---------------------------------|---------------------------|---------------------------------|
A#|---------------------------------|---------------------------|---------------------------------|
F#|---------------------------------|---------------------------|---------------------------------|
C#|---------------------------------|---------------------------|---------------------------------|
G#|-6---7---7---7---7---5---5---5---|-7----7---7---5---7----7---|-6---7---7---7---7---5---5---5---|
D#|-0---0---0---0---0---0---0---0---|-0----0---0---0---0----0---|-0---0---0---0---0---0---0---0---|


D#|---------------------------|---------------------------------|---------------------------|
A#|---------------------------|---------------------------------|---------------------------|
F#|---------------------------|---------------------------------|---------------------------|
C#|---------------------------|---------------------------------|---------------------------|
G#|-7----7---7---5---7----7---|-6---7---7---7---7---5---5---5---|-7----7---7---5---7----7---|
D#|-0----0---0---0---0----0---|-0---0---0---0---0---0---0---0---|-0----0---0---0---0----0---|


D#|---------------------------------|--------|--------|--------|--------|---------------------------|
A#|---------------------------------|--------|--------|--------|--------|---------------------------|
F#|---------------------------------|--------|--------|--------|--------|---------------------------|
C#|---------------------------------|--------|--------|--------|--------|---------------------------|
G#|-6---7---7---7---7---5---5---5---|--------|--------|--------|--------|-7----7---7---5---7----7---|
D#|-0---0---0---0---0---0---0---0---|--------|--------|--------|--------|-0----0---0---0---0----0---|


D#|---------------------------------|---------------------------|---------------------------------|
A#|---------------------------------|---------------------------|---------------------------------|
F#|---------------------------------|---------------------------|---------------------------------|
C#|---------------------------------|---------------------------|---------------------------------|
G#|-6---7---7---7---7---5---5---5---|-7----7---7---5---7----7---|-6---7---7---7---7---5---5---5---|
D#|-0---0---0---0---0---0---0---0---|-0----0---0---0---0----0---|-0---0---0---0---0---0---0---0---|


D#|---------------------------|---------------------------------|---------------------------|
A#|---------------------------|---------------------------------|---------------------------|
F#|---------------------------|---------------------------------|---------------------------|
C#|---------------------------|---------------------------------|---------------------------|
G#|-7----7---7---5---7----7---|-6---7---7---7---7---5---5---5---|-7----7---7---5---7----7---|
D#|-0----0---0---0---0----0---|-0---0---0---0---0---0---0---0---|-0----0---0---0---0----0---|


D#|---------------------------------|---------------------------|---------------------------------|
A#|---------------------------------|---------------------------|---------------------------------|
F#|---------------------------------|---------------------------|---------------------------------|
C#|---------------------------------|---------------------------|---------------------------------|
G#|-6---7---7---7---7---5---5---5---|-7----7---7---5---7----7---|-6---7---7---7---7---5---5---5---|
D#|-0---0---0---0---0---0---0---0---|-0----0---0---0---0----0---|-0---0---0---0---0---0---0---0---|


D#|---------------------------|---------------------------------|--------|--------|
A#|---------------------------|---------------------------------|--------|--------|
F#|---------------------------|---------------------------------|--------|--------|
C#|---------------------------|---------------------------------|--------|--------|
G#|-7----7---7---5---7----7---|-6---7---7---7---7---5---5---5---|--------|--------|
D#|-0----0---0---0---0----0---|-0---0---0---0---0---0---0---0---|--------|--------|


D#|--------|--------|---------------------------|---------------------------------|
A#|--------|--------|---------------------------|---------------------------------|
F#|--------|--------|---------------------------|---------------------------------|
C#|--------|--------|---------------------------|---------------------------------|
G#|--------|--------|-7----7---7---5---7----7---|-6---7---7---7---7---5---5---5---|
D#|--------|--------|-0----0---0---0---0----0---|-0---0---0---0---0---0---0---0---|


D#|---------------------------|---------------------------------|--------|--------|
A#|---------------------------|---------------------------------|--------|--------|
F#|---------------------------|---------------------------------|--------|--------|
C#|---------------------------|---------------------------------|--------|--------|
G#|-7----7---7---5---7----7---|-6---7---7---7---7---5---5---5---|--------|--------|
D#|-0----0---0---0---0----0---|-0---0---0---0---0---0---0---0---|--------|--------|


D#|--------|--------|--------|--------|--------|--------|--------|--------|--------|
A#|--------|--------|--------|--------|--------|--------|--------|--------|--------|
F#|--------|--------|--------|--------|--------|--------|--------|--------|--------|
C#|--------|--------|--------|--------|--------|--------|--------|--------|--------|
G#|--------|--------|--------|--------|--------|--------|--------|--------|--------|
D#|--------|--------|--------|--------|--------|--------|--------|--------|--------|


D#|--------|--------|--------|--------|--------|---------------------------|---------------------------------|
A#|--------|--------|--------|--------|--------|---------------------------|---------------------------------|
F#|--------|--------|--------|--------|--------|---------------------------|---------------------------------|
C#|--------|--------|--------|--------|--------|---------------------------|---------------------------------|
G#|--------|--------|--------|--------|--------|-7----7---7---5---7----7---|-6---7---7---7---7---5---5---5---|
D#|--------|--------|--------|--------|--------|-0----0---0---0---0----0---|-0---0---0---0---0---0---0---0---|


D#|---------------------------|---------------------------------|---------------------------|
A#|---------------------------|---------------------------------|---------------------------|
F#|---------------------------|---------------------------------|---------------------------|
C#|---------------------------|---------------------------------|---------------------------|
G#|-7----7---7---5---7----7---|-6---7---7---7---7---5---5---5---|-7----7---7---5---7----7---|
D#|-0----0---0---0---0----0---|-0---0---0---0---0---0---0---0---|-0----0---0---0---0----0---|


D#|---------------------------------|---------------------------|---------------------------------|
A#|---------------------------------|---------------------------|---------------------------------|
F#|---------------------------------|---------------------------|---------------------------------|
C#|---------------------------------|---------------------------|---------------------------------|
G#|-6---7---7---7---7---5---5---5---|-7----7---7---5---7----7---|-6---7---7---7---7---5---5---5---|
D#|-0---0---0---0---0---0---0---0---|-0----0---0---0---0----0---|-0---0---0---0---0---0---0---0---|


D#|---------------------------|---------------------------------|---------------------------|
A#|---------------------------|---------------------------------|---------------------------|
F#|---------------------------|---------------------------------|---------------------------|
C#|---------------------------|---------------------------------|---------------------------|
G#|-7----7---7---5---7----7---|-6---7---7---7---7---5---5---5---|-7----7---7---5---7----7---|
D#|-0----0---0---0---0----0---|-0---0---0---0---0---0---0---0---|-0----0---0---0---0----0---|


D#|---------------------------------|---------------------------|---------------------------------|
A#|---------------------------------|---------------------------|---------------------------------|
F#|---------------------------------|---------------------------|---------------------------------|
C#|---------------------------------|---------------------------|---------------------------------|
G#|-6---7---7---7---7---5---5---5---|-7----7---7---5---7----7---|-6---7---7---7---7---5---5---5---|
D#|-0---0---0---0---0---0---0---0---|-0----0---0---0---0----0---|-0---0---0---0---0---0---0---0---|


D#|---------------------------|---------------------------------|--------|--------|
A#|---------------------------|---------------------------------|--------|--------|
F#|---------------------------|---------------------------------|--------|--------|
C#|---------------------------|---------------------------------|--------|--------|
G#|-7----7---7---5---7----7---|-6---7---7---7---7---5---5---5---|--------|--------|
D#|-0----0---0---0---0----0---|-0---0---0---0---0---0---0---0---|--------|--------|


D#|--------|--------|---------------------------|---------------------------------|
A#|--------|--------|---------------------------|---------------------------------|
F#|--------|--------|---------------------------|---------------------------------|
C#|--------|--------|---------------------------|---------------------------------|
G#|--------|--------|-7----7---7---5---7----7---|-6---7---7---7---7---5---5---5---|
D#|--------|--------|-0----0---0---0---0----0---|-0---0---0---0---0---0---0---0---|


D#|---------------------------|---------------------------------|--------|--------|
A#|---------------------------|---------------------------------|--------|--------|
F#|---------------------------|---------------------------------|--------|--------|
C#|---------------------------|---------------------------------|--------|--------|
G#|-7----7---7---5---7----7---|-6---7---7---7---7---5---5---5---|--------|--------|
D#|-0----0---0---0---0----0---|-0---0---0---0---0---0---0---0---|--------|--------|


D#|--------|--------|--------|--------|--------|--------|--------|--------|--------|
A#|--------|--------|--------|--------|--------|--------|--------|--------|--------|
F#|--------|--------|--------|--------|--------|--------|--------|--------|--------|
C#|--------|--------|--------|--------|--------|--------|--------|--------|--------|
G#|--------|--------|--------|--------|--------|--------|--------|--------|--------|
D#|--------|--------|--------|--------|--------|--------|--------|--------|--------|


D#|--------|--------|--------|--------|--------|---------------------------|---------------------------------|
A#|--------|--------|--------|--------|--------|---------------------------|---------------------------------|
F#|--------|--------|--------|--------|--------|---------------------------|---------------------------------|
C#|--------|--------|--------|--------|--------|---------------------------|---------------------------------|
G#|--------|--------|--------|--------|--------|-7----7---7---5---7----7---|-6---7---7---7---7---5---5---5---|
D#|--------|--------|--------|--------|--------|-0----0---0---0---0----0---|-0---0---0---0---0---0---0---0---|


D#|---------------------------|---------------------------------|--------|--------|
A#|---------------------------|---------------------------------|--------|--------|
F#|---------------------------|---------------------------------|--------|--------|
C#|---------------------------|---------------------------------|--------|--------|
G#|-7----7---7---5---7----7---|-6---7---7---7---7---5---5---5---|--------|--------|
D#|-0----0---0---0---0----0---|-0---0---0---0---0---0---0---0---|--------|--------|


D#|--------|--------|--------|--------|--------|--------|---------------------------|
A#|--------|--------|--------|--------|--------|--------|---------------------------|
F#|--------|--------|--------|--------|--------|--------|---------------------------|
C#|--------|--------|--------|--------|--------|--------|---------------------------|
G#|--------|--------|--------|--------|--------|--------|-7----7---7---5---7----7---|
D#|--------|--------|--------|--------|--------|--------|-0----0---0---0---0----0---|


D#|---------------------------------|---------------------------|---------------------------------|
A#|---------------------------------|---------------------------|---------------------------------|
F#|---------------------------------|---------------------------|---------------------------------|
C#|---------------------------------|---------------------------|---------------------------------|
G#|-6---7---7---7---7---5---5---5---|-7----7---7---5---7----7---|-6---7---7---7---7---5---5---5---|
D#|-0---0---0---0---0---0---0---0---|-0----0---0---0---0----0---|-0---0---0---0---0---0---0---0---|


D#|---------------------------------|---------------------------|---------------------------------|
A#|---------------------------------|---------------------------|---------------------------------|
F#|---------------------------------|---------------------------|---------------------------------|
C#|---------------------------------|---------------------------|---------------------------------|
G#|-6---7---7---7---7---5---5---5---|-7----7---7---5---7----7---|-6---7---7---7---7---5---5---5---|
D#|-0---0---0---0---0---0---0---0---|-0----0---0---0---0----0---|-0---0---0---0---0---0---0---0---|


D#|---------------------------|---------------------------------|---------------------------|
A#|---------------------------|---------------------------------|---------------------------|
F#|---------------------------|---------------------------------|---------------------------|
C#|---------------------------|---------------------------------|---------------------------|
G#|-7----7---7---5---7----7---|-6---7---7---7---7---5---5---5---|-7----7---7---5---7----7---|
D#|-0----0---0---0---0----0---|-0---0---0---0---0---0---0---0---|-0----0---0---0---0----0---|


D#|---------------------------------|---------------------------|---------------------------------|
A#|---------------------------------|---------------------------|---------------------------------|
F#|---------------------------------|---------------------------|---------------------------------|
C#|---------------------------------|---------------------------|---------------------------------|
G#|-6---7---7---7---7---5---5---5---|-7----7---7---5---7----7---|-6---7---7---7---7---5---5---5---|
D#|-0---0---0---0---0---0---0---0---|-0----0---0---0---0----0---|-0---0---0---0---0---0---0---0---|


D#|--------|--------|--------|--------|---------------------------|---------------------------------|
A#|--------|--------|--------|--------|---------------------------|---------------------------------|
F#|--------|--------|--------|--------|---------------------------|---------------------------------|
C#|--------|--------|--------|--------|---------------------------|---------------------------------|
G#|--------|--------|--------|--------|-7----7---7---5---7----7---|-6---7---7---7---7---5---5---5---|
D#|--------|--------|--------|--------|-0----0---0---0---0----0---|-0---0---0---0---0---0---0---0---|


D#|---------------------------|---------------------------------|--------|--------|
A#|---------------------------|---------------------------------|--------|--------|
F#|---------------------------|---------------------------------|--------|--------|
C#|---------------------------|---------------------------------|--------|--------|
G#|-7----7---7---5---7----7---|-6---7---7---7---7---5---5---5---|--------|--------|
D#|-0----0---0---0---0----0---|-0---0---0---0---0---0---0---0---|--------|--------|


D#|--------|--------|--------|--------|--------|--------|--------|--------|--------|
A#|--------|--------|--------|--------|--------|--------|--------|--------|--------|
F#|--------|--------|--------|--------|--------|--------|--------|--------|--------|
C#|--------|--------|--------|--------|--------|--------|--------|--------|--------|
G#|--------|--------|--------|--------|--------|--------|--------|--------|--------|
D#|--------|--------|--------|--------|--------|--------|--------|--------|--------|


D#|--------|--------|--------|--------|--------|---------------------------|---------------------------------|
A#|--------|--------|--------|--------|--------|---------------------------|---------------------------------|
F#|--------|--------|--------|--------|--------|---------------------------|---------------------------------|
C#|--------|--------|--------|--------|--------|---------------------------|---------------------------------|
G#|--------|--------|--------|--------|--------|-7----7---7---5---7----7---|-6---7---7---7---7---5---5---5---|
D#|--------|--------|--------|--------|--------|-0----0---0---0---0----0---|-0---0---0---0---0---0---0---0---|


D#|---------------------------|---------------------------------|---------------------------|
A#|---------------------------|---------------------------------|---------------------------|
F#|---------------------------|---------------------------------|---------------------------|
C#|---------------------------|---------------------------------|---------------------------|
G#|-7----7---7---5---7----7---|-6---7---7---7---7---5---5---5---|-7----7---7---5---7----7---|
D#|-0----0---0---0---0----0---|-0---0---0---0---0---0---0---0---|-0----0---0---0---0----0---|


D#|---------------------------------|---------------------------|---------------------------------|
A#|---------------------------------|---------------------------|---------------------------------|
F#|---------------------------------|---------------------------|---------------------------------|
C#|---------------------------------|---------------------------|---------------------------------|
G#|-6---7---7---7---7---5---5---5---|-7----7---7---5---7----7---|-6---7---7---7---7---5---5---5---|
D#|-0---0---0---0---0---0---0---0---|-0----0---0---0---0----0---|-0---0---0---0---0---0---0---0---|


D#|---------------------------|---------------------------------|---------------------------|
A#|---------------------------|---------------------------------|---------------------------|
F#|---------------------------|---------------------------------|---------------------------|
C#|---------------------------|---------------------------------|---------------------------|
G#|-7----7---7---5---7----7---|-6---7---7---7---7---5---5---5---|-7----7---7---5---7----7---|
D#|-0----0---0---0---0----0---|-0---0---0---0---0---0---0---0---|-0----0---0---0---0----0---|


D#|---------------------------------|--------|--------|--------|--------|--------|
A#|---------------------------------|--------|--------|--------|--------|--------|
F#|---------------------------------|--------|--------|--------|--------|--------|
C#|---------------------------------|--------|--------|--------|--------|--------|
G#|-6---7---7---7---7---5---5---5---|--------|--------|--------|--------|--------|
D#|-0---0---0---0---0---0---0---0---|--------|--------|--------|--------|--------|


D#|--------|--------|--------|--------|--------|--------|--------|--------|--------|
A#|--------|--------|--------|--------|--------|--------|--------|--------|--------|
F#|--------|--------|--------|--------|--------|--------|--------|--------|--------|
C#|--------|--------|--------|--------|--------|--------|--------|--------|--------|
G#|--------|--------|--------|--------|--------|--------|--------|--------|--------|
D#|--------|--------|--------|--------|--------|--------|--------|--------|--------|


D#|--------|--------|--------|--------|--------|--------|--------|--------|--------|
A#|--------|--------|--------|--------|--------|--------|--------|--------|--------|
F#|--------|--------|--------|--------|--------|--------|--------|--------|--------|
C#|--------|--------|--------|--------|--------|--------|--------|--------|--------|
G#|--------|--------|--------|--------|--------|--------|--------|--------|--------|
D#|--------|--------|--------|--------|--------|--------|--------|--------|--------|


D#|--------|--------|--------|--------|--------|--------|--------|--------|--------|
A#|--------|--------|--------|--------|--------|--------|--------|--------|--------|
F#|--------|--------|--------|--------|--------|--------|--------|--------|--------|
C#|--------|--------|--------|--------|--------|--------|--------|--------|--------|
G#|--------|--------|--------|--------|--------|--------|--------|--------|--------|
D#|--------|--------|--------|--------|--------|--------|--------|--------|--------|


D#|--------|
A#|--------|
F#|--------|
C#|--------|
G#|--------|
D#|--------|





Track 4: Edge Chorus

D#|--------|--------|--------|--------|--------|--------|--------|--------|--------|
A#|--------|--------|--------|--------|--------|--------|--------|--------|--------|
F#|--------|--------|--------|--------|--------|--------|--------|--------|--------|
C#|--------|--------|--------|--------|--------|--------|--------|--------|--------|
G#|--------|--------|--------|--------|--------|--------|--------|--------|--------|
D#|--------|--------|--------|--------|--------|--------|--------|--------|--------|


D#|--------|--------|--------|--------|--------|--------|--------|--------|--------|
A#|--------|--------|--------|--------|--------|--------|--------|--------|--------|
F#|--------|--------|--------|--------|--------|--------|--------|--------|--------|
C#|--------|--------|--------|--------|--------|--------|--------|--------|--------|
G#|--------|--------|--------|--------|--------|--------|--------|--------|--------|
D#|--------|--------|--------|--------|--------|--------|--------|--------|--------|


D#|--------|--------|--------|--------|--------|--------|--------|--------|--------|
A#|--------|--------|--------|--------|--------|--------|--------|--------|--------|
F#|--------|--------|--------|--------|--------|--------|--------|--------|--------|
C#|--------|--------|--------|--------|--------|--------|--------|--------|--------|
G#|--------|--------|--------|--------|--------|--------|--------|--------|--------|
D#|--------|--------|--------|--------|--------|--------|--------|--------|--------|


D#|--------|--------|--------|--------|--------|--------|--------|--------|--------|
A#|--------|--------|--------|--------|--------|--------|--------|--------|--------|
F#|--------|--------|--------|--------|--------|--------|--------|--------|--------|
C#|--------|--------|--------|--------|--------|--------|--------|--------|--------|
G#|--------|--------|--------|--------|--------|--------|--------|--------|--------|
D#|--------|--------|--------|--------|--------|--------|--------|--------|--------|


D#|--------|--------|--------|--------|--------|--------|--------|--------|--------|
A#|--------|--------|--------|--------|--------|--------|--------|--------|--------|
F#|--------|--------|--------|--------|--------|--------|--------|--------|--------|
C#|--------|--------|--------|--------|--------|--------|--------|--------|--------|
G#|--------|--------|--------|--------|--------|--------|--------|--------|--------|
D#|--------|--------|--------|--------|--------|--------|--------|--------|--------|


D#|--------|--------|--------|---------------------|--------------------|---------------------|
A#|--------|--------|--------|---------------------|--------------------|---------------------|
F#|--------|--------|--------|-9----8----6----8----|-8----8---9---9-----|-5----7----5----5----|
C#|--------|--------|--------|---------------------|--------------------|---------------------|
G#|--------|--------|--------|---------------------|--------------------|---------------------|
D#|--------|--------|--------|---------------------|--------------------|---------------------|


D#|-----------------------|------------------------|--------------------|---------------------|
A#|-----------------------|------------------------|--------------------|---------------------|
F#|-5---7---5---4---4-----|-9----8----6----6---8---|-8----8---9---9-----|-5----7----5----5----|
C#|-----------------------|------------------------|--------------------|---------------------|
G#|-----------------------|------------------------|--------------------|---------------------|
D#|-----------------------|------------------------|--------------------|---------------------|


D#|--------------------|---------------------|-------------|---------------------|
A#|--------------------|---------------------|-------------|---------------------|
F#|-5----4---5---4-----|-9----8----6----8----|-8----9------|-5----7----5----5----|
C#|--------------------|---------------------|-------------|---------------------|
G#|--------------------|---------------------|-------------|---------------------|
D#|--------------------|---------------------|-------------|---------------------|


D#|-------------|---------------------|-------------|---------------------|-------------|
A#|-------------|---------------------|-------------|---------------------|-------------|
F#|-5----4------|-9----8----6----8----|-8----9------|-5----7----5----5----|-5----4------|
C#|-------------|---------------------|-------------|---------------------|-------------|
G#|-------------|---------------------|-------------|---------------------|-------------|
D#|-------------|---------------------|-------------|---------------------|-------------|


D#|--------|--------|--------|--------|--------|--------|--------|--------|--------|
A#|--------|--------|--------|--------|--------|--------|--------|--------|--------|
F#|--------|--------|--------|--------|--------|--------|--------|--------|--------|
C#|--------|--------|--------|--------|--------|--------|--------|--------|--------|
G#|--------|--------|--------|--------|--------|--------|--------|--------|--------|
D#|--------|--------|--------|--------|--------|--------|--------|--------|--------|


D#|--------|--------|--------|--------|--------|--------|--------|--------|--------|
A#|--------|--------|--------|--------|--------|--------|--------|--------|--------|
F#|--------|--------|--------|--------|--------|--------|--------|--------|--------|
C#|--------|--------|--------|--------|--------|--------|--------|--------|--------|
G#|--------|--------|--------|--------|--------|--------|--------|--------|--------|
D#|--------|--------|--------|--------|--------|--------|--------|--------|--------|


D#|--------|--------|--------|--------|--------|--------|---------------------|--------------------|
A#|--------|--------|--------|--------|--------|--------|---------------------|--------------------|
F#|--------|--------|--------|--------|--------|--------|-9----8----6----8----|-8----8---9---9-----|
C#|--------|--------|--------|--------|--------|--------|---------------------|--------------------|
G#|--------|--------|--------|--------|--------|--------|---------------------|--------------------|
D#|--------|--------|--------|--------|--------|--------|---------------------|--------------------|


D#|---------------------|-----------------------|------------------------|--------------------|
A#|---------------------|-----------------------|------------------------|--------------------|
F#|-5----7----5----5----|-5---7---5---4---4-----|-9----8----6----6---8---|-8----8---9---9-----|
C#|---------------------|-----------------------|------------------------|--------------------|
G#|---------------------|-----------------------|------------------------|--------------------|
D#|---------------------|-----------------------|------------------------|--------------------|


D#|---------------------|--------------------|---------------------|-------------|
A#|---------------------|--------------------|---------------------|-------------|
F#|-5----7----5----5----|-5----4---5---4-----|-9----8----6----8----|-8----9------|
C#|---------------------|--------------------|---------------------|-------------|
G#|---------------------|--------------------|---------------------|-------------|
D#|---------------------|--------------------|---------------------|-------------|


D#|---------------------|-------------|---------------------|-------------|---------------------|
A#|---------------------|-------------|---------------------|-------------|---------------------|
F#|-5----7----5----5----|-5----4------|-9----8----6----8----|-8----9------|-5----7----5----5----|
C#|---------------------|-------------|---------------------|-------------|---------------------|
G#|---------------------|-------------|---------------------|-------------|---------------------|
D#|---------------------|-------------|---------------------|-------------|---------------------|


D#|-------------|--------|--------|--------|--------|--------|--------|--------|--------|
A#|-------------|--------|--------|--------|--------|--------|--------|--------|--------|
F#|-5----4------|--------|--------|--------|--------|--------|--------|--------|--------|
C#|-------------|--------|--------|--------|--------|--------|--------|--------|--------|
G#|-------------|--------|--------|--------|--------|--------|--------|--------|--------|
D#|-------------|--------|--------|--------|--------|--------|--------|--------|--------|


D#|--------|--------|--------|--------|--------|--------|--------|--------|--------|
A#|--------|--------|--------|--------|--------|--------|--------|--------|--------|
F#|--------|--------|--------|--------|--------|--------|--------|--------|--------|
C#|--------|--------|--------|--------|--------|--------|--------|--------|--------|
G#|--------|--------|--------|--------|--------|--------|--------|--------|--------|
D#|--------|--------|--------|--------|--------|--------|--------|--------|--------|


D#|--------|--------|--------|--------|--------|--------|--------|--------|--------|
A#|--------|--------|--------|--------|--------|--------|--------|--------|--------|
F#|--------|--------|--------|--------|--------|--------|--------|--------|--------|
C#|--------|--------|--------|--------|--------|--------|--------|--------|--------|
G#|--------|--------|--------|--------|--------|--------|--------|--------|--------|
D#|--------|--------|--------|--------|--------|--------|--------|--------|--------|


D#|--------|--------|--------|--------|--------|--------|--------|---------------------|
A#|--------|--------|--------|--------|--------|--------|--------|---------------------|
F#|--------|--------|--------|--------|--------|--------|--------|-9----8----6----8----|
C#|--------|--------|--------|--------|--------|--------|--------|---------------------|
G#|--------|--------|--------|--------|--------|--------|--------|---------------------|
D#|--------|--------|--------|--------|--------|--------|--------|---------------------|


D#|--------------------|---------------------|-----------------------|------------------------|
A#|--------------------|---------------------|-----------------------|------------------------|
F#|-8----8---9---9-----|-5----7----5----5----|-5---7---5---4---4-----|-9----8----6----6---8---|
C#|--------------------|---------------------|-----------------------|------------------------|
G#|--------------------|---------------------|-----------------------|------------------------|
D#|--------------------|---------------------|-----------------------|------------------------|


D#|--------------------|---------------------|--------------------|---------------------|
A#|--------------------|---------------------|--------------------|---------------------|
F#|-8----8---9---9-----|-5----7----5----5----|-5----4---5---4-----|-9----8----6----8----|
C#|--------------------|---------------------|--------------------|---------------------|
G#|--------------------|---------------------|--------------------|---------------------|
D#|--------------------|---------------------|--------------------|---------------------|


D#|-------------|---------------------|-------------|---------------------|-------------|
A#|-------------|---------------------|-------------|---------------------|-------------|
F#|-8----9------|-5----7----5----5----|-5----4------|-9----8----6----8----|-8----9------|
C#|-------------|---------------------|-------------|---------------------|-------------|
G#|-------------|---------------------|-------------|---------------------|-------------|
D#|-------------|---------------------|-------------|---------------------|-------------|


D#|---------------------|-------------|--------|--------|--------|--------|--------|
A#|---------------------|-------------|--------|--------|--------|--------|--------|
F#|-5----7----5----5----|-5----4------|--------|--------|--------|--------|--------|
C#|---------------------|-------------|--------|--------|--------|--------|--------|
G#|---------------------|-------------|--------|--------|--------|--------|--------|
D#|---------------------|-------------|--------|--------|--------|--------|--------|


D#|--------|--------|--------|--------|--------|--------|--------|--------|--------|
A#|--------|--------|--------|--------|--------|--------|--------|--------|--------|
F#|--------|--------|--------|--------|--------|--------|--------|--------|--------|
C#|--------|--------|--------|--------|--------|--------|--------|--------|--------|
G#|--------|--------|--------|--------|--------|--------|--------|--------|--------|
D#|--------|--------|--------|--------|--------|--------|--------|--------|--------|


D#|--------|--------|--------|--------|--------|--------|--------|--------|--------|
A#|--------|--------|--------|--------|--------|--------|--------|--------|--------|
F#|--------|--------|--------|--------|--------|--------|--------|--------|--------|
C#|--------|--------|--------|--------|--------|--------|--------|--------|--------|
G#|--------|--------|--------|--------|--------|--------|--------|--------|--------|
D#|--------|--------|--------|--------|--------|--------|--------|--------|--------|


D#|--------|--------|--------|--------|--------|--------|--------|--------|--------|
A#|--------|--------|--------|--------|--------|--------|--------|--------|--------|
F#|--------|--------|--------|--------|--------|--------|--------|--------|--------|
C#|--------|--------|--------|--------|--------|--------|--------|--------|--------|
G#|--------|--------|--------|--------|--------|--------|--------|--------|--------|
D#|--------|--------|--------|--------|--------|--------|--------|--------|--------|


D#|--------|--------|--------|--------|--------|--------|--------|--------|--------|
A#|--------|--------|--------|--------|--------|--------|--------|--------|--------|
F#|--------|--------|--------|--------|--------|--------|--------|--------|--------|
C#|--------|--------|--------|--------|--------|--------|--------|--------|--------|
G#|--------|--------|--------|--------|--------|--------|--------|--------|--------|
D#|--------|--------|--------|--------|--------|--------|--------|--------|--------|


D#|--------|--------|--------|--------|
A#|--------|--------|--------|--------|
F#|--------|--------|--------|--------|
C#|--------|--------|--------|--------|
G#|--------|--------|--------|--------|
D#|--------|--------|--------|--------|





Track 5: Edge

D#|--------|--------|--------|--------|--------|--------|--------|--------|--------|
A#|--------|--------|--------|--------|--------|--------|--------|--------|--------|
F#|--------|--------|--------|--------|--------|--------|--------|--------|--------|
C#|--------|--------|--------|--------|--------|--------|--------|--------|--------|
G#|--------|--------|--------|--------|--------|--------|--------|--------|--------|
D#|--------|--------|--------|--------|--------|--------|--------|--------|--------|


D#|--------|--------|--------|--------|--------|--------|--------|--------|--------|
A#|--------|--------|--------|--------|--------|--------|--------|--------|--------|
F#|--------|--------|--------|--------|--------|--------|--------|--------|--------|
C#|--------|--------|--------|--------|--------|--------|--------|--------|--------|
G#|--------|--------|--------|--------|--------|--------|--------|--------|--------|
D#|--------|--------|--------|--------|--------|--------|--------|--------|--------|


D#|--------|--------|--------|--------|--------|--------|--------|--------|--------|
A#|--------|--------|--------|--------|--------|--------|--------|--------|--------|
F#|--------|--------|--------|--------|--------|--------|--------|--------|--------|
C#|--------|--------|--------|--------|--------|--------|--------|--------|--------|
G#|--------|--------|--------|--------|--------|--------|--------|--------|--------|
D#|--------|--------|--------|--------|--------|--------|--------|--------|--------|


D#|--------|--------|--------|--------|--------|--------|--------|--------|--------|
A#|--------|--------|--------|--------|--------|--------|--------|--------|--------|
F#|--------|--------|--------|--------|--------|--------|--------|--------|--------|
C#|--------|--------|--------|--------|--------|--------|--------|--------|--------|
G#|--------|--------|--------|--------|--------|--------|--------|--------|--------|
D#|--------|--------|--------|--------|--------|--------|--------|--------|--------|


D#|--------|--------|--------|--------|--------|--------|--------|--------|--------|
A#|--------|--------|--------|--------|--------|--------|--------|--------|--------|
F#|--------|--------|--------|--------|--------|--------|--------|--------|--------|
C#|--------|--------|--------|--------|--------|--------|--------|--------|--------|
G#|--------|--------|--------|--------|--------|--------|--------|--------|--------|
D#|--------|--------|--------|--------|--------|--------|--------|--------|--------|


D#|--------|--------|--------|--------|--------|--------|--------|--------|--------|
A#|--------|--------|--------|--------|--------|--------|--------|--------|--------|
F#|--------|--------|--------|--------|--------|--------|--------|--------|--------|
C#|--------|--------|--------|--------|--------|--------|--------|--------|--------|
G#|--------|--------|--------|--------|--------|--------|--------|--------|--------|
D#|--------|--------|--------|--------|--------|--------|--------|--------|--------|


D#|--------|--------|--------|--------|--------|--------|--------|--------|--------|
A#|--------|--------|--------|--------|--------|--------|--------|--------|--------|
F#|--------|--------|--------|--------|--------|--------|--------|--------|--------|
C#|--------|--------|--------|--------|--------|--------|--------|--------|--------|
G#|--------|--------|--------|--------|--------|--------|--------|--------|--------|
D#|--------|--------|--------|--------|--------|--------|--------|--------|--------|


D#|--------|--------|--------|--------|--------|--------|--------|--------|--------|
A#|--------|--------|--------|--------|--------|--------|--------|--------|--------|
F#|--------|--------|--------|--------|--------|--------|--------|--------|--------|
C#|--------|--------|--------|--------|--------|--------|--------|--------|--------|
G#|--------|--------|--------|--------|--------|--------|--------|--------|--------|
D#|--------|--------|--------|--------|--------|--------|--------|--------|--------|


D#|--------|--------|--------|--------|--------|--------|--------|--------|--------|
A#|--------|--------|--------|--------|--------|--------|--------|--------|--------|
F#|--------|--------|--------|--------|--------|--------|--------|--------|--------|
C#|--------|--------|--------|--------|--------|--------|--------|--------|--------|
G#|--------|--------|--------|--------|--------|--------|--------|--------|--------|
D#|--------|--------|--------|--------|--------|--------|--------|--------|--------|


D#|--------|--------|--------|--------|--------|--------|--------|--------|--------|
A#|--------|--------|--------|--------|--------|--------|--------|--------|--------|
F#|--------|--------|--------|--------|--------|--------|--------|--------|--------|
C#|--------|--------|--------|--------|--------|--------|--------|--------|--------|
G#|--------|--------|--------|--------|--------|--------|--------|--------|--------|
D#|--------|--------|--------|--------|--------|--------|--------|--------|--------|


D#|--------|--------|--------|--------|--------|--------|--------|--------|--------|
A#|--------|--------|--------|--------|--------|--------|--------|--------|--------|
F#|--------|--------|--------|--------|--------|--------|--------|--------|--------|
C#|--------|--------|--------|--------|--------|--------|--------|--------|--------|
G#|--------|--------|--------|--------|--------|--------|--------|--------|--------|
D#|--------|--------|--------|--------|--------|--------|--------|--------|--------|


D#|--------|--------|--------|--------|--------|--------|--------|--------|--------|
A#|--------|--------|--------|--------|--------|--------|--------|--------|--------|
F#|--------|--------|--------|--------|--------|--------|--------|--------|--------|
C#|--------|--------|--------|--------|--------|--------|--------|--------|--------|
G#|--------|--------|--------|--------|--------|--------|--------|--------|--------|
D#|--------|--------|--------|--------|--------|--------|--------|--------|--------|


D#|--------|--------|--------|--------|--------|--------|--------|--------|--------|
A#|--------|--------|--------|--------|--------|--------|--------|--------|--------|
F#|--------|--------|--------|--------|--------|--------|--------|--------|--------|
C#|--------|--------|--------|--------|--------|--------|--------|--------|--------|
G#|--------|--------|--------|--------|--------|--------|--------|--------|--------|
D#|--------|--------|--------|--------|--------|--------|--------|--------|--------|


D#|--------|--------|--------|--------|--------|--------|--------|--------|--------|
A#|--------|--------|--------|--------|--------|--------|--------|--------|--------|
F#|--------|--------|--------|--------|--------|--------|--------|--------|--------|
C#|--------|--------|--------|--------|--------|--------|--------|--------|--------|
G#|--------|--------|--------|--------|--------|--------|--------|--------|--------|
D#|--------|--------|--------|--------|--------|--------|--------|--------|--------|


D#|--------|--------|--------|--------|--------|--------|--------|--------|--------|
A#|--------|--------|--------|--------|--------|--------|--------|--------|--------|
F#|--------|--------|--------|--------|--------|--------|--------|--------|--------|
C#|--------|--------|--------|--------|--------|--------|--------|--------|--------|
G#|--------|--------|--------|--------|--------|--------|--------|--------|--------|
D#|--------|--------|--------|--------|--------|--------|--------|--------|--------|


D#|--------|--------|--------|--------|--------|--------|--------|--------|--------|
A#|--------|--------|--------|--------|--------|--------|--------|--------|--------|
F#|--------|--------|--------|--------|--------|--------|--------|--------|--------|
C#|--------|--------|--------|--------|--------|--------|--------|--------|--------|
G#|--------|--------|--------|--------|--------|--------|--------|--------|--------|
D#|--------|--------|--------|--------|--------|--------|--------|--------|--------|


D#|--------|--------|--------|--------|--------|--------|--------|--------|--------|
A#|--------|--------|--------|--------|--------|--------|--------|--------|--------|
F#|--------|--------|--------|--------|--------|--------|--------|--------|--------|
C#|--------|--------|--------|--------|--------|--------|--------|--------|--------|
G#|--------|--------|--------|--------|--------|--------|--------|--------|--------|
D#|--------|--------|--------|--------|--------|--------|--------|--------|--------|


D#|--------|--------|--------|--------|--------|--------|--------|--------|--------|
A#|--------|--------|--------|--------|--------|--------|--------|--------|--------|
F#|--------|--------|--------|--------|--------|--------|--------|--------|--------|
C#|--------|--------|--------|--------|--------|--------|--------|--------|--------|
G#|--------|--------|--------|--------|--------|--------|--------|--------|--------|
D#|--------|--------|--------|--------|--------|--------|--------|--------|--------|


D#|--------|--------|--------|--------|--------|--------|--------|--------|--------|
A#|--------|--------|--------|--------|--------|--------|--------|--------|--------|
F#|--------|--------|--------|--------|--------|--------|--------|--------|--------|
C#|--------|--------|--------|--------|--------|--------|--------|--------|--------|
G#|--------|--------|--------|--------|--------|--------|--------|--------|--------|
D#|--------|--------|--------|--------|--------|--------|--------|--------|--------|


D#|--------|--------|--------|--------|--------|--------|--------|--------|--------|
A#|--------|--------|--------|--------|--------|--------|--------|--------|--------|
F#|--------|--------|--------|--------|--------|--------|--------|--------|--------|
C#|--------|--------|--------|--------|--------|--------|--------|--------|--------|
G#|--------|--------|--------|--------|--------|--------|--------|--------|--------|
D#|--------|--------|--------|--------|--------|--------|--------|--------|--------|


D#|--------|--------|--------|--------|--------|--------|--------|--------|--------|
A#|--------|--------|--------|--------|--------|--------|--------|--------|--------|
F#|--------|--------|--------|--------|--------|--------|--------|--------|--------|
C#|--------|--------|--------|--------|--------|--------|--------|--------|--------|
G#|--------|--------|--------|--------|--------|--------|--------|--------|--------|
D#|--------|--------|--------|--------|--------|--------|--------|--------|--------|


D#|--------|--------|--------|--------|--------|--------|--------|--------|--------|
A#|--------|--------|--------|--------|--------|--------|--------|--------|--------|
F#|--------|--------|--------|--------|--------|--------|--------|--------|--------|
C#|--------|--------|--------|--------|--------|--------|--------|--------|--------|
G#|--------|--------|--------|--------|--------|--------|--------|--------|--------|
D#|--------|--------|--------|--------|--------|--------|--------|--------|--------|





Track 6: Edge

D#|--------|--------|--------|--------|--------|--------|--------|--------|--------|
A#|--------|--------|--------|--------|--------|--------|--------|--------|--------|
F#|--------|--------|--------|--------|--------|--------|--------|--------|--------|
C#|--------|--------|--------|--------|--------|--------|--------|--------|--------|
G#|--------|--------|--------|--------|--------|--------|--------|--------|--------|
D#|--------|--------|--------|--------|--------|--------|--------|--------|--------|


D#|--------|--------|--------|--------|--------|--------|--------|--------|--------|
A#|--------|--------|--------|--------|--------|--------|--------|--------|--------|
F#|--------|--------|--------|--------|--------|--------|--------|--------|--------|
C#|--------|--------|--------|--------|--------|--------|--------|--------|--------|
G#|--------|--------|--------|--------|--------|--------|--------|--------|--------|
D#|--------|--------|--------|--------|--------|--------|--------|--------|--------|


D#|--------|--------|--------|--------|--------|--------|--------|--------|--------|
A#|--------|--------|--------|--------|--------|--------|--------|--------|--------|
F#|--------|--------|--------|--------|--------|--------|--------|--------|--------|
C#|--------|--------|--------|--------|--------|--------|--------|--------|--------|
G#|--------|--------|--------|--------|--------|--------|--------|--------|--------|
D#|--------|--------|--------|--------|--------|--------|--------|--------|--------|


D#|--------|--------|--------|--------|--------|--------|--------|--------|--------|
A#|--------|--------|--------|--------|--------|--------|--------|--------|--------|
F#|--------|--------|--------|--------|--------|--------|--------|--------|--------|
C#|--------|--------|--------|--------|--------|--------|--------|--------|--------|
G#|--------|--------|--------|--------|--------|--------|--------|--------|--------|
D#|--------|--------|--------|--------|--------|--------|--------|--------|--------|


D#|--------|--------|--------|--------|--------|--------|--------|--------|--------|
A#|--------|--------|--------|--------|--------|--------|--------|--------|--------|
F#|--------|--------|--------|--------|--------|--------|--------|--------|--------|
C#|--------|--------|--------|--------|--------|--------|--------|--------|--------|
G#|--------|--------|--------|--------|--------|--------|--------|--------|--------|
D#|--------|--------|--------|--------|--------|--------|--------|--------|--------|


D#|--------|--------|--------|--------|--------|--------|--------|--------|--------|
A#|--------|--------|--------|--------|--------|--------|--------|--------|--------|
F#|--------|--------|--------|--------|--------|--------|--------|--------|--------|
C#|--------|--------|--------|--------|--------|--------|--------|--------|--------|
G#|--------|--------|--------|--------|--------|--------|--------|--------|--------|
D#|--------|--------|--------|--------|--------|--------|--------|--------|--------|


D#|--------|--------|--------|--------|--------|--------|--------|--------|--------|
A#|--------|--------|--------|--------|--------|--------|--------|--------|--------|
F#|--------|--------|--------|--------|--------|--------|--------|--------|--------|
C#|--------|--------|--------|--------|--------|--------|--------|--------|--------|
G#|--------|--------|--------|--------|--------|--------|--------|--------|--------|
D#|--------|--------|--------|--------|--------|--------|--------|--------|--------|


D#|--------|--------|--------|--------|--------|--------|--------|--------|--------|
A#|--------|--------|--------|--------|--------|--------|--------|--------|--------|
F#|--------|--------|--------|--------|--------|--------|--------|--------|--------|
C#|--------|--------|--------|--------|--------|--------|--------|--------|--------|
G#|--------|--------|--------|--------|--------|--------|--------|--------|--------|
D#|--------|--------|--------|--------|--------|--------|--------|--------|--------|


D#|--------|--------|--------|--------|--------|--------|--------|--------|--------|
A#|--------|--------|--------|--------|--------|--------|--------|--------|--------|
F#|--------|--------|--------|--------|--------|--------|--------|--------|--------|
C#|--------|--------|--------|--------|--------|--------|--------|--------|--------|
G#|--------|--------|--------|--------|--------|--------|--------|--------|--------|
D#|--------|--------|--------|--------|--------|--------|--------|--------|--------|


D#|--------|--------|--------|--------|--------|--------|--------|--------|--------|
A#|--------|--------|--------|--------|--------|--------|--------|--------|--------|
F#|--------|--------|--------|--------|--------|--------|--------|--------|--------|
C#|--------|--------|--------|--------|--------|--------|--------|--------|--------|
G#|--------|--------|--------|--------|--------|--------|--------|--------|--------|
D#|--------|--------|--------|--------|--------|--------|--------|--------|--------|


D#|--------|--------|--------|--------|--------|--------|--------|--------|--------|
A#|--------|--------|--------|--------|--------|--------|--------|--------|--------|
F#|--------|--------|--------|--------|--------|--------|--------|--------|--------|
C#|--------|--------|--------|--------|--------|--------|--------|--------|--------|
G#|--------|--------|--------|--------|--------|--------|--------|--------|--------|
D#|--------|--------|--------|--------|--------|--------|--------|--------|--------|


D#|--------|--------|--------|--------|--------|--------|--------|--------|--------|
A#|--------|--------|--------|--------|--------|--------|--------|--------|--------|
F#|--------|--------|--------|--------|--------|--------|--------|--------|--------|
C#|--------|--------|--------|--------|--------|--------|--------|--------|--------|
G#|--------|--------|--------|--------|--------|--------|--------|--------|--------|
D#|--------|--------|--------|--------|--------|--------|--------|--------|--------|


D#|--------|--------|--------|--------|--------|--------|--------|--------|--------|
A#|--------|--------|--------|--------|--------|--------|--------|--------|--------|
F#|--------|--------|--------|--------|--------|--------|--------|--------|--------|
C#|--------|--------|--------|--------|--------|--------|--------|--------|--------|
G#|--------|--------|--------|--------|--------|--------|--------|--------|--------|
D#|--------|--------|--------|--------|--------|--------|--------|--------|--------|


D#|--------|--------|--------|--------|--------|--------|--------|--------|--------|
A#|--------|--------|--------|--------|--------|--------|--------|--------|--------|
F#|--------|--------|--------|--------|--------|--------|--------|--------|--------|
C#|--------|--------|--------|--------|--------|--------|--------|--------|--------|
G#|--------|--------|--------|--------|--------|--------|--------|--------|--------|
D#|--------|--------|--------|--------|--------|--------|--------|--------|--------|


D#|--------|--------|--------|--------|--------|--------|--------|--------|--------|
A#|--------|--------|--------|--------|--------|--------|--------|--------|--------|
F#|--------|--------|--------|--------|--------|--------|--------|--------|--------|
C#|--------|--------|--------|--------|--------|--------|--------|--------|--------|
G#|--------|--------|--------|--------|--------|--------|--------|--------|--------|
D#|--------|--------|--------|--------|--------|--------|--------|--------|--------|


D#|--------|--------|--------|--------|--------|--------|--------|--------|--------|
A#|--------|--------|--------|--------|--------|--------|--------|--------|--------|
F#|--------|--------|--------|--------|--------|--------|--------|--------|--------|
C#|--------|--------|--------|--------|--------|--------|--------|--------|--------|
G#|--------|--------|--------|--------|--------|--------|--------|--------|--------|
D#|--------|--------|--------|--------|--------|--------|--------|--------|--------|


D#|--------|--------|--------|--------|--------|--------|--------|--------|--------|
A#|--------|--------|--------|--------|--------|--------|--------|--------|--------|
F#|--------|--------|--------|--------|--------|--------|--------|--------|--------|
C#|--------|--------|--------|--------|--------|--------|--------|--------|--------|
G#|--------|--------|--------|--------|--------|--------|--------|--------|--------|
D#|--------|--------|--------|--------|--------|--------|--------|--------|--------|


D#|--------|--------|--------|--------|--------|--------|--------|--------|--------|
A#|--------|--------|--------|--------|--------|--------|--------|--------|--------|
F#|--------|--------|--------|--------|--------|--------|--------|--------|--------|
C#|--------|--------|--------|--------|--------|--------|--------|--------|--------|
G#|--------|--------|--------|--------|--------|--------|--------|--------|--------|
D#|--------|--------|--------|--------|--------|--------|--------|--------|--------|


D#|--------|--------|--------|--------|--------|--------|--------|--------|--------|
A#|--------|--------|--------|--------|--------|--------|--------|--------|--------|
F#|--------|--------|--------|--------|--------|--------|--------|--------|--------|
C#|--------|--------|--------|--------|--------|--------|--------|--------|--------|
G#|--------|--------|--------|--------|--------|--------|--------|--------|--------|
D#|--------|--------|--------|--------|--------|--------|--------|--------|--------|


D#|--------|--------|--------|--------|--------|--------|--------|--------|--------|
A#|--------|--------|--------|--------|--------|--------|--------|--------|--------|
F#|--------|--------|--------|--------|--------|--------|--------|--------|--------|
C#|--------|--------|--------|--------|--------|--------|--------|--------|--------|
G#|--------|--------|--------|--------|--------|--------|--------|--------|--------|
D#|--------|--------|--------|--------|--------|--------|--------|--------|--------|


D#|--------|--------|--------|--------|--------|--------|--------|--------|--------|
A#|--------|--------|--------|--------|--------|--------|--------|--------|--------|
F#|--------|--------|--------|--------|--------|--------|--------|--------|--------|
C#|--------|--------|--------|--------|--------|--------|--------|--------|--------|
G#|--------|--------|--------|--------|--------|--------|--------|--------|--------|
D#|--------|--------|--------|--------|--------|--------|--------|--------|--------|


D#|--------|--------|--------|--------|--------|--------|--------|--------|--------|
A#|--------|--------|--------|--------|--------|--------|--------|--------|--------|
F#|--------|--------|--------|--------|--------|--------|--------|--------|--------|
C#|--------|--------|--------|--------|--------|--------|--------|--------|--------|
G#|--------|--------|--------|--------|--------|--------|--------|--------|--------|
D#|--------|--------|--------|--------|--------|--------|--------|--------|--------|





Track 7: Strings

D#|--------|--------|--------|--------|--------|--------|--------|--------|--------|
A#|--------|--------|--------|--------|--------|--------|--------|--------|--------|
F#|--------|--------|--------|--------|--------|--------|--------|--------|--------|
C#|--------|--------|--------|--------|--------|--------|--------|--------|--------|
G#|--------|--------|--------|--------|--------|--------|--------|--------|--------|
D#|--------|--------|--------|--------|--------|--------|--------|--------|--------|


D#|--------|--------|--------|--------|--------|--------|--------|--------|--------|
A#|--------|--------|--------|--------|--------|--------|--------|--------|--------|
F#|--------|--------|--------|--------|--------|--------|--------|--------|--------|
C#|--------|--------|--------|--------|--------|--------|--------|--------|--------|
G#|--------|--------|--------|--------|--------|--------|--------|--------|--------|
D#|--------|--------|--------|--------|--------|--------|--------|--------|--------|


D#|--------|--------|--------|--------|--------|--------|--------|--------|--------|
A#|--------|--------|--------|--------|--------|--------|--------|--------|--------|
F#|--------|--------|--------|--------|--------|--------|--------|--------|--------|
C#|--------|--------|--------|--------|--------|--------|--------|--------|--------|
G#|--------|--------|--------|--------|--------|--------|--------|--------|--------|
D#|--------|--------|--------|--------|--------|--------|--------|--------|--------|


D#|--------|--------|--------|--------|--------|--------|--------|--------|--------|
A#|--------|--------|--------|--------|--------|--------|--------|--------|--------|
F#|--------|--------|--------|--------|--------|--------|--------|--------|--------|
C#|--------|--------|--------|--------|--------|--------|--------|--------|--------|
G#|--------|--------|--------|--------|--------|--------|--------|--------|--------|
D#|--------|--------|--------|--------|--------|--------|--------|--------|--------|


D#|--------|--------|--------|--------|--------|--------|--------|--------|--------|
A#|--------|--------|--------|--------|--------|--------|--------|--------|--------|
F#|--------|--------|--------|--------|--------|--------|--------|--------|--------|
C#|--------|--------|--------|--------|--------|--------|--------|--------|--------|
G#|--------|--------|--------|--------|--------|--------|--------|--------|--------|
D#|--------|--------|--------|--------|--------|--------|--------|--------|--------|


D#|--------|--------|--------|--------|--------|--------|--------|--------|--------|
A#|--------|--------|--------|--------|--------|--------|--------|--------|--------|
F#|--------|--------|--------|--------|--------|--------|--------|--------|--------|
C#|--------|--------|--------|--------|--------|--------|--------|--------|--------|
G#|--------|--------|--------|--------|--------|--------|--------|--------|--------|
D#|--------|--------|--------|--------|--------|--------|--------|--------|--------|


D#|--------|--------|--------|--------|--------|--------|--------|--------|--------|
A#|--------|--------|--------|--------|--------|--------|--------|--------|--------|
F#|--------|--------|--------|--------|--------|--------|--------|--------|--------|
C#|--------|--------|--------|--------|--------|--------|--------|--------|--------|
G#|--------|--------|--------|--------|--------|--------|--------|--------|--------|
D#|--------|--------|--------|--------|--------|--------|--------|--------|--------|


D#|--------|--------|--------|--------|--------|--------|--------|--------|--------|
A#|--------|--------|--------|--------|--------|--------|--------|--------|--------|
F#|--------|--------|--------|--------|--------|--------|--------|--------|--------|
C#|--------|--------|--------|--------|--------|--------|--------|--------|--------|
G#|--------|--------|--------|--------|--------|--------|--------|--------|--------|
D#|--------|--------|--------|--------|--------|--------|--------|--------|--------|


D#|--------|--------|--------|--------|--------|--------|--------|--------|--------|
A#|--------|--------|--------|--------|--------|--------|--------|--------|--------|
F#|--------|--------|--------|--------|--------|--------|--------|--------|--------|
C#|--------|--------|--------|--------|--------|--------|--------|--------|--------|
G#|--------|--------|--------|--------|--------|--------|--------|--------|--------|
D#|--------|--------|--------|--------|--------|--------|--------|--------|--------|


D#|--------|--------|--------|--------|--------|--------|--------|--------|--------|
A#|--------|--------|--------|--------|--------|--------|--------|--------|--------|
F#|--------|--------|--------|--------|--------|--------|--------|--------|--------|
C#|--------|--------|--------|--------|--------|--------|--------|--------|--------|
G#|--------|--------|--------|--------|--------|--------|--------|--------|--------|
D#|--------|--------|--------|--------|--------|--------|--------|--------|--------|


D#|--------|--------|--------|--------|--------|--------|--------|--------|--------|
A#|--------|--------|--------|--------|--------|--------|--------|--------|--------|
F#|--------|--------|--------|--------|--------|--------|--------|--------|--------|
C#|--------|--------|--------|--------|--------|--------|--------|--------|--------|
G#|--------|--------|--------|--------|--------|--------|--------|--------|--------|
D#|--------|--------|--------|--------|--------|--------|--------|--------|--------|


D#|--------|--------|--------|--------|--------|--------|--------|--------|--------|
A#|--------|--------|--------|--------|--------|--------|--------|--------|--------|
F#|--------|--------|--------|--------|--------|--------|--------|--------|--------|
C#|--------|--------|--------|--------|--------|--------|--------|--------|--------|
G#|--------|--------|--------|--------|--------|--------|--------|--------|--------|
D#|--------|--------|--------|--------|--------|--------|--------|--------|--------|


D#|--------|--------|--------|--------|--------|--------|--------|--------|--------|
A#|--------|--------|--------|--------|--------|--------|--------|--------|--------|
F#|--------|--------|--------|--------|--------|--------|--------|--------|--------|
C#|--------|--------|--------|--------|--------|--------|--------|--------|--------|
G#|--------|--------|--------|--------|--------|--------|--------|--------|--------|
D#|--------|--------|--------|--------|--------|--------|--------|--------|--------|


D#|--------|--------|--------|--------|--------|--------|--------|--------|--------|
A#|--------|--------|--------|--------|--------|--------|--------|--------|--------|
F#|--------|--------|--------|--------|--------|--------|--------|--------|--------|
C#|--------|--------|--------|--------|--------|--------|--------|--------|--------|
G#|--------|--------|--------|--------|--------|--------|--------|--------|--------|
D#|--------|--------|--------|--------|--------|--------|--------|--------|--------|


D#|--------|--------|--------|--------|--------|--------|--------|--------|--------|
A#|--------|--------|--------|--------|--------|--------|--------|--------|--------|
F#|--------|--------|--------|--------|--------|--------|--------|--------|--------|
C#|--------|--------|--------|--------|--------|--------|--------|--------|--------|
G#|--------|--------|--------|--------|--------|--------|--------|--------|--------|
D#|--------|--------|--------|--------|--------|--------|--------|--------|--------|


D#|--------|--------|--------|--------|--------|--------|--------|--------|--------|
A#|--------|--------|--------|--------|--------|--------|--------|--------|--------|
F#|--------|--------|--------|--------|--------|--------|--------|--------|--------|
C#|--------|--------|--------|--------|--------|--------|--------|--------|--------|
G#|--------|--------|--------|--------|--------|--------|--------|--------|--------|
D#|--------|--------|--------|--------|--------|--------|--------|--------|--------|


D#|--------|--------|--------|--------|--------|--------|--------|--------|--------|
A#|--------|--------|--------|--------|--------|--------|--------|--------|--------|
F#|--------|--------|--------|--------|--------|--------|--------|--------|--------|
C#|--------|--------|--------|--------|--------|--------|--------|--------|--------|
G#|--------|--------|--------|--------|--------|--------|--------|--------|--------|
D#|--------|--------|--------|--------|--------|--------|--------|--------|--------|


D#|--------|--------|--------|--------|--------|--------|--------|--------|--------|
A#|--------|--------|--------|--------|--------|--------|--------|--------|--------|
F#|--------|--------|--------|--------|--------|--------|--------|--------|--------|
C#|--------|--------|--------|--------|--------|--------|--------|--------|--------|
G#|--------|--------|--------|--------|--------|--------|--------|--------|--------|
D#|--------|--------|--------|--------|--------|--------|--------|--------|--------|


D#|--------|--------|--------|--------|--------|--------|--------|--------|--------|
A#|--------|--------|--------|--------|--------|--------|--------|--------|--------|
F#|--------|--------|--------|--------|--------|--------|--------|--------|--------|
C#|--------|--------|--------|--------|--------|--------|--------|--------|--------|
G#|--------|--------|--------|--------|--------|--------|--------|--------|--------|
D#|--------|--------|--------|--------|--------|--------|--------|--------|--------|


D#|--------|--------|--------|--------|--------|--------|--------|--------|--------|
A#|--------|--------|--------|--------|--------|--------|--------|--------|--------|
F#|--------|--------|--------|--------|--------|--------|--------|--------|--------|
C#|--------|--------|--------|--------|--------|--------|--------|--------|--------|
G#|--------|--------|--------|--------|--------|--------|--------|--------|--------|
D#|--------|--------|--------|--------|--------|--------|--------|--------|--------|


D#|--------|--------|--------|--------|--------|--------|--------|--------|--------|
A#|--------|--------|--------|--------|--------|--------|--------|--------|--------|
F#|--------|--------|--------|--------|--------|--------|--------|--------|--------|
C#|--------|--------|--------|--------|--------|--------|--------|--------|--------|
G#|--------|--------|--------|--------|--------|--------|--------|--------|--------|
D#|--------|--------|--------|--------|--------|--------|--------|--------|--------|


D#|-------------|---------------------------------|-----------------|-------2---0-----------|
A#|-4----5------|-5-------4---5---6---5---4-------|-----------------|-----------------------|
F#|-------------|-----4---------------------------|-----------------|---------------4---0---|
C#|-------------|-----------------------------3---|-----------------|-----------------------|
G#|-------------|---------------------------------|-7-----5---5-----|-----------------------|
D#|-------------|---------------------------------|-----------------|-----------------------|


D#|-----------------|---------------------------------|-----------------|---------------------------------|
A#|-----------------|---------------------------------|-----------------|---------------------------------|
F#|-----------------|---------------------------------|-----------------|---------------------------------|
C#|-5---------------|-------------2---3---2---0---3---|-----------------|-------------0---0---2---2---3---|
G#|-----------------|---------2-----------------------|-7-----5---5-----|-5-------2-----------------------|
D#|-------3---3-----|-3---3---------------------------|-----------------|-----3---------------------------|


D#|--------|
A#|--------|
F#|--------|
C#|--------|
G#|--------|
D#|--------|





Track 8: Strings

D#|--------|--------|--------|--------|--------|--------|--------|--------|--------|
A#|--------|--------|--------|--------|--------|--------|--------|--------|--------|
F#|--------|--------|--------|--------|--------|--------|--------|--------|--------|
C#|--------|--------|--------|--------|--------|--------|--------|--------|--------|
G#|--------|--------|--------|--------|--------|--------|--------|--------|--------|
D#|--------|--------|--------|--------|--------|--------|--------|--------|--------|


D#|--------|--------|--------|--------|--------|--------|--------|--------|--------|
A#|--------|--------|--------|--------|--------|--------|--------|--------|--------|
F#|--------|--------|--------|--------|--------|--------|--------|--------|--------|
C#|--------|--------|--------|--------|--------|--------|--------|--------|--------|
G#|--------|--------|--------|--------|--------|--------|--------|--------|--------|
D#|--------|--------|--------|--------|--------|--------|--------|--------|--------|


D#|--------|--------|--------|--------|--------|--------|--------|--------|--------|
A#|--------|--------|--------|--------|--------|--------|--------|--------|--------|
F#|--------|--------|--------|--------|--------|--------|--------|--------|--------|
C#|--------|--------|--------|--------|--------|--------|--------|--------|--------|
G#|--------|--------|--------|--------|--------|--------|--------|--------|--------|
D#|--------|--------|--------|--------|--------|--------|--------|--------|--------|


D#|--------|--------|--------|--------|--------|--------|--------|--------|--------|
A#|--------|--------|--------|--------|--------|--------|--------|--------|--------|
F#|--------|--------|--------|--------|--------|--------|--------|--------|--------|
C#|--------|--------|--------|--------|--------|--------|--------|--------|--------|
G#|--------|--------|--------|--------|--------|--------|--------|--------|--------|
D#|--------|--------|--------|--------|--------|--------|--------|--------|--------|


D#|--------|--------|--------|--------|--------|--------|--------|--------|--------|
A#|--------|--------|--------|--------|--------|--------|--------|--------|--------|
F#|--------|--------|--------|--------|--------|--------|--------|--------|--------|
C#|--------|--------|--------|--------|--------|--------|--------|--------|--------|
G#|--------|--------|--------|--------|--------|--------|--------|--------|--------|
D#|--------|--------|--------|--------|--------|--------|--------|--------|--------|


D#|--------|--------|--------|--------|--------|--------|--------|--------|--------|
A#|--------|--------|--------|--------|--------|--------|--------|--------|--------|
F#|--------|--------|--------|--------|--------|--------|--------|--------|--------|
C#|--------|--------|--------|--------|--------|--------|--------|--------|--------|
G#|--------|--------|--------|--------|--------|--------|--------|--------|--------|
D#|--------|--------|--------|--------|--------|--------|--------|--------|--------|


D#|--------|--------|--------|--------|--------|--------|--------|--------|--------|
A#|--------|--------|--------|--------|--------|--------|--------|--------|--------|
F#|--------|--------|--------|--------|--------|--------|--------|--------|--------|
C#|--------|--------|--------|--------|--------|--------|--------|--------|--------|
G#|--------|--------|--------|--------|--------|--------|--------|--------|--------|
D#|--------|--------|--------|--------|--------|--------|--------|--------|--------|


D#|--------|--------|--------|--------|--------|--------|--------|--------|--------|
A#|--------|--------|--------|--------|--------|--------|--------|--------|--------|
F#|--------|--------|--------|--------|--------|--------|--------|--------|--------|
C#|--------|--------|--------|--------|--------|--------|--------|--------|--------|
G#|--------|--------|--------|--------|--------|--------|--------|--------|--------|
D#|--------|--------|--------|--------|--------|--------|--------|--------|--------|


D#|--------|--------|--------|--------|--------|--------|--------|--------|--------|
A#|--------|--------|--------|--------|--------|--------|--------|--------|--------|
F#|--------|--------|--------|--------|--------|--------|--------|--------|--------|
C#|--------|--------|--------|--------|--------|--------|--------|--------|--------|
G#|--------|--------|--------|--------|--------|--------|--------|--------|--------|
D#|--------|--------|--------|--------|--------|--------|--------|--------|--------|


D#|--------|--------|--------|--------|--------|--------|--------|--------|--------|
A#|--------|--------|--------|--------|--------|--------|--------|--------|--------|
F#|--------|--------|--------|--------|--------|--------|--------|--------|--------|
C#|--------|--------|--------|--------|--------|--------|--------|--------|--------|
G#|--------|--------|--------|--------|--------|--------|--------|--------|--------|
D#|--------|--------|--------|--------|--------|--------|--------|--------|--------|


D#|--------|--------|--------|--------|--------|--------|--------|--------|--------|
A#|--------|--------|--------|--------|--------|--------|--------|--------|--------|
F#|--------|--------|--------|--------|--------|--------|--------|--------|--------|
C#|--------|--------|--------|--------|--------|--------|--------|--------|--------|
G#|--------|--------|--------|--------|--------|--------|--------|--------|--------|
D#|--------|--------|--------|--------|--------|--------|--------|--------|--------|


D#|--------|--------|--------|--------|--------|--------|--------|--------|--------|
A#|--------|--------|--------|--------|--------|--------|--------|--------|--------|
F#|--------|--------|--------|--------|--------|--------|--------|--------|--------|
C#|--------|--------|--------|--------|--------|--------|--------|--------|--------|
G#|--------|--------|--------|--------|--------|--------|--------|--------|--------|
D#|--------|--------|--------|--------|--------|--------|--------|--------|--------|


D#|--------|--------|--------|--------|--------|--------|--------|--------|--------|
A#|--------|--------|--------|--------|--------|--------|--------|--------|--------|
F#|--------|--------|--------|--------|--------|--------|--------|--------|--------|
C#|--------|--------|--------|--------|--------|--------|--------|--------|--------|
G#|--------|--------|--------|--------|--------|--------|--------|--------|--------|
D#|--------|--------|--------|--------|--------|--------|--------|--------|--------|


D#|--------|--------|--------|--------|--------|--------|--------|--------|--------|
A#|--------|--------|--------|--------|--------|--------|--------|--------|--------|
F#|--------|--------|--------|--------|--------|--------|--------|--------|--------|
C#|--------|--------|--------|--------|--------|--------|--------|--------|--------|
G#|--------|--------|--------|--------|--------|--------|--------|--------|--------|
D#|--------|--------|--------|--------|--------|--------|--------|--------|--------|


D#|--------|--------|--------|--------|--------|--------|--------|--------|--------|
A#|--------|--------|--------|--------|--------|--------|--------|--------|--------|
F#|--------|--------|--------|--------|--------|--------|--------|--------|--------|
C#|--------|--------|--------|--------|--------|--------|--------|--------|--------|
G#|--------|--------|--------|--------|--------|--------|--------|--------|--------|
D#|--------|--------|--------|--------|--------|--------|--------|--------|--------|


D#|--------|--------|--------|--------|--------|--------|--------|--------|--------|
A#|--------|--------|--------|--------|--------|--------|--------|--------|--------|
F#|--------|--------|--------|--------|--------|--------|--------|--------|--------|
C#|--------|--------|--------|--------|--------|--------|--------|--------|--------|
G#|--------|--------|--------|--------|--------|--------|--------|--------|--------|
D#|--------|--------|--------|--------|--------|--------|--------|--------|--------|


D#|--------|--------|--------|--------|--------|--------|--------|--------|--------|
A#|--------|--------|--------|--------|--------|--------|--------|--------|--------|
F#|--------|--------|--------|--------|--------|--------|--------|--------|--------|
C#|--------|--------|--------|--------|--------|--------|--------|--------|--------|
G#|--------|--------|--------|--------|--------|--------|--------|--------|--------|
D#|--------|--------|--------|--------|--------|--------|--------|--------|--------|


D#|--------|--------|--------|--------|--------|--------|--------|--------|--------|
A#|--------|--------|--------|--------|--------|--------|--------|--------|--------|
F#|--------|--------|--------|--------|--------|--------|--------|--------|--------|
C#|--------|--------|--------|--------|--------|--------|--------|--------|--------|
G#|--------|--------|--------|--------|--------|--------|--------|--------|--------|
D#|--------|--------|--------|--------|--------|--------|--------|--------|--------|


D#|--------|--------|--------|--------|--------|--------|--------|--------|--------|
A#|--------|--------|--------|--------|--------|--------|--------|--------|--------|
F#|--------|--------|--------|--------|--------|--------|--------|--------|--------|
C#|--------|--------|--------|--------|--------|--------|--------|--------|--------|
G#|--------|--------|--------|--------|--------|--------|--------|--------|--------|
D#|--------|--------|--------|--------|--------|--------|--------|--------|--------|


D#|--------|--------|--------|--------|--------|--------|--------|--------|--------|
A#|--------|--------|--------|--------|--------|--------|--------|--------|--------|
F#|--------|--------|--------|--------|--------|--------|--------|--------|--------|
C#|--------|--------|--------|--------|--------|--------|--------|--------|--------|
G#|--------|--------|--------|--------|--------|--------|--------|--------|--------|
D#|--------|--------|--------|--------|--------|--------|--------|--------|--------|


D#|--------|--------|--------|--------|--------|--------|--------|--------|--------|
A#|--------|--------|--------|--------|--------|--------|--------|--------|--------|
F#|--------|--------|--------|--------|--------|--------|--------|--------|--------|
C#|--------|--------|--------|--------|--------|--------|--------|--------|--------|
G#|--------|--------|--------|--------|--------|--------|--------|--------|--------|
D#|--------|--------|--------|--------|--------|--------|--------|--------|--------|


D#|-8-----7---7----4----|-4----------------------|-8-----7---7----4----|-4----------------------|
A#|---------------------|------------------------|---------------------|------------------------|
F#|-5-----4---4----1----|-1---7---7----7---------|-5-----4---4----1----|-1---7---7----7---------|
C#|---------------------|------------------------|---------------------|------------------------|
G#|---------------------|-----5---5----5---------|---------------------|-----5---5----5---------|
D#|---------------------|------------------------|---------------------|------------------------|


D#|-8-----7---7----4----|-4----------------------|-8-----7---7----4----|-4----------------------|
A#|---------------------|------------------------|---------------------|------------------------|
F#|-5-----4---4----1----|-1---7---7----7---------|-5-----4---4----1----|-1---7---7----7---------|
C#|---------------------|------------------------|---------------------|------------------------|
G#|---------------------|-----5---5----5---------|---------------------|-----5---5----5---------|
D#|---------------------|------------------------|---------------------|------------------------|


D#|--------|
A#|--------|
F#|--------|
C#|--------|
G#|--------|
D#|--------|





Track 9: Adam

F#|--------|--------|--------|--------|---------------------------|---------------------|
C#|--------|--------|--------|--------|---------------------------|---------------------|
G#|--------|--------|--------|--------|-7--------5---5-------2----|---------------------|
D#|--------|--------|--------|--------|---------------------------|------3----3---------|


F#|---------------------------|---------------------|---------------------------|---------------------|
C#|---------------------------|---------------------|---------------------------|---------------------|
G#|-7--------5---5-------2----|---------------------|-7--------5---5-------2----|---------------------|
D#|---------------------------|------3----3---------|---------------------------|------3----3---------|


F#|---------------------------|---------------------|---------------------------|---------------------------------|
C#|---------------------------|---------------------|---------------------------|---------------------------------|
G#|-7--------5---5-------2----|---------------------|-7----7---7---5---7----7---|-6---7---7---7---7---5---5---5---|
D#|---------------------------|------1----1---------|---------------------------|---------------------------------|


F#|---------------------------|---------------------------------|---------------------------|
C#|---------------------------|---------------------------------|---------------------------|
G#|-7----7---7---5---7----7---|-6---7---7---7---7---5---5---5---|-7----7---7---5---7----7---|
D#|---------------------------|---------------------------------|---------------------------|


F#|---------------------------------|---------------------------|---------------------------------|
C#|---------------------------------|---------------------------|---------------------------------|
G#|-6---7---7---7---7---5---5---5---|-7----7---7---5---7----7---|-6---7---7---7---7---5---5---5---|
D#|---------------------------------|---------------------------|---------------------------------|


F#|---------------------------|---------------------------------|---------------------------|
C#|---------------------------|---------------------------------|---------------------------|
G#|-7----7---7---5---7----7---|-6---7---7---7---7---5---5---5---|-7----7---7---5---7----7---|
D#|---------------------------|---------------------------------|---------------------------|


F#|---------------------------------|---------------------|---------------------|---------------------|
C#|---------------------------------|---------------------|---------------------|---------------------|
G#|-6---7---7---7---7---5---5---5---|---------------------|---------------------|---------------------|
D#|---------------------------------|-5-----5---5----5----|-5---5-----5---------|-3-----3---3----3----|


F#|---------------------|---------------------------|---------------------------------|
C#|---------------------|---------------------------|---------------------------------|
G#|---------------------|-7----7---7---5---7----7---|-6---7---7---7---7---5---5---5---|
D#|-3---3-----3---------|---------------------------|---------------------------------|


F#|---------------------------|---------------------------------|---------------------------|
C#|---------------------------|---------------------------------|---------------------------|
G#|-7----7---7---5---7----7---|-6---7---7---7---7---5---5---5---|-7----7---7---5---7----7---|
D#|---------------------------|---------------------------------|---------------------------|


F#|---------------------------------|---------------------------|---------------------------------|
C#|---------------------------------|---------------------------|---------------------------------|
G#|-6---7---7---7---7---5---5---5---|-7----7---7---5---7----7---|-6---7---7---7---7---5---5---5---|
D#|---------------------------------|---------------------------|---------------------------------|


F#|---------------------------|---------------------------------|---------------------------|
C#|---------------------------|---------------------------------|---------------------------|
G#|-7----7---7---5---7----7---|-6---7---7---7---7---5---5---5---|-7----7---7---5---7----7---|
D#|---------------------------|---------------------------------|---------------------------|


F#|---------------------------------|---------------------|---------------------|---------------------|
C#|---------------------------------|---------------------|---------------------|---------------------|
G#|-6---7---7---7---7---5---5---5---|---------------------|---------------------|---------------------|
D#|---------------------------------|-5-----5---5----5----|-5---5-----5---------|-3-----3---3----3----|


F#|---------------------|---------------------------|---------------------------------|
C#|---------------------|---------------------------|---------------------------------|
G#|---------------------|-7----7---7---5---7----7---|-6---7---7---7---7---5---5---5---|
D#|-3---3-----3---------|---------------------------|---------------------------------|


F#|---------------------------|---------------------------------|-------------|-------------|
C#|---------------------------|---------------------------------|-------------|-------------|
G#|-7----7---7---5---7----7---|-6---7---7---7---7---5---5---5---|-------------|-------------|
D#|---------------------------|---------------------------------|-7------5----|-5-----5-----|


F#|-------------|-------------|-------------|-------------|-------------|-------------|
C#|-------------|-------------|-------------|-------------|-------------|-------------|
G#|-------------|-------------|-------------|-------------|-------------|-------------|
D#|-1------3----|-3-----3-----|-7------5----|-5-----5-----|-1------3----|-3-----3-----|


F#|-------------|-------------|-------------|-------------|-------------|-------------|
C#|-------------|-------------|-------------|-------------|-------------|-------------|
G#|-------------|-------------|-------------|-------------|-------------|-------------|
D#|-7------5----|-5-----5-----|-1------3----|-3-----3-----|-7------5----|-5-----5-----|


F#|-------------|-------------|---------------------------|---------------------------------|
C#|-------------|-------------|---------------------------|---------------------------------|
G#|-------------|-------------|-7----7---7---5---7----7---|-6---7---7---7---7---5---5---5---|
D#|-1------3----|-3-----3-----|---------------------------|---------------------------------|


F#|---------------------------|---------------------------------|---------------------------|
C#|---------------------------|---------------------------------|---------------------------|
G#|-7----7---7---5---7----7---|-6---7---7---7---7---5---5---5---|-7----7---7---5---7----7---|
D#|---------------------------|---------------------------------|---------------------------|


F#|---------------------------------|---------------------------|---------------------------------|
C#|---------------------------------|---------------------------|---------------------------------|
G#|-6---7---7---7---7---5---5---5---|-7----7---7---5---7----7---|-6---7---7---7---7---5---5---5---|
D#|---------------------------------|---------------------------|---------------------------------|


F#|---------------------------|---------------------------------|---------------------------|
C#|---------------------------|---------------------------------|---------------------------|
G#|-7----7---7---5---7----7---|-6---7---7---7---7---5---5---5---|-7----7---7---5---7----7---|
D#|---------------------------|---------------------------------|---------------------------|


F#|---------------------------------|---------------------------|---------------------------------|
C#|---------------------------------|---------------------------|---------------------------------|
G#|-6---7---7---7---7---5---5---5---|-7----7---7---5---7----7---|-6---7---7---7---7---5---5---5---|
D#|---------------------------------|---------------------------|---------------------------------|


F#|---------------------------|---------------------------------|---------------------|
C#|---------------------------|---------------------------------|---------------------|
G#|-7----7---7---5---7----7---|-6---7---7---7---7---5---5---5---|---------------------|
D#|---------------------------|---------------------------------|-5-----5---5----5----|


F#|---------------------|---------------------|---------------------|---------------------------|
C#|---------------------|---------------------|---------------------|---------------------------|
G#|---------------------|---------------------|---------------------|-7----7---7---5---7----7---|
D#|-5---5-----5---------|-3-----3---3----3----|-3---3-----3---------|---------------------------|


F#|---------------------------------|---------------------------|---------------------------------|
C#|---------------------------------|---------------------------|---------------------------------|
G#|-6---7---7---7---7---5---5---5---|-7----7---7---5---7----7---|-6---7---7---7---7---5---5---5---|
D#|---------------------------------|---------------------------|---------------------------------|


F#|-------------|-------------|-------------|-------------|-------------|-------------|
C#|-------------|-------------|-------------|-------------|-------------|-------------|
G#|-------------|-------------|-------------|-------------|-------------|-------------|
D#|-7------5----|-5-----5-----|-1------3----|-3-----3-----|-7------5----|-5-----5-----|


F#|-------------|-------------|-------------|-------------|-------------|-------------|
C#|-------------|-------------|-------------|-------------|-------------|-------------|
G#|-------------|-------------|-------------|-------------|-------------|-------------|
D#|-1------3----|-3-----3-----|-7------5----|-5-----5-----|-1------3----|-3-----3-----|


F#|-------------|-------------|-------------|-------------|---------------------------|
C#|-------------|-------------|-------------|-------------|---------------------------|
G#|-------------|-------------|-------------|-------------|-7----7---7---5---7----7---|
D#|-7------5----|-5-----5-----|-1------3----|-3-----3-----|---------------------------|


F#|---------------------------------|---------------------------|---------------------------------|
C#|---------------------------------|---------------------------|---------------------------------|
G#|-6---7---7---7---7---5---5---5---|-7----7---7---5---7----7---|-6---7---7---7---7---5---5---5---|
D#|---------------------------------|---------------------------|---------------------------------|


F#|---------------------------|---------------------|---------------------------|---------------------|
C#|---------------------------|---------------------|---------------------------|---------------------|
G#|-7--------5---5-------2----|---------------------|-7--------5---5-------2----|---------------------|
D#|---------------------------|------3----3---------|---------------------------|------3----3---------|


F#|---------------------------|---------------------|---------------------------|---------------------|
C#|---------------------------|---------------------|---------------------------|---------------------|
G#|-7--------5---5-------2----|---------------------|-7--------5---5-------2----|---------------------|
D#|---------------------------|------3----3---------|---------------------------|------1----1---------|


F#|--------|--------|--------|--------|--------|--------|--------|--------|--------|
C#|--------|--------|--------|--------|--------|--------|--------|--------|--------|
G#|--------|--------|--------|--------|--------|--------|--------|--------|--------|
D#|--------|--------|--------|--------|--------|--------|--------|--------|--------|


F#|--------|--------|--------|--------|--------|--------|--------|--------|--------|
C#|--------|--------|--------|--------|--------|--------|--------|--------|--------|
G#|--------|--------|--------|--------|--------|--------|--------|--------|--------|
D#|--------|--------|--------|--------|--------|--------|--------|--------|--------|


F#|--------|--------|--------|--------|--------|--------|-------------|-------------|
C#|--------|--------|--------|--------|--------|--------|-------------|-------------|
G#|--------|--------|--------|--------|--------|--------|-------------|-------------|
D#|--------|--------|--------|--------|--------|--------|-7------5----|-5-----5-----|


F#|-------------|-------------|-------------|-------------|-------------|-------------|
C#|-------------|-------------|-------------|-------------|-------------|-------------|
G#|-------------|-------------|-------------|-------------|-------------|-------------|
D#|-1------3----|-3-----3-----|-7------5----|-5-----5-----|-1------3----|-3-----3-----|


F#|-------------|-------------|-------------|-------------|-------------|-------------|
C#|-------------|-------------|-------------|-------------|-------------|-------------|
G#|-------------|-------------|-------------|-------------|-------------|-------------|
D#|-7------5----|-5-----5-----|-1------3----|-3-----3-----|-7------5----|-5-----5-----|


F#|-------------|-------------|---------------------------|---------------------------------|
C#|-------------|-------------|---------------------------|---------------------------------|
G#|-------------|-------------|-7----7---7---5---7----7---|-6---7---7---7---7---5---5---5---|
D#|-1------3----|-3-----3-----|---------------------------|---------------------------------|


F#|---------------------------|---------------------------------|---------------------------|
C#|---------------------------|---------------------------------|---------------------------|
G#|-7----7---7---5---7----7---|-6---7---7---7---7---5---5---5---|-7----7---7---5---7----7---|
D#|---------------------------|---------------------------------|---------------------------|


F#|---------------------------------|---------------------------|---------------------------------|
C#|---------------------------------|---------------------------|---------------------------------|
G#|-6---7---7---7---7---5---5---5---|-7----7---7---5---7----7---|-6---7---7---7---7---5---5---5---|
D#|---------------------------------|---------------------------|---------------------------------|


F#|---------------------------|---------------------------------|---------------------------|
C#|---------------------------|---------------------------------|---------------------------|
G#|-7----7---7---5---7----7---|-6---7---7---7---7---5---5---5---|-7----7---7---5---7----7---|
D#|---------------------------|---------------------------------|---------------------------|


F#|---------------------------------|---------------------------|---------------------|
C#|---------------------------------|---------------------------|---------------------|
G#|-6---7---7---7---7---5---5---5---|-7--------5---5-------2----|---------------------|
D#|---------------------------------|---------------------------|------3----3---------|


F#|---------------------------|---------------------|---------------------------|---------------------|
C#|---------------------------|---------------------|---------------------------|---------------------|
G#|-7--------5---5-------2----|---------------------|-7--------5---5-------2----|---------------------|
D#|---------------------------|------3----3---------|---------------------------|------3----3---------|


F#|---------------------------|---------------------|---------------------------|---------------------|
C#|---------------------------|---------------------|---------------------------|---------------------|
G#|-7--------5---5-------2----|---------------------|-7--------5---5-------2----|---------------------|
D#|---------------------------|------3----3---------|---------------------------|------1----1---------|


F#|---------------------------|---------------------|---------------------------|---------------------|
C#|---------------------------|---------------------|---------------------------|---------------------|
G#|-7--------5---5-------2----|---------------------|-7--------5---5-------2----|---------------------|
D#|---------------------------|------1----1---------|---------------------------|------1----1---------|


F#|---------------------------|---------------------|---------------------------|---------------------|
C#|---------------------------|---------------------|---------------------------|---------------------|
G#|-7--------5---5-------2----|---------------------|-7--------5---5-------2----|---------------------|
D#|---------------------------|------1----1---------|---------------------------|------1----1---------|


F#|---------------------------|---------------------|---------------------------|---------------------|
C#|---------------------------|---------------------|---------------------------|---------------------|
G#|-7--------5---5-------2----|---------------------|-7--------5---5-------2----|---------------------|
D#|---------------------------|------1----1---------|---------------------------|------1----1---------|


F#|---------------------------|---------------------|--------|--------|--------|--------|
C#|---------------------------|---------------------|--------|--------|--------|--------|
G#|-7--------5---5-------2----|---------------------|--------|--------|--------|--------|
D#|---------------------------|------1----1---------|--------|--------|--------|--------|


F#|--------|--------|
C#|--------|--------|
G#|--------|--------|
D#|--------|--------|