Site menu:

    

Browse: 0-9 A B C D E F G H I J K L N O P Q R S T U V W X Y Z

u2 - drowning man:



Title: Drowning Man
Artist: 
Album: War
Author: U2


Track 1: Clean tone w/echo

D#|-19---19---22---22---|-19---19---17---17---|-15---15---19---19---|-17---17---15---15---|
A#|-20---20-------------|-----------17---17---|-----------17---17---|-17---17-------------|
F#|---------------------|-19---19-------------|-16---16-------------|-----------16---16---|
C#|---------------------|---------------------|---------------------|---------------------|
G#|---------------------|---------------------|---------------------|---------------------|
D#|---------------------|---------------------|---------------------|---------------------|


D#|-19---19---24-----24-24------|-------------|--------|--------|--------|--------|
A#|-20---20---24-----24-24------|-------------|--------|--------|--------|--------|
F#|---------------17--------17--|-------------|--------|--------|--------|--------|
C#|-----------------------------|-------------|--------|--------|--------|--------|
G#|-----------------------------|-------------|--------|--------|--------|--------|
D#|-----------------------------|-------------|--------|--------|--------|--------|


D#|--------|--------|--------19---|-19---17---17---15---|-15---19---19---22---|-22---19---19---17---|
A#|--------|--------|--------17---|-17---17---17--------|------20---20--------|------17---17---17---|
F#|--------|--------|-------------|----------------16---|-16------------------|---------------------|
C#|--------|--------|-------------|---------------------|---------------------|---------------------|
G#|--------|--------|-------------|---------------------|---------------------|---------------------|
D#|--------|--------|-------------|---------------------|---------------------|---------------------|


D#|-17---15---15---19---|-19---17---17---19---|-19---17---17---22---|-22--------------|
A#|-17-------------17---|-17---17---17---20---|-20---17---17--------|-----------------|
F#|------16---16--------|---------------------|---------------------|-----------------|
C#|---------------------|---------------------|---------------------|-----------------|
G#|---------------------|---------------------|---------------------|-----------------|
D#|---------------------|---------------------|---------------------|-----------------|


D#|-------------|--------|--------|--------|--------|--------|--------|-19---19---17---17---|
A#|-------------|--------|--------|--------|--------|--------|--------|-17---17---15---15---|
F#|-------------|--------|--------|--------|--------|--------|--------|---------------------|
C#|-------------|--------|--------|--------|--------|--------|--------|-17---17-------------|
G#|-------------|--------|--------|--------|--------|--------|--------|---------------------|
D#|-------------|--------|--------|--------|--------|--------|--------|---------------------|


D#|-15---15---19---19---|-19---19---19---19---|-17---17---15---15---|-----------19---19---|
A#|-----------20---20---|---------------------|-17---17-------------|-17---17---17---17---|
F#|-16---16-------------|-----------19---19---|-----------16---16---|-14---14-------------|
C#|---------------------|---------------------|---------------------|---------------------|
G#|---------------------|---------------------|---------------------|---------------------|
D#|---------------------|---------------------|---------------------|---------------------|


D#|-17---17---15---15---|-19-----19---|-------------|-------------|--------|--------|
A#|-17---17-------------|-20-----20---|-------------|-------------|--------|--------|
F#|-----------16---16---|-------------|-------------|-------------|--------|--------|
C#|---------------------|-------------|-------------|-------------|--------|--------|
G#|---------------------|-------------|-------------|-------------|--------|--------|
D#|---------------------|-------------|-------------|-------------|--------|--------|


D#|--------|--------|--------|--------|--------|--------|------17---17--------|------19---19---17---|
A#|--------|--------|--------|--------|--------|--------|------17---17---17---|-17---17---17---17---|
F#|--------|--------|--------|--------|--------|--------|----------------14---|-14------------------|
C#|--------|--------|--------|--------|--------|--------|---------------------|---------------------|
G#|--------|--------|--------|--------|--------|--------|---------------------|---------------------|
D#|--------|--------|--------|--------|--------|--------|---------------------|---------------------|


D#|-17---15---15---19---|-19---22---22---19---|-19---17---17---15---|-15---17---17---19---|
A#|-17-------------20---|-20------------------|------17---17--------|------17---17---17---|
F#|------16---16--------|----------------19---|-19-------------16---|-16------------------|
C#|---------------------|---------------------|---------------------|---------------------|
G#|---------------------|---------------------|---------------------|---------------------|
D#|---------------------|---------------------|---------------------|---------------------|


D#|-19---17---17---15---|-15---19---19---17---|-17---15---15---19---|-19---22---22---24---|
A#|-17---17---17--------|------20---20---17---|-17-------------20---|-20---22---22--------|
F#|----------------16---|-16------------------|------16---16--------|---------------------|
C#|---------------------|---------------------|---------------------|---------------------|
G#|---------------------|---------------------|---------------------|---------------------|
D#|---------------------|---------------------|---------------------|---------------------|


D#|-24---19---19---17---|-17---15---15---17---|-17---19---19---17---|-17---15---15---19---|
A#|------17---17---17---|-17-------------17---|-17---17---17---17---|-17-------------20---|
F#|---------------------|------16---16--------|---------------------|------16---16--------|
C#|---------------------|---------------------|---------------------|---------------------|
G#|---------------------|---------------------|---------------------|---------------------|
D#|---------------------|---------------------|---------------------|---------------------|


D#|-19---22---22---19---|-19---17---17---15---|-15---19---19---17---|-17---15---15---19---|
A#|-20-------------17---|-17---17---17--------|------17---17---17---|-17-------------17---|
F#|---------------------|----------------16---|-16------------------|------16---16--------|
C#|---------------------|---------------------|---------------------|---------------------|
G#|---------------------|---------------------|---------------------|---------------------|
D#|---------------------|---------------------|---------------------|---------------------|


D#|-19----------|
A#|-17----------|
F#|-------------|
C#|-------------|
G#|-------------|
D#|-------------|





Track 2: Acoustic

D#|------0----0--0--0----------|-0----0--0--0----------0----|-0--0--0----------0----0--0--0-----|
A#|------0----0--1--1----------|-0----0--1--1----------0----|-0--1--1----------0----0--1--1-----|
F#|------0----0--0--0----------|-0----0--0--0----------0----|-0--0--0----------0----0--0--0-----|
C#|------2----2--2--2----------|-2----2--2--2----------2----|-2--2--2----------2----2--2--2-----|
G#|------2----2--3--3--0-------|-2----2--3--3--0-------2----|-2--3--3--0-------2----2--3--3--0--|
D#|-0----0----0-----------0----|-0----0-----------0----0----|-0-----------0----0----0-----------|


D#|------0----0--0--0----------|-0----0--0--0------121212-7--7---5---|-7----12-12----12-7--7---5---|
A#|------0----0--1--1----------|-0----0--1--1------121212-7--7---5---|-7----12-12----12-7--7---5---|
F#|------0----0--0--0----------|-0----0--0--0------121212-7--7---5---|-7----12-12----12-7--7---5---|
C#|------2----2--2--2----------|-2----2--2--2------121212-7--7---5---|-7----12-12----12-7--7---5---|
G#|------2----2--3--3--0-------|-2----2--3--3------121212-7--7---5---|-7----12-12----12-7--7---5---|
D#|-0----0----0-----------0----|-0----0------------------------------|-----------------------------|


D#|-7----12-12---12-121212-7--7---5---|-7----12-12---12--12-7--7---5---|-7----12-12---12-121212-7--7---5---|
A#|-7----12-12---12-121212-7--7---5---|-7----12-12---12--12-7--7---5---|-7----12-12---12-121212-7--7---5---|
F#|-7----12-12---12-121212-7--7---5---|-7----12-12---12--12-7--7---5---|-7----12-12---12-121212-7--7---5---|
C#|-7----12-12---12-121212-7--7---5---|-7----12-12---12--12-7--7---5---|-7----12-12---12-121212-7--7---5---|
G#|-7----12-12---12-121212-7--7---5---|-7----12-12---12--12-7--7---5---|-7----12-12---12-121212-7--7---5---|
D#|-----------------------------------|--------------------------------|-----------------------------------|


D#|-7----12-12----12-7--7---5---|-7----12-12---12-121212-7--7---5---|-7----12-12----12-7--7---5---|
A#|-7----12-12----12-7--7---5---|-7----12-12---12-121212-7--7---5---|-7----12-12----12-7--7---5---|
F#|-7----12-12----12-7--7---5---|-7----12-12---12-121212-7--7---5---|-7----12-12----12-7--7---5---|
C#|-7----12-12----12-7--7---5---|-7----12-12---12-121212-7--7---5---|-7----12-12----12-7--7---5---|
G#|-7----12-12----12-7--7---5---|-7----12-12---12-121212-7--7---5---|-7----12-12----12-7--7---5---|
D#|-----------------------------|-----------------------------------|-----------------------------|


D#|-7----12-12---------|-0----0--0--0----------0----|-0--0-0-0----------0----0--0--0-----|
A#|-7----12-12---------|-0----0--1--1----------0----|-0--1-1-1----------0----0--1--1-----|
F#|-7----12-12---------|-0----0--0--0----------0----|-0--0-0-0----------0----0--0--0-----|
C#|-7----12-12---------|-2----2--2--2----------2----|-2--2-2-2----------2----2--2--2-----|
G#|-7----12-12---------|-2----2--3--3--0-------2----|-2--3-3-3--0-------2----2--3--3--0--|
D#|---------------0----|-0----0-----------0----0----|-0------------0----0----0-----------|


D#|------0----0--0--0----------|-0----0--0--0----------0----|-0--0--0----------0----0--0--0-----|
A#|------0----0--1--1----------|-0----0--1--1----------0----|-0--1--1----------0----0--1--1-----|
F#|------0----0--0--0----------|-0----0--0--0----------0----|-0--0--0----------0----0--0--0-----|
C#|------2----2--2--2----------|-2----2--2--2----------2----|-2--2--2----------2----2--2--2-----|
G#|------2----2--3--3--0-------|-2----2--3--3--0-------2----|-2--3--3--0-------2----2--3--3--0--|
D#|-0----0----0-----------0----|-0----0-----------0----0----|-0-----------0----0----0-----------|


D#|------0----0--0--0------121212-7--|-7---5---7----12-12----12-7--|-7---5----------|
A#|------0----0--1--1------121212-7--|-7---5---7----12-12----12-7--|-7---5----------|
F#|------0----0--0--0------121212-7--|-7---5---7----12-12----12-7--|-7---5----------|
C#|------2----2--2--2------121212-7--|-7---5---7----12-12----12-7--|-7---5----------|
G#|------2----2--3--3------121212-7--|-7---5---7----12-12----12-7--|-7---5----------|
D#|-0----0----0----------------------|-----------------------------|----------------|


D#|-7---5---7----12-12---12--12-7--|-7---5---7----12-12---12-121212-7--|-7---5---7----12-12----12-7--|
A#|-7---5---7----12-12---12--12-7--|-7---5---7----12-12---12-121212-7--|-7---5---7----12-12----12-7--|
F#|-7---5---7----12-12---12--12-7--|-7---5---7----12-12---12-121212-7--|-7---5---7----12-12----12-7--|
C#|-7---5---7----12-12---12--12-7--|-7---5---7----12-12---12-121212-7--|-7---5---7----12-12----12-7--|
G#|-7---5---7----12-12---12--12-7--|-7---5---7----12-12---12-121212-7--|-7---5---7----12-12----12-7--|
D#|--------------------------------|-----------------------------------|-----------------------------|


D#|-7---5---7----12-12---12-121212-7--|-7---5---7----12-12----12-7--|-7---5---7----12-12----|
A#|-7---5---7----12-12---12-121212-7--|-7---5---7----12-12----12-7--|-7---5---7----12-12----|
F#|-7---5---7----12-12---12-121212-7--|-7---5---7----12-12----12-7--|-7---5---7----12-12----|
C#|-7---5---7----12-12---12-121212-7--|-7---5---7----12-12----12-7--|-7---5---7----12-12----|
G#|-7---5---7----12-12---12-121212-7--|-7---5---7----12-12----12-7--|-7---5---7----12-12----|
D#|-----------------------------------|-----------------------------|-----------------------|


D#|------0----0--0--0----------|-0----0--0--0----------0----|-0--0--0----------0----0--0--0-----|
A#|------0----0--1--1----------|-0----0--1--1----------0----|-0--1--1----------0----0--1--1-----|
F#|------0----0--0--0----------|-0----0--0--0----------0----|-0--0--0----------0----0--0--0-----|
C#|------2----2--2--2----------|-2----2--2--2----------2----|-2--2--2----------2----2--2--2-----|
G#|------2----2--3--3--0-------|-2----2--3--3--0-------2----|-2--3--3--0-------2----2--3--3--0--|
D#|-0----0----0-----------0----|-0----0-----------0----0----|-0-----------0----0----0-----------|


D#|------0----0--0--0----------|-0----0--0--0----------0----|-0--0--0----------0----0--0--0---|
A#|------0----0--1--1----------|-0----0--1--1----------0----|-0--1--1----------0----0--1--1---|
F#|------0----0--0--0----------|-0----0--0--0----------0----|-0--0--0----------0----0--0--0---|
C#|------2----2--2--2----------|-2----2--2--2----------2----|-2--2--2----------2----2--2--2---|
G#|------2----2--3--3--0-------|-2----2--3--3--0-------2----|-2--3--3--0-------2----2--3--3---|
D#|-0----0----0-----------0----|-0----0-----------0----0----|-0-----------0----0----0---------|


D#|----121212-7--7---5---7----12-12---|-----12-7--7---5---7----12-12---|-12-121212-7--7---5---7----12-12---|
A#|----121212-7--7---5---7----12-12---|-----12-7--7---5---7----12-12---|-12-121212-7--7---5---7----12-12---|
F#|----121212-7--7---5---7----12-12---|-----12-7--7---5---7----12-12---|-12-121212-7--7---5---7----12-12---|
C#|----121212-7--7---5---7----12-12---|-----12-7--7---5---7----12-12---|-12-121212-7--7---5---7----12-12---|
G#|----121212-7--7---5---7----12-12---|-----12-7--7---5---7----12-12---|-12-121212-7--7---5---7----12-12---|
D#|-----------------------------------|--------------------------------|-----------------------------------|


D#|-12--12-7--7---5---7----12-12---|-12-121212-7--7---5---7----12-12---|-----12-7--7---5---7----12-12---|
A#|-12--12-7--7---5---7----12-12---|-12-121212-7--7---5---7----12-12---|-----12-7--7---5---7----12-12---|
F#|-12--12-7--7---5---7----12-12---|-12-121212-7--7---5---7----12-12---|-----12-7--7---5---7----12-12---|
C#|-12--12-7--7---5---7----12-12---|-12-121212-7--7---5---7----12-12---|-----12-7--7---5---7----12-12---|
G#|-12--12-7--7---5---7----12-12---|-12-121212-7--7---5---7----12-12---|-----12-7--7---5---7----12-12---|
D#|--------------------------------|-----------------------------------|--------------------------------|


D#|-12-121212-7--7---5---7----12-12---|-----12-7--7---5---7----12-12---|-----------0----0--0--0-----|
A#|-12-121212-7--7---5---7----12-12---|-----12-7--7---5---7----12-12---|-----------0----0--1--1-----|
F#|-12-121212-7--7---5---7----12-12---|-----12-7--7---5---7----12-12---|-----------0----0--0--0-----|
C#|-12-121212-7--7---5---7----12-12---|-----12-7--7---5---7----12-12---|-----------2----2--2--2-----|
G#|-12-121212-7--7---5---7----12-12---|-----12-7--7---5---7----12-12---|-----------2----2--3--3--0--|
D#|-----------------------------------|--------------------------------|------0----0----0-----------|


D#|------0----0--0--0----------|-0----0--0--0----------0----|-0--0--0----------0----0--0--0-----|
A#|------0----0--1--1----------|-0----0--1--1----------0----|-0--1--1----------0----0--1--1-----|
F#|------0----0--0--0----------|-0----0--0--0----------0----|-0--0--0----------0----0--0--0-----|
C#|------2----2--2--2----------|-2----2--2--2----------2----|-2--2--2----------2----2--2--2-----|
G#|------2----2--3--3--0-------|-2----2--3--3--0-------2----|-2--3--3--0-------2----2--3--3--0--|
D#|-0----0----0-----------0----|-0----0-----------0----0----|-0-----------0----0----0-----------|


D#|------0----0--0--0----------|-0----0--0--0----------0----|-0--0--0----------0----0--0--0-----|
A#|------0----0--1--1----------|-0----0--1--1----------0----|-0--1--1----------0----0--1--1-----|
F#|------0----0--0--0----------|-0----0--0--0----------0----|-0--0--0----------0----0--0--0-----|
C#|------2----2--2--2----------|-2----2--2--2----------2----|-2--2--2----------2----2--2--2-----|
G#|------2----2--3--3--0-------|-2----2--3--3--0-------2----|-2--3--3--0-------2----2--3--3--0--|
D#|-0----0----0-----------0----|-0----0-----------0----0----|-0-----------0----0----0-----------|


D#|------0----0--0--0----------|-0----0--0--0----------0----|-0--0--0----------0----0--0--0-----|
A#|------0----0--1--1----------|-0----0--1--1----------0----|-0--1--1----------0----0--1--1-----|
F#|------0----0--0--0----------|-0----0--0--0----------0----|-0--0--0----------0----0--0--0-----|
C#|------2----2--2--2----------|-2----2--2--2----------2----|-2--2--2----------2----2--2--2-----|
G#|------2----2--3--3--0-------|-2----2--3--3--0-------2----|-2--3--3--0-------2----2--3--3--0--|
D#|-0----0----0-----------0----|-0----0-----------0----0----|-0-----------0----0----0-----------|


D#|------0----0--0--0----------|-0----0--0--0----------0----|-0--0--0----------0----0--0--0-----|
A#|------0----0--1--1----------|-0----0--1--1----------0----|-0--1--1----------0----0--1--1-----|
F#|------0----0--0--0----------|-0----0--0--0----------0----|-0--0--0----------0----0--0--0-----|
C#|------2----2--2--2----------|-2----2--2--2----------2----|-2--2--2----------2----2--2--2-----|
G#|------2----2--3--3--0-------|-2----2--3--3--0-------2----|-2--3--3--0-------2----2--3--3--0--|
D#|-0----0----0-----------0----|-0----0-----------0----0----|-0-----------0----0----0-----------|


D#|------0----0--0--0----------|-0----0--0--0----------0----|-0--0--0----------0----0--0--0-----|
A#|------0----0--1--1----------|-0----0--1--1----------0----|-0--1--1----------0----0--1--1-----|
F#|------0----0--0--0----------|-0----0--0--0----------0----|-0--0--0----------0----0--0--0-----|
C#|------2----2--2--2----------|-2----2--2--2----------2----|-2--2--2----------2----2--2--2-----|
G#|------2----2--3--3--0-------|-2----2--3--3--0-------2----|-2--3--3--0-------2----2--3--3--0--|
D#|-0----0----0-----------0----|-0----0-----------0----0----|-0-----------0----0----0-----------|


D#|------0----0--0--0----------|-0----0--0--0----------0----|-0--0--0----------0----0--0--0-----|
A#|------0----0--1--1----------|-0----0--1--1----------0----|-0--1--1----------0----0--1--1-----|
F#|------0----0--0--0----------|-0----0--0--0----------0----|-0--0--0----------0----0--0--0-----|
C#|------2----2--2--2----------|-2----2--2--2----------2----|-2--2--2----------2----2--2--2-----|
G#|------2----2--3--3--0-------|-2----2--3--3--0-------2----|-2--3--3--0-------2----2--3--3--0--|
D#|-0----0----0-----------0----|-0----0-----------0----0----|-0-----------0----0----0-----------|


D#|------0----0--0--0----------|-0----0--0--0----------0----|-0--0--0------------|
A#|------0----0--1--1----------|-0----0--1--1----------0----|-0--1--1------------|
F#|------0----0--0--0----------|-0----0--0--0----------0----|-0--0--0------------|
C#|------2----2--2--2----------|-2----2--2--2----------2----|-2--2--2------------|
G#|------2----2--3--3--0-------|-2----2--3--3--0-------2----|-2--3--3--0---------|
D#|-0----0----0-----------0----|-0----0-----------0----0----|-0------------------|





Track 3: Clean tone w/echo

D#|--------|--------|--------|--------|--------|-------------|--------|--------|--------|
A#|--------|--------|--------|--------|--------|-------------|--------|--------|--------|
F#|--------|--------|--------|--------|--------|-------------|--------|--------|--------|
C#|--------|--------|--------|--------|--------|-------------|--------|--------|--------|
G#|--------|--------|--------|--------|--------|-------------|--------|--------|--------|
D#|--------|--------|--------|--------|--------|-------------|--------|--------|--------|


D#|--------|--------|--------|--------|--------|--------|--------|--------|--------|
A#|--------|--------|--------|--------|--------|--------|--------|--------|--------|
F#|--------|--------|--------|--------|--------|--------|--------|--------|--------|
C#|--------|--------|--------|--------|--------|--------|--------|--------|--------|
G#|--------|--------|--------|--------|--------|--------|--------|--------|--------|
D#|--------|--------|--------|--------|--------|--------|--------|--------|--------|


D#|--------|--------|--------|--------|--------|--------|--------|--------|--------|
A#|--------|--------|--------|--------|--------|--------|--------|--------|--------|
F#|--------|--------|--------|--------|--------|--------|--------|--------|--------|
C#|--------|--------|--------|--------|--------|--------|--------|--------|--------|
G#|--------|--------|--------|--------|--------|--------|--------|--------|--------|
D#|--------|--------|--------|--------|--------|--------|--------|--------|--------|


D#|--------|--------|--------|--------|--------|--------|--------|--------|--------|
A#|--------|--------|--------|--------|--------|--------|--------|--------|--------|
F#|--------|--------|--------|--------|--------|--------|--------|--------|--------|
C#|--------|--------|--------|--------|--------|--------|--------|--------|--------|
G#|--------|--------|--------|--------|--------|--------|--------|--------|--------|
D#|--------|--------|--------|--------|--------|--------|--------|--------|--------|


D#|--------|--------|--------|--------|--------|--------|--------|--------|--------|
A#|--------|--------|--------|--------|--------|--------|--------|--------|--------|
F#|--------|--------|--------|--------|--------|--------|--------|--------|--------|
C#|--------|--------|--------|--------|--------|--------|--------|--------|--------|
G#|--------|--------|--------|--------|--------|--------|--------|--------|--------|
D#|--------|--------|--------|--------|--------|--------|--------|--------|--------|


D#|--------|--------|--------|--------|--------|--------|--------|--------|--------|
A#|--------|--------|--------|--------|--------|--------|--------|--------|--------|
F#|--------|--------|--------|--------|--------|--------|--------|--------|--------|
C#|--------|--------|--------|--------|--------|--------|--------|--------|--------|
G#|--------|--------|--------|--------|--------|--------|--------|--------|--------|
D#|--------|--------|--------|--------|--------|--------|--------|--------|--------|


D#|--------|--------|--------|--------|--------|--------|--------|--------|--------|
A#|--------|--------|--------|--------|--------|--------|--------|--------|--------|
F#|--------|--------|--------|--------|--------|--------|--------|--------|--------|
C#|--------|--------|--------|--------|--------|--------|--------|--------|--------|
G#|--------|--------|--------|--------|--------|--------|--------|--------|--------|
D#|--------|--------|--------|--------|--------|--------|--------|--------|--------|





Track 4: Clean tone w/chorus

D#|--------|--------|--------|--------|--------|--------|-------------|-------------|
A#|--------|--------|--------|--------|--------|--------|-------------|-------------|
F#|--------|--------|--------|--------|--------|--------|-12-----12---|-------------|
C#|--------|--------|--------|--------|--------|--------|-------------|-------------|
G#|--------|--------|--------|--------|--------|--------|-------------|-------------|
D#|--------|--------|--------|--------|--------|--------|-------------|-------------|


D#|--------|--------|--------|--------|--------|--------|--------|--------|--------|
A#|--------|--------|--------|--------|--------|--------|--------|--------|--------|
F#|--------|--------|--------|--------|--------|--------|--------|--------|--------|
C#|--------|--------|--------|--------|--------|--------|--------|--------|--------|
G#|--------|--------|--------|--------|--------|--------|--------|--------|--------|
D#|--------|--------|--------|--------|--------|--------|--------|--------|--------|


D#|--------|--------|--------|-------------|--------|--------|--------|--------|--------|
A#|--------|--------|--------|------12-----|--------|--------|--------|--------|--------|
F#|--------|--------|--------|-------------|--------|--------|--------|--------|--------|
C#|--------|--------|--------|-------------|--------|--------|--------|--------|--------|
G#|--------|--------|--------|------7------|--------|--------|--------|--------|--------|
D#|--------|--------|--------|-------------|--------|--------|--------|--------|--------|


D#|--------|--------|--------|--------|--------|--------|--------|--------|--------|
A#|--------|--------|--------|--------|--------|--------|--------|--------|--------|
F#|--------|--------|--------|--------|--------|--------|--------|--------|--------|
C#|--------|--------|--------|--------|--------|--------|--------|--------|--------|
G#|--------|--------|--------|--------|--------|--------|--------|--------|--------|
D#|--------|--------|--------|--------|--------|--------|--------|--------|--------|


D#|--------|--------|--------|--------|--------|--------|--------|--------|--------|
A#|--------|--------|--------|--------|--------|--------|--------|--------|--------|
F#|--------|--------|--------|--------|--------|--------|--------|--------|--------|
C#|--------|--------|--------|--------|--------|--------|--------|--------|--------|
G#|--------|--------|--------|--------|--------|--------|--------|--------|--------|
D#|--------|--------|--------|--------|--------|--------|--------|--------|--------|


D#|--------|--------|--------|--------|--------|--------|--------|--------|--------|
A#|--------|--------|--------|--------|--------|--------|--------|--------|--------|
F#|--------|--------|--------|--------|--------|--------|--------|--------|--------|
C#|--------|--------|--------|--------|--------|--------|--------|--------|--------|
G#|--------|--------|--------|--------|--------|--------|--------|--------|--------|
D#|--------|--------|--------|--------|--------|--------|--------|--------|--------|


D#|--------|--------|--------|--------|--------|--------|--------|--------|--------|
A#|--------|--------|--------|--------|--------|--------|--------|--------|--------|
F#|--------|--------|--------|--------|--------|--------|--------|--------|--------|
C#|--------|--------|--------|--------|--------|--------|--------|--------|--------|
G#|--------|--------|--------|--------|--------|--------|--------|--------|--------|
D#|--------|--------|--------|--------|--------|--------|--------|--------|--------|


D#|--------|
A#|--------|
F#|--------|
C#|--------|
G#|--------|
D#|--------|





Track 5: Clean tone w/echo

D#|--------|--------|--------|--------|--------|--------|--------|--------|--------|
A#|--------|--------|--------|--------|--------|--------|--------|--------|--------|
F#|--------|--------|--------|--------|--------|--------|--------|--------|--------|
C#|--------|--------|--------|--------|--------|--------|--------|--------|--------|
G#|--------|--------|--------|--------|--------|--------|--------|--------|--------|
D#|--------|--------|--------|--------|--------|--------|--------|--------|--------|


D#|--------|--------|-------------|--------|--------|--------|--------|--------|--------|
A#|--------|--------|-------------|--------|--------|--------|--------|--------|--------|
F#|--------|--------|-------------|--------|--------|--------|--------|--------|--------|
C#|--------|--------|-------------|--------|--------|--------|--------|--------|--------|
G#|--------|--------|-------------|--------|--------|--------|--------|--------|--------|
D#|--------|--------|-------------|--------|--------|--------|--------|--------|--------|


D#|--------|--------|--------|--------|--------|--------|--------|--------|--------|
A#|--------|--------|--------|--------|--------|--------|--------|--------|--------|
F#|--------|--------|--------|--------|--------|--------|--------|--------|--------|
C#|--------|--------|--------|--------|--------|--------|--------|--------|--------|
G#|--------|--------|--------|--------|--------|--------|--------|--------|--------|
D#|--------|--------|--------|--------|--------|--------|--------|--------|--------|


D#|--------|--------|--------|--------|--------|--------|--------|--------|--------|
A#|--------|--------|--------|--------|--------|--------|--------|--------|--------|
F#|--------|--------|--------|--------|--------|--------|--------|--------|--------|
C#|--------|--------|--------|--------|--------|--------|--------|--------|--------|
G#|--------|--------|--------|--------|--------|--------|--------|--------|--------|
D#|--------|--------|--------|--------|--------|--------|--------|--------|--------|


D#|--------|--------|--------|--------|--------|--------|--------|--------|--------|
A#|--------|--------|--------|--------|--------|--------|--------|--------|--------|
F#|--------|--------|--------|--------|--------|--------|--------|--------|--------|
C#|--------|--------|--------|--------|--------|--------|--------|--------|--------|
G#|--------|--------|--------|--------|--------|--------|--------|--------|--------|
D#|--------|--------|--------|--------|--------|--------|--------|--------|--------|


D#|--------|--------|--------|--------|--------|--------|--------|--------|--------|
A#|--------|--------|--------|--------|--------|--------|--------|--------|--------|
F#|--------|--------|--------|--------|--------|--------|--------|--------|--------|
C#|--------|--------|--------|--------|--------|--------|--------|--------|--------|
G#|--------|--------|--------|--------|--------|--------|--------|--------|--------|
D#|--------|--------|--------|--------|--------|--------|--------|--------|--------|


D#|--------|--------|--------|--------|--------|--------|--------|--------|--------|
A#|--------|--------|--------|--------|--------|--------|--------|--------|--------|
F#|--------|--------|--------|--------|--------|--------|--------|--------|--------|
C#|--------|--------|--------|--------|--------|--------|--------|--------|--------|
G#|--------|--------|--------|--------|--------|--------|--------|--------|--------|
D#|--------|--------|--------|--------|--------|--------|--------|--------|--------|





Track 6: Two violins arranged for one

D#|--------|--------|--------|--------|--------|--------|--------|--------|--------|
A#|--------|--------|--------|--------|--------|--------|--------|--------|--------|
F#|--------|--------|--------|--------|--------|--------|--------|--------|--------|
C#|--------|--------|--------|--------|--------|--------|--------|--------|--------|
G#|--------|--------|--------|--------|--------|--------|--------|--------|--------|
D#|--------|--------|--------|--------|--------|--------|--------|--------|--------|


D#|--------|--------|--------|--------|--------|------------------------------------------|
A#|--------|--------|--------|--------|--------|------17-15-17-15-17-15----15-17-15-17-15-|
F#|--------|--------|--------|--------|--------|------------------------16----------------|
C#|--------|--------|--------|--------|--------|------------------------------------------|
G#|--------|--------|--------|--------|--------|------------------------------------------|
D#|--------|--------|--------|--------|--------|------------------------------------------|


D#|-------------------------------------------------|-------------------------------------------------|
A#|----15-17-15-17-15-17-15-17-15-17-15-17-15-17-15-|----15-17-15-------17-15-17-15-17-15-------17-15-|
F#|-16----------------------------------------------|-16-------------16----------------------16-------|
C#|-------------------------------------------------|-------------14----------------------14----------|
G#|-------------------------------------------------|-------------------------------------------------|
D#|-------------------------------------------------|-------------------------------------------------|


D#|-------17----------------------------------------|-------17----------------------------22--------|
A#|-17-15----15-------17-15-17-15-17-15-------17-15-|-17-15----15-------17-15-17-15-17-15-17-20-17--|
F#|----------------16----------------------16-------|----------------16-----------------------------|
C#|-------------14----------------------14----------|-------------14----------------------14-17-14--|
G#|-------------------------------------------------|-----------------------------------------------|
D#|-------------------------------------------------|-----------------------------------------------|


D#|-----24--24---24---12---|-12-------------|--------|--------|--------|--------|--------|
A#|-17-----------17--------|----------------|--------|--------|--------|--------|--------|
F#|------------------------|----------------|--------|--------|--------|--------|--------|
C#|-14-----------14--------|----------------|--------|--------|--------|--------|--------|
G#|------------------------|----------------|--------|--------|--------|--------|--------|
D#|------------------------|----------------|--------|--------|--------|--------|--------|


D#|--------|--------|--------|--------|--------|--------|--------|--------|--------|
A#|--------|--------|--------|--------|--------|--------|--------|--------|--------|
F#|--------|--------|--------|--------|--------|--------|--------|--------|--------|
C#|--------|--------|--------|--------|--------|--------|--------|--------|--------|
G#|--------|--------|--------|--------|--------|--------|--------|--------|--------|
D#|--------|--------|--------|--------|--------|--------|--------|--------|--------|


D#|--------|--------|--------|--------|--------|--------|--------|--------|--------|
A#|--------|--------|--------|--------|--------|--------|--------|--------|--------|
F#|--------|--------|--------|--------|--------|--------|--------|--------|--------|
C#|--------|--------|--------|--------|--------|--------|--------|--------|--------|
G#|--------|--------|--------|--------|--------|--------|--------|--------|--------|
D#|--------|--------|--------|--------|--------|--------|--------|--------|--------|


D#|--------|--------|--------|--------|--------|--------|--------|--------|--------|
A#|--------|--------|--------|--------|--------|--------|--------|--------|--------|
F#|--------|--------|--------|--------|--------|--------|--------|--------|--------|
C#|--------|--------|--------|--------|--------|--------|--------|--------|--------|
G#|--------|--------|--------|--------|--------|--------|--------|--------|--------|
D#|--------|--------|--------|--------|--------|--------|--------|--------|--------|


D#|------------------------------------|---------------------------------|----------------19--24------24-22-22-24-|
A#|-----------------19-20-19-19--------|---------19-20-22-22-19----------|----19-20-22-22-----17-22---------------|
F#|--------------21-------------19-----|-21---21-------14-14-----17-21---|-21-------14-14-16-----14---------------|
C#|----------21--14-16-17-16-16-----21-|-14---14-16-17-------16-----14---|-14-16-17-------------------16----------|
G#|----------14-----------------17--14-|-------------------------17------|----------------------------------------|
D#|------------------------------------|---------------------------------|----------------------------------------|


D#|-24-19------------------------------|---------------------------------|----------------19--24------24-22-22-24-|
A#|-----------------19-20-19-19--------|---------19-20-22-22-19----------|----19-20-22-22-----17-22---------------|
F#|---------21---21-------------19-----|-21---21-------14-14-----19-21---|-21-------14-14-16-----14---------------|
C#|-17------14---14-16-17-16-16-----21-|-14---14-16-17-------16-----14---|-14-16-17-------------------16----------|
G#|-----------------------------19--14-|-------------------------17------|----------------------------------------|
D#|------------------------------------|---------------------------------|----------------------------------------|


D#|-24-19---24--------------------19---22-|-22----24----19-19-19----19-19-19----24----------|
A#|---------------------------------------|----------------------------------22-------------|
F#|---------------------------------------|----------------------21-------------------------|
C#|-17------14-------14-14----------------|-14-------14-14----------------------14-------14-|
G#|------------17-17-------14-14----------|----17-17-------14-14-------------------17-17----|
D#|---------------------------------------|-------------------------------------------------|


D#|----24-24--19-19-19----24-19----19-24-19----19-|-24-19----29--------|
A#|--------------------22-------22----------22----|-------22-----------|
F#|-----------------------------------------------|--------------------|
C#|-14--------------------14----------14----------|-14-----------------|
G#|----14-14-----------------14----14----14----14-|----14----14--------|
D#|-----------------------------17----------17----|-------17-----------|





Track 7: Clean tone w/echo

D#|--------|--------|--------|--------|--------|--------|--------|--------|--------|
A#|--------|--------|--------|--------|--------|--------|--------|--------|--------|
F#|--------|--------|--------|--------|--------|--------|--------|--------|--------|
C#|--------|--------|--------|--------|--------|--------|--------|--------|--------|
G#|--------|--------|--------|--------|--------|--------|--------|--------|--------|
D#|--------|--------|--------|--------|--------|--------|--------|--------|--------|


D#|--------|--------|--------|--------|--------|--------|--------|--------|--------|
A#|--------|--------|--------|--------|--------|--------|--------|--------|--------|
F#|--------|--------|--------|--------|--------|--------|--------|--------|--------|
C#|--------|--------|--------|--------|--------|--------|--------|--------|--------|
G#|--------|--------|--------|--------|--------|--------|--------|--------|--------|
D#|--------|--------|--------|--------|--------|--------|--------|--------|--------|


D#|--------|--------|--------|-----------------|-------------|--------|--------|--------|
A#|--------|--------|--------|-12--------------|-------------|--------|--------|--------|
F#|--------|--------|--------|-----------------|-------------|--------|--------|--------|
C#|--------|--------|--------|-----------------|-------------|--------|--------|--------|
G#|--------|--------|--------|-7---------------|-------------|--------|--------|--------|
D#|--------|--------|--------|-----------------|-------------|--------|--------|--------|


D#|--------|--------|--------|--------|--------|--------|--------|--------|--------|
A#|--------|--------|--------|--------|--------|--------|--------|--------|--------|
F#|--------|--------|--------|--------|--------|--------|--------|--------|--------|
C#|--------|--------|--------|--------|--------|--------|--------|--------|--------|
G#|--------|--------|--------|--------|--------|--------|--------|--------|--------|
D#|--------|--------|--------|--------|--------|--------|--------|--------|--------|


D#|--------|--------|--------|--------|--------|--------|--------|--------|--------|
A#|--------|--------|--------|--------|--------|--------|--------|--------|--------|
F#|--------|--------|--------|--------|--------|--------|--------|--------|--------|
C#|--------|--------|--------|--------|--------|--------|--------|--------|--------|
G#|--------|--------|--------|--------|--------|--------|--------|--------|--------|
D#|--------|--------|--------|--------|--------|--------|--------|--------|--------|


D#|--------|--------|--------|--------|--------|--------|--------|--------|--------|
A#|--------|--------|--------|--------|--------|--------|--------|--------|--------|
F#|--------|--------|--------|--------|--------|--------|--------|--------|--------|
C#|--------|--------|--------|--------|--------|--------|--------|--------|--------|
G#|--------|--------|--------|--------|--------|--------|--------|--------|--------|
D#|--------|--------|--------|--------|--------|--------|--------|--------|--------|


D#|--------|--------|--------|--------|--------|--------|--------|--------|--------|
A#|--------|--------|--------|--------|--------|--------|--------|--------|--------|
F#|--------|--------|--------|--------|--------|--------|--------|--------|--------|
C#|--------|--------|--------|--------|--------|--------|--------|--------|--------|
G#|--------|--------|--------|--------|--------|--------|--------|--------|--------|
D#|--------|--------|--------|--------|--------|--------|--------|--------|--------|


D#|--------|
A#|--------|
F#|--------|
C#|--------|
G#|--------|
D#|--------|





Track 8: Two 12-string guitars arranged for one

D#|--------|--------|--------|--------|--------|--------|--------|--------|--------|
A#|--------|--------|--------|--------|--------|--------|--------|--------|--------|
F#|--------|--------|--------|--------|--------|--------|--------|--------|--------|
C#|--------|--------|--------|--------|--------|--------|--------|--------|--------|
G#|--------|--------|--------|--------|--------|--------|--------|--------|--------|
D#|--------|--------|--------|--------|--------|--------|--------|--------|--------|


D#|--------|--------|--------|--------|--------|--------|--------|--------|--------|
A#|--------|--------|--------|--------|--------|--------|--------|--------|--------|
F#|--------|--------|--------|--------|--------|--------|--------|--------|--------|
C#|--------|--------|--------|--------|--------|--------|--------|--------|--------|
G#|--------|--------|--------|--------|--------|--------|--------|--------|--------|
D#|--------|--------|--------|--------|--------|--------|--------|--------|--------|


D#|--------|--------|--------|--------|--------|--------|--------|--------|--------|
A#|--------|--------|--------|--------|--------|--------|--------|--------|--------|
F#|--------|--------|--------|--------|--------|--------|--------|--------|--------|
C#|--------|--------|--------|--------|--------|--------|--------|--------|--------|
G#|--------|--------|--------|--------|--------|--------|--------|--------|--------|
D#|--------|--------|--------|--------|--------|--------|--------|--------|--------|


D#|--------|--------|--------|--------|--------|--------|-------------------------------------------------|
A#|--------|--------|--------|--------|--------|--------|-0--------0--------0--------0--------0-----------|
F#|--------|--------|--------|--------|--------|--------|-------0--------0--------0--------0--------0-----|
C#|--------|--------|--------|--------|--------|--------|----4--------5--------7--------5--------4-----0--|
G#|--------|--------|--------|--------|--------|--------|-------------------------------------------------|
D#|--------|--------|--------|--------|--------|--------|-------------------------------------------------|


D#|-----------------------------------------------|-----------------------------------------------|
A#|-----------------------0--------0--------0-----|----0--------0---------------------------------|
F#|--------------------0--------0--------0--------|-0--------0--------0------------------------0--|
C#|-2--4--5---------2--------4--------5--------7--|-------5--------4-----0--2--4--5---------2-----|
G#|----------3--3---------------------------------|----------------------------------3--3---------|
D#|-----------------------------------------------|-----------------------------------------------|


D#|-------------------------------------------------|-----------------------------------------------|
A#|-0--------0--------0--------0--------0-----------|-----------------------0--------0--------0-----|
F#|-------0--------0--------0--------0--------0-----|--------------------0--------0--------0--------|
C#|----4--------5--------7--------5--------4-----0--|-2--4--5---------2--------4--------5--------7--|
G#|-------------------------------------------------|----------3--3---------------------------------|
D#|-------------------------------------------------|-----------------------------------------------|


D#|-----------------------------------------------|-------------------------------------------------|
A#|----0--------0---------------------------------|-0--------0--------0--------0--------0-----------|
F#|-0--------0--------0------------------------0--|-------0--------0--------0--------0--------0-----|
C#|-------5--------4-----0--2--4--5---------2-----|----4--------5--------7--------5--------4-----0--|
G#|----------------------------------3--3---------|-------------------------------------------------|
D#|-----------------------------------------------|-------------------------------------------------|


D#|-----------------------------------------------|--------------------|--------|--------|
A#|-----------------------0--------0--------0-----|----0---------------|--------|--------|
F#|--------------------0--------0--------0--------|-0--------0---------|--------|--------|
C#|-2--4--5---------2--------4--------5--------7--|-------5------------|--------|--------|
G#|----------3--3---------------------------------|--------------------|--------|--------|
D#|-----------------------------------------------|--------------------|--------|--------|


D#|--------|--------|--------|--------|--------|--------|--------|--------|--------|
A#|--------|--------|--------|--------|--------|--------|--------|--------|--------|
F#|--------|--------|--------|--------|--------|--------|--------|--------|--------|
C#|--------|--------|--------|--------|--------|--------|--------|--------|--------|
G#|--------|--------|--------|--------|--------|--------|--------|--------|--------|
D#|--------|--------|--------|--------|--------|--------|--------|--------|--------|


D#|--------|--------|--------|--------|--------|--------|--------|--------|--------|
A#|--------|--------|--------|--------|--------|--------|--------|--------|--------|
F#|--------|--------|--------|--------|--------|--------|--------|--------|--------|
C#|--------|--------|--------|--------|--------|--------|--------|--------|--------|
G#|--------|--------|--------|--------|--------|--------|--------|--------|--------|
D#|--------|--------|--------|--------|--------|--------|--------|--------|--------|


D#|--------|
A#|--------|
F#|--------|
C#|--------|
G#|--------|
D#|--------|





Track 9: Larry Mullen, Jr.

F#|--------|--------|--------|--------|---------------------------|---------------------------------------------|
C#|--------|--------|--------|--------|----------5-----5----------|----------------5-----5----------------------|
G#|--------|--------|--------|--------|-------7-----7-----7----3--|-3--3--3--5--7-----7-----7----3--3--3--3--5--|
D#|--------|--------|--------|--------|---------------------------|---------------------------------------------|


F#|---------------------------------------------|-----------------------------------------|
C#|----5-----5-------------------------5-----5--|------------------------5-----5----------|
G#|-7-----7-----7----3--3--3--3--5--7-----7-----|-7----3--3--3--3--5--7-----7-----7----3--|
D#|---------------------------------------------|-----------------------------------------|


F#|---------------------------------------------|---------------------------------------------|
C#|----------------5-----5----------------------|----5-----5-------------------------5-----5--|
G#|-3--3--3--5--7-----7-----7----3--3--3--3--5--|-7-----7-----7----3--3--3--3--5--7-----7-----|
D#|---------------------------------------------|---------------------------------------------|


F#|-----------------------------------------|---------------------------------------------|
C#|------------------------5-----5----------|----------------5-----5----------------------|
G#|-7----3--3--3--3--5--7-----7-----7----3--|-3--3--3--5--7-----7-----7----3--3--3--3--5--|
D#|-----------------------------------------|---------------------------------------------|


F#|---------------------------------------------|-----------------------------------------|
C#|----5-----5-------------------------5-----5--|------------------------5-----5----------|
G#|-7-----7-----7----3--3--3--3--5--7-----7-----|-7----3--3--3--3--5--7-----7-----7----3--|
D#|---------------------------------------------|-----------------------------------------|


F#|---------------------------------------------|---------------------------------------------|
C#|----------------5-----5----------------------|----5-----5-------------------------5-----5--|
G#|-3--3--3--5--7-----7-----7----3--3--3--3--5--|-7-----7-----7----3--3--3--3--5--7-----7-----|
D#|---------------------------------------------|---------------------------------------------|


F#|-----------------------------------------|---------------------------------------------|
C#|------------------------5-----5----------|----------------5-----5----------------------|
G#|-7----3--3--3--3--5--7-----7-----7----3--|-3--3--3--5--7-----7-----7----3--3--3--3--5--|
D#|-----------------------------------------|---------------------------------------------|


F#|---------------------------------------------|-----------------------------------------|
C#|----5-----5-------------------------5-----5--|------------------------5-----5----------|
G#|-7-----7-----7----3--3--3--3--5--7-----7-----|-7----3--3--3--3--5--7-----7-----7----3--|
D#|---------------------------------------------|-----------------------------------------|


F#|---------------------------------------------|---------------------------------------------|
C#|----------------5-----5----------------------|----5-----5-------------------------5-----5--|
G#|-3--3--3--5--7-----7-----7----3--3--3--3--5--|-7-----7-----7----3--3--3--3--5--7-----7-----|
D#|---------------------------------------------|---------------------------------------------|


F#|-----------------------------------------|---------------------------------------------|
C#|------------------------5-----5----------|----------------5-----5----------------------|
G#|-7----3--3--3--3--5--7-----7-----7----3--|-3--3--3--5--7-----7-----7----3--3--3--3--5--|
D#|-----------------------------------------|---------------------------------------------|


F#|---------------------------------------------|-----------------------------------------|
C#|----5-----5-------------------------5-----5--|------------------------5-----5----------|
G#|-7-----7-----7----3--3--3--3--5--7-----7-----|-7----3--3--3--3--5--7-----7-----7----3--|
D#|---------------------------------------------|-----------------------------------------|


F#|---------------------------------------------|---------------------------------------------|
C#|----------------5-----5----------------------|----5-----5-------------------------5-----5--|
G#|-3--3--3--5--7-----7-----7----3--3--3--3--5--|-7-----7-----7----3--3--3--3--5--7-----7-----|
D#|---------------------------------------------|---------------------------------------------|


F#|-----------------------------------------|---------------------------------------------|
C#|------------------------5-----5----------|----------------5-----5----------------------|
G#|-7----3--3--3--3--5--7-----7-----7----3--|-3--3--3--5--7-----7-----7----3--3--3--3--5--|
D#|-----------------------------------------|---------------------------------------------|


F#|---------------------------------------------|-----------------------------------------|
C#|----5-----5-------------------------5-----5--|------------------------5-----5----------|
G#|-7-----7-----7----3--3--3--3--5--7-----7-----|-7----3--3--3--3--5--7-----7-----7----3--|
D#|---------------------------------------------|-----------------------------------------|


F#|---------------------------------------------|---------------------------------------------|
C#|----------------5-----5----------------------|----5-----5-------------------------5-----5--|
G#|-3--3--3--5--7-----7-----7----3--3--3--3--5--|-7-----7-----7----3--3--3--3--5--7-----7-----|
D#|---------------------------------------------|---------------------------------------------|


F#|-----------------------------------------|---------------------------------------------|
C#|------------------------5-----5----------|----------------5-----5----------------------|
G#|-7----3--3--3--3--5--7-----7-----7----3--|-3--3--3--5--7-----7-----7----3--3--3--3--5--|
D#|-----------------------------------------|---------------------------------------------|


F#|---------------------------------------------|-----------------------------------------|
C#|----5-----5-------------------------5-----5--|------------------------5-----5----------|
G#|-7-----7-----7----3--3--3--3--5--7-----7-----|-7----3--3--3--3--5--7-----7-----7----3--|
D#|---------------------------------------------|-----------------------------------------|


F#|---------------------------------------------|---------------------------------------------|
C#|----------------5-----5----------------------|----5-----5-------------------------5-----5--|
G#|-3--3--3--5--7-----7-----7----3--3--3--3--5--|-7-----7-----7----3--3--3--3--5--7-----7-----|
D#|---------------------------------------------|---------------------------------------------|


F#|-----------------------------------------|---------------------------------------------|
C#|------------------------5-----5----------|----------------5-----5----------------------|
G#|-7----3--3--3--3--5--7-----7-----7----3--|-3--3--3--5--7-----7-----7----3--3--3--3--5--|
D#|-----------------------------------------|---------------------------------------------|


F#|---------------------------------------------|-----------------------------------------|
C#|----5-----5-------------------------5-----5--|------------------------5-----5----------|
G#|-7-----7-----7----3--3--3--3--5--7-----7-----|-7----3--3--3--3--5--7-----7-----7----3--|
D#|---------------------------------------------|-----------------------------------------|


F#|---------------------------------------------|---------------------------------------------|
C#|----------------5-----5----------------------|----5-----5-------------------------5-----5--|
G#|-3--3--3--5--7-----7-----7----3--3--3--3--5--|-7-----7-----7----3--3--3--3--5--7-----7-----|
D#|---------------------------------------------|---------------------------------------------|


F#|-----------------------------------------|---------------------------------------------|
C#|------------------------5-----5----------|----------------5-----5----------------------|
G#|-7----3--3--3--3--5--7-----7-----7----3--|-3--3--3--5--7-----7-----7----3--3--3--3--5--|
D#|-----------------------------------------|---------------------------------------------|


F#|---------------------------------------------|-----------------------------------------|
C#|----5-----5-------------------------5-----5--|------------------------5-----5----------|
G#|-7-----7-----7----3--3--3--3--5--7-----7-----|-7----3--3--3--3--5--7-----7-----7----3--|
D#|---------------------------------------------|-----------------------------------------|


F#|---------------------------------------------|---------------------------------------------|
C#|----------------5-----5----------------------|----5-----5-------------------------5-----5--|
G#|-3--3--3--5--7-----7-----7----3--3--3--3--5--|-7-----7-----7----3--3--3--3--5--7-----7-----|
D#|---------------------------------------------|---------------------------------------------|


F#|-----------------------------------------|---------------------------------------------|
C#|------------------------5-----5----------|----------------5-----5----------------------|
G#|-7----3--3--3--3--5--7-----7-----7----3--|-3--3--3--5--7-----7-----7----3--3--3--3--5--|
D#|-----------------------------------------|---------------------------------------------|


F#|---------------------------------------------|-----------------------------------------|
C#|----5-----5-------------------------5-----5--|------------------------5-----5----------|
G#|-7-----7-----7----3--3--3--3--5--7-----7-----|-7----3--3--3--3--5--7-----7-----7----3--|
D#|---------------------------------------------|-----------------------------------------|


F#|---------------------------------------------|---------------------------------------------|
C#|----------------5-----5----------------------|----5-----5-------------------------5-----5--|
G#|-3--3--3--5--7-----7-----7----3--3--3--3--5--|-7-----7-----7----3--3--3--3--5--7-----7-----|
D#|---------------------------------------------|---------------------------------------------|


F#|-----------------------------------------|---------------------------------------------|
C#|------------------------5-----5----------|----------------5-----5----------------------|
G#|-7----3--3--3--3--5--7-----7-----7----3--|-3--3--3--5--7-----7-----7----3--3--3--3--5--|
D#|-----------------------------------------|---------------------------------------------|


F#|---------------------------------------------|-----------------------------------------|
C#|----5-----5-------------------------5-----5--|------------------------5-----5----------|
G#|-7-----7-----7----3--3--3--3--5--7-----7-----|-7----3--3--3--3--5--7-----7-----7----3--|
D#|---------------------------------------------|-----------------------------------------|


F#|--------------------|
C#|--------------------|
G#|-3--3--3--5---------|
D#|--------------------|