Site menu:

    

Browse: 0-9 A B C D E F G H I J K L N O P Q R S T U V W X Y Z

u2 - all i want is you:



Title: All I Want Is You
Artist: 
Album: The Best Of 1980-1990
Author: U2


Track 1: Untitled

E|--------|--------|--------|--------|--------|--------|--------|--------|--------|
B|--------|--------|--------|--------|--------|--------|--------|--------|--------|
G|--------|--------|--------|--------|--------|--------|--------|--------|--------|
D|--------|--------|--------|--------|--------|--------|--------|--------|--------|
A|--------|--------|--------|--------|--------|--------|--------|--------|--------|
E|--------|--------|--------|--------|--------|--------|--------|--------|--------|


E|--------|--------|--------|--------|--------|--------|--------|--------|--------|
B|--------|--------|--------|--------|--------|--------|--------|--------|--------|
G|--------|--------|--------|--------|--------|--------|--------|--------|--------|
D|--------|--------|--------|--------|--------|--------|--------|--------|--------|
A|--------|--------|--------|--------|--------|--------|--------|--------|--------|
E|--------|--------|--------|--------|--------|--------|--------|--------|--------|


E|--------|--------|--------|--------|--------|--------|--------|--------|--------|
B|--------|--------|--------|--------|--------|--------|--------|--------|--------|
G|--------|--------|--------|--------|--------|--------|--------|--------|--------|
D|--------|--------|--------|--------|--------|--------|--------|--------|--------|
A|--------|--------|--------|--------|--------|--------|--------|--------|--------|
E|--------|--------|--------|--------|--------|--------|--------|--------|--------|


E|--------|--------|--------|--------|--------|--------|--------|--------|--------|
B|--------|--------|--------|--------|--------|--------|--------|--------|--------|
G|--------|--------|--------|--------|--------|--------|--------|--------|--------|
D|--------|--------|--------|--------|--------|--------|--------|--------|--------|
A|--------|--------|--------|--------|--------|--------|--------|--------|--------|
E|--------|--------|--------|--------|--------|--------|--------|--------|--------|


E|--------|--------|--------|--------|--------|--------|--------|--------|--------|
B|--------|--------|--------|--------|--------|--------|--------|--------|--------|
G|--------|--------|--------|--------|--------|--------|--------|--------|--------|
D|--------|--------|--------|--------|--------|--------|--------|--------|--------|
A|--------|--------|--------|--------|--------|--------|--------|--------|--------|
E|--------|--------|--------|--------|--------|--------|--------|--------|--------|


E|--------|--------|--------|--------|--------|--------|--------|--------|--------|
B|--------|--------|--------|--------|--------|--------|--------|--------|--------|
G|--------|--------|--------|--------|--------|--------|--------|--------|--------|
D|--------|--------|--------|--------|--------|--------|--------|--------|--------|
A|--------|--------|--------|--------|--------|--------|--------|--------|--------|
E|--------|--------|--------|--------|--------|--------|--------|--------|--------|


E|--------|--------|--------|--------|--------|--------|--------|--------|--------|
B|--------|--------|--------|--------|--------|--------|--------|--------|--------|
G|--------|--------|--------|--------|--------|--------|--------|--------|--------|
D|--------|--------|--------|--------|--------|--------|--------|--------|--------|
A|--------|--------|--------|--------|--------|--------|--------|--------|--------|
E|--------|--------|--------|--------|--------|--------|--------|--------|--------|


E|--------|--------|--------|--------|--------|--------|--------|--------|--------|
B|--------|--------|--------|--------|--------|--------|--------|--------|--------|
G|--------|--------|--------|--------|--------|--------|--------|--------|--------|
D|--------|--------|--------|--------|--------|--------|--------|--------|--------|
A|--------|--------|--------|--------|--------|--------|--------|--------|--------|
E|--------|--------|--------|--------|--------|--------|--------|--------|--------|


E|--------|--------|--------|--------|--------|--------|--------|--------|--------|
B|--------|--------|--------|--------|--------|--------|--------|--------|--------|
G|--------|--------|--------|--------|--------|--------|--------|--------|--------|
D|--------|--------|--------|--------|--------|--------|--------|--------|--------|
A|--------|--------|--------|--------|--------|--------|--------|--------|--------|
E|--------|--------|--------|--------|--------|--------|--------|--------|--------|


E|--------|--------|--------|--------|--------|--------|--------|--------|--------|
B|--------|--------|--------|--------|--------|--------|--------|--------|--------|
G|--------|--------|--------|--------|--------|--------|--------|--------|--------|
D|--------|--------|--------|--------|--------|--------|--------|--------|--------|
A|--------|--------|--------|--------|--------|--------|--------|--------|--------|
E|--------|--------|--------|--------|--------|--------|--------|--------|--------|


E|--------|--------|--------|--------|--------|--------|--------|--------|--------|
B|--------|--------|--------|--------|--------|--------|--------|--------|--------|
G|--------|--------|--------|--------|--------|--------|--------|--------|--------|
D|--------|--------|--------|--------|--------|--------|--------|--------|--------|
A|--------|--------|--------|--------|--------|--------|--------|--------|--------|
E|--------|--------|--------|--------|--------|--------|--------|--------|--------|


E|--------|--------|--------|--------|--------|--------|--------|--------|--------|
B|--------|--------|--------|--------|--------|--------|--------|--------|--------|
G|--------|--------|--------|--------|--------|--------|--------|--------|--------|
D|--------|--------|--------|--------|--------|--------|--------|--------|--------|
A|--------|--------|--------|--------|--------|--------|--------|--------|--------|
E|--------|--------|--------|--------|--------|--------|--------|--------|--------|


E|--------|--------|--------|--------|--------|--------|--------|--------|--------|
B|--------|--------|--------|--------|--------|--------|--------|--------|--------|
G|--------|--------|--------|--------|--------|--------|--------|--------|--------|
D|--------|--------|--------|--------|--------|--------|--------|--------|--------|
A|--------|--------|--------|--------|--------|--------|--------|--------|--------|
E|--------|--------|--------|--------|--------|--------|--------|--------|--------|


E|--------|--------|--------|--------|--------|--------|--------|
B|--------|--------|--------|--------|--------|--------|--------|
G|--------|--------|--------|--------|--------|--------|--------|
D|--------|--------|--------|--------|--------|--------|--------|
A|--------|--------|--------|--------|--------|--------|--------|
E|--------|--------|--------|--------|--------|--------|--------|





Track 2: Bkgrd. Bass R

G|--------|--------|--------|--------|--------|--------|--------|--------|--------|
D|--------|--------|--------|--------|--------|--------|--------|--------|--------|
A|--------|--------|--------|--------|--------|--------|--------|--------|--------|
E|--------|--------|--------|--------|--------|--------|--------|--------|--------|


G|--------|--------|--------|--------|--------|--------|--------|--------|--------|
D|--------|--------|--------|--------|--------|--------|--------|--------|--------|
A|--------|--------|--------|--------|--------|--------|--------|--------|--------|
E|--------|--------|--------|--------|--------|--------|--------|--------|--------|


G|--------|--------|--------|--------|-----------------|-----------------|-----------------|
D|--------|--------|--------|--------|-----------------|-----------------|-----------------|
A|--------|--------|--------|--------|-----------------|-4-----4---4-----|-----------------|
E|--------|--------|--------|--------|-4-----4---4-----|-----------------|-4-----4---4-----|


G|-----------------|-----------------|-----------------|-----------------|-----------------|
D|-----------------|-----------------|-----------------|-----------------|-----------------|
A|-4-----4---4-----|-----------------|-4-----4---4-----|-----------------|-4-----4---4-----|
E|-----------------|-4-----4---4-----|-----------------|-4-----4---4-----|-----------------|


G|-----------------|-----------------|-----------------|-----------------|-----------------|
D|-----------------|-----------------|-----------------|-----------------|-----------------|
A|-----------------|-4-----4---4-----|-----------------|-4-----4---4-----|-----------------|
E|-4-----4---4-----|-----------------|-4-----4---4-----|-----------------|-4-----4---4-----|


G|-----------------|-----------------|-----------------|---------------------------------|
D|-----------------|-----------------|-----------------|---------------------------------|
A|-4-----4---4-----|-----------------|-4-----4---4-----|---------------------------------|
E|-----------------|-4-----4---4-----|-----------------|-1---1---1---1---1---1---1---1---|


G|---------------------------------|---------------------------------|---------------------------------|
D|---------------------------------|---------------------------------|---------------------------------|
A|-4---4---4---4---4---4---4---4---|---------------------------------|-4---4---4---4---4---4---4---4---|
E|---------------------------------|-1---1---1---1---1---1---1---1---|---------------------------------|


G|------------------------------|------------------------------|------------------------------|
D|------------------------------|------------------------------|------------------------------|
A|--------------------------2---|-4----2---4---4---2---4---6---|--------------------------2---|
E|-4----2---4---4---2---4-------|------------------------------|-4----2---4---4---2---4-------|


G|------------------------------|------------------------------|------------------------------|
D|------------------------------|------------------------------|------------------------------|
A|-4----2---4---4---2---4---6---|--------------------------2---|-4----2---4---4---2---4---6---|
E|------------------------------|-4----2---4---4---2---4-------|------------------------------|


G|------------------------------|------------------------------|------------------------------|
D|------------------------------|------------------------------|------------------------------|
A|--------------------------2---|-4----2---4---4---2---4---6---|--------------------------2---|
E|-4----2---4---4---2---4-------|------------------------------|-4----2---4---4---2---4-------|


G|------------------------------|------------------------------|------------------------------|
D|------------------------------|------------------------------|------------------------------|
A|-4----2---4---4---2---4---6---|--------------------------2---|-4----2---4---4---2---4---6---|
E|------------------------------|-4----2---4---4---2---4-------|------------------------------|


G|------------------------------|------------------------------|---------------------------------|
D|------------------------------|------------------------------|---------------------------------|
A|--------------------------2---|-4----2---4---4---2---4---6---|-----------------------------2---|
E|-4----2---4---4---2---4-------|------------------------------|-4---4---2---4---4---2---4-------|


G|---------------------------------|---------------------------------|---------------------------------|
D|---------------------------------|---------------------------------|---------------------------------|
A|-4---4---2---4---4---2---4---6---|-----------------------------2---|-4---4---2---4---4---2---4---6---|
E|---------------------------------|-4---4---2---4---4---2---4-------|---------------------------------|


G|---------------------------------|---------------------------------|---------------------------------|
D|---------------------------------|---------------------------------|---------------------------------|
A|-----------------------------2---|-4---4---2---4---4---2---4---6---|-----------------------------2---|
E|-4---4---2---4---4---2---4-------|---------------------------------|-4---4---2---4---4---2---4-------|


G|---------------------------------|---------------------------------|---------------------------------|
D|---------------------------------|---------------------------------|---------------------------------|
A|-4---4---2---4---4---2---4---6---|-----------------------------2---|-4---4---2---4---4---2---4---6---|
E|---------------------------------|-4---4---2---4---4---2---4-------|---------------------------------|


G|---------------------------------|---------------------------------|---------------------------------|
D|---------------------------------|---------------------------------|---------------------------------|
A|---------------------------------|-4---4---4---4---4---4---4---4---|---------------------------------|
E|-1---1---1---1---1---1---1---1---|---------------------------------|-1---1---1---1---1---1---1---1---|


G|---------------------------------|---------------------------------|---------------------------------|
D|---------------------------------|---------------------------------|---------------------------------|
A|-4---4---4---4---4---4---4---4---|-----------------------------2---|-4---4---2---4---4---2---4---6---|
E|---------------------------------|-4---4---2---4---4---2---4-------|---------------------------------|


G|---------------------------------|---------------------------------|---------------------------------|
D|---------------------------------|---------------------------------|---------------------------------|
A|-----------------------------2---|-4---4---2---4---4---2---4---6---|-----------------------------2---|
E|-4---4---2---4---4---2---4-------|---------------------------------|-4---4---2---4---4---2---4-------|


G|---------------------------------|---------------------------------|---------------------------------|
D|---------------------------------|---------------------------------|---------------------------------|
A|-4---4---2---4---4---2---4---6---|-----------------------------2---|-4---4---2---4---4---2---4---6---|
E|---------------------------------|-4---4---2---4---4---2---4-------|---------------------------------|


G|---------------------------------|---------------------------------|---------------------------------|
D|---------------------------------|---------------------------------|---------------------------------|
A|-----------------------------2---|-4---4---2---4---4---2---4---6---|-----------------------------2---|
E|-4---4---2---4---4---2---4-------|---------------------------------|-4---4---2---4---4---2---4-------|


G|---------------------------------|---------------------------------|---------------------------------|
D|---------------------------------|---------------------------------|---------------------------------|
A|-4---4---2---4---4---2---4---6---|-----------------------------2---|-4---4---2---4---4---2---4---6---|
E|---------------------------------|-4---4---2---4---4---2---4-------|---------------------------------|


G|---------------------------------|---------------------------------|---------------------------------|
D|---------------------------------|---------------------------------|---------------------------------|
A|-----------------------------2---|-4---4---2---4---4---2---4---6---|-----------------------------2---|
E|-4---4---2---4---4---2---4-------|---------------------------------|-4---4---2---4---4---2---4-------|


G|---------------------------------|---------------------------------|---------------------------------|
D|---------------------------------|---------------------------------|---------------------------------|
A|-4---4---2---4---4---2---4---6---|-----------------------------2---|-4---4---2---4---4---2---4---6---|
E|---------------------------------|-4---4---2---4---4---2---4-------|---------------------------------|


G|---------------------------------|---------------------------------|---------------------------------|
D|---------------------------------|---------------------------------|---------------------------------|
A|-----------------------------2---|-4---4---2---4---4---2---4---6---|-----------------------------2---|
E|-4---4---2---4---4---2---4-------|---------------------------------|-4---4---2---4---4---2---4-------|


G|---------------------------------|---------------------------------|---------------------------------|
D|---------------------------------|---------------------------------|---------------------------------|
A|-4---4---2---4---4---2---4---6---|-----------------------------2---|-4---4---2---4---4---2---4---6---|
E|---------------------------------|-4---4---2---4---4---2---4-------|---------------------------------|


G|---------------------------------|---------------------------------|---------------------------------|
D|---------------------------------|---------------------------------|---------------------------------|
A|-----------------------------2---|-4---4---2---4---4---2---4---6---|-----------------------------2---|
E|-4---4---2---4---4---2---4-------|---------------------------------|-4---4---2---4---4---2---4-------|


G|---------------------------------|---------------------------------|---------------------------------|
D|---------------------------------|---------------------------------|---------------------------------|
A|-4---4---2---4---4---2---4---6---|-----------------------------2---|-4---4---2---4---4---2---4---6---|
E|---------------------------------|-4---4---2---4---4---2---4-------|---------------------------------|


G|---------------------------------|---------------------------------|---------------------------------|
D|---------------------------------|---------------------------------|---------------------------------|
A|-----------------------------2---|-4---4---2---4---4---2---4---6---|-----------------------------2---|
E|-4---4---2---4---4---2---4-------|---------------------------------|-4---4---2---4---4---2---4-------|


G|---------------------------------|---------------------------------|---------------------------------|
D|---------------------------------|---------------------------------|---------------------------------|
A|-4---4---2---4---4---2---4---6---|-----------------------------2---|-4---4---2---4---4---2---4---6---|
E|---------------------------------|-4---4---2---4---4---2---4-------|---------------------------------|


G|---------------------------------|---------------------------------|---------------------------------|
D|---------------------------------|---------------------------------|---------------------------------|
A|-----------------------------2---|-4---4---2---4---4---2---4---6---|-----------------------------2---|
E|-4---4---2---4---4---2---4-------|---------------------------------|-4---4---2---4---4---2---4-------|


G|---------------------------------|---------------------------------|---------------------------------|
D|---------------------------------|---------------------------------|---------------------------------|
A|-4---4---2---4---4---2---4---6---|-----------------------------2---|-4---4---2---4---4---2---4---6---|
E|---------------------------------|-4---4---2---4---4---2---4-------|---------------------------------|


G|---------------------------------|---------------------------------|---------------------------------|
D|---------------------------------|---------------------------------|---------------------------------|
A|-----------------------------2---|-4---4---2---4---4---2---4---6---|-----------------------------2---|
E|-4---4---2---4---4---2---4-------|---------------------------------|-4---4---2---4---4---2---4-------|


G|---------------------------------|---------------------------------|---------------------------------|
D|---------------------------------|---------------------------------|---------------------------------|
A|-4---4---2---4---4---2---4---6---|-----------------------------2---|-4---4---2---4---4---2---4---6---|
E|---------------------------------|-4---4---2---4---4---2---4-------|---------------------------------|


G|---------------------------------|---------------------------------|---------------------------------|
D|---------------------------------|---------------------------------|---------------------------------|
A|-----------------------------2---|-4---4---2---4---4---2---4---6---|-----------------------------2---|
E|-4---4---2---4---4---2---4-------|---------------------------------|-4---4---2---4---4---2---4-------|


G|---------------------------------|
D|---------------------------------|
A|-4---4---2---4---4---2---4---6---|
E|---------------------------------|