Site menu:

    

Browse: 0-9 A B C D E F G H I J K L N O P Q R S T U V W X Y Z

twisted sister - the price:



Title: The Price
Artist: 
Album: Stay Hungry
Author: Dee Snider


Track 1: intro drum

E|--------|--------|--------|--------|--------|--------|--------|--------|--------|
B|--------|--------|--------|--------|--------|--------|--------|--------|--------|
G|--------|--------|--------|--------|--------|--------|--------|--------|--------|
D|--------|--------|--------|--------|--------|--------|--------|--------|--------|
A|--------|--------|--------|--------|--------|--------|--------|--------|--------|
E|--------|--------|--------|--------|--------|--------|--------|--------|--------|


E|--------|--------|--------|--------|--------|--------|--------|--------|--------|
B|--------|--------|--------|--------|--------|--------|--------|--------|--------|
G|--------|--------|--------|--------|--------|--------|--------|--------|--------|
D|--------|--------|--------|--------|--------|--------|--------|--------|--------|
A|--------|--------|--------|--------|--------|--------|--------|--------|--------|
E|--------|--------|--------|--------|--------|--------|--------|--------|--------|


E|--------|--------|--------|--------|--------|--------|--------|--------|--------|
B|--------|--------|--------|--------|--------|--------|--------|--------|--------|
G|--------|--------|--------|--------|--------|--------|--------|--------|--------|
D|--------|--------|--------|--------|--------|--------|--------|--------|--------|
A|--------|--------|--------|--------|--------|--------|--------|--------|--------|
E|--------|--------|--------|--------|--------|--------|--------|--------|--------|


E|--------|--------|--------|--------|--------|--------|--------|--------|--------|
B|--------|--------|--------|--------|--------|--------|--------|--------|--------|
G|--------|--------|--------|--------|--------|--------|--------|--------|--------|
D|--------|--------|--------|--------|--------|--------|--------|--------|--------|
A|--------|--------|--------|--------|--------|--------|--------|--------|--------|
E|--------|--------|--------|--------|--------|--------|--------|--------|--------|


E|--------|--------|--------|--------|--------|--------|--------|--------|--------|
B|--------|--------|--------|--------|--------|--------|--------|--------|--------|
G|--------|--------|--------|--------|--------|--------|--------|--------|--------|
D|--------|--------|--------|--------|--------|--------|--------|--------|--------|
A|--------|--------|--------|--------|--------|--------|--------|--------|--------|
E|--------|--------|--------|--------|--------|--------|--------|--------|--------|


E|--------|--------|--------|--------|--------|--------|--------|--------|--------|
B|--------|--------|--------|--------|--------|--------|--------|--------|--------|
G|--------|--------|--------|--------|--------|--------|--------|--------|--------|
D|--------|--------|--------|--------|--------|--------|--------|--------|--------|
A|--------|--------|--------|--------|--------|--------|--------|--------|--------|
E|--------|--------|--------|--------|--------|--------|--------|--------|--------|


E|--------|--------|--------|--------|--------|--------|--------|--------|--------|
B|--------|--------|--------|--------|--------|--------|--------|--------|--------|
G|--------|--------|--------|--------|--------|--------|--------|--------|--------|
D|--------|--------|--------|--------|--------|--------|--------|--------|--------|
A|--------|--------|--------|--------|--------|--------|--------|--------|--------|
E|--------|--------|--------|--------|--------|--------|--------|--------|--------|


E|--------|--------|--------|--------|--------|--------|--------|--------|--------|
B|--------|--------|--------|--------|--------|--------|--------|--------|--------|
G|--------|--------|--------|--------|--------|--------|--------|--------|--------|
D|--------|--------|--------|--------|--------|--------|--------|--------|--------|
A|--------|--------|--------|--------|--------|--------|--------|--------|--------|
E|--------|--------|--------|--------|--------|--------|--------|--------|--------|


E|--------|
B|--------|
G|--------|
D|--------|
A|--------|
E|--------|





Track 2: Rhy.

E|-----------------------------|-------------|-------------|-------------|--------|
B|-----------------------------|-------------|-------------|-------------|--------|
G|-------10-10-10-7--7--4--5---|-------5-----|-------5-----|-------5-----|-7------|
D|-----------------------------|-3-----5-----|-3-----5-----|-3-----5-----|-7------|
A|-----------------------------|-3-----3-----|-3-----3-----|-3-----3-----|-5------|
E|-----------------------------|-1-----------|-1-----------|-1-----------|--------|


E|-------------|-------------|-------------|--------|--------|--------|--------|--------|
B|-------------|-------------|-------------|--------|--------|--------|--------|--------|
G|-------5-----|-------5-----|-------5-----|-7------|--------|--------|--------|--------|
D|-3-----5-----|-3-----5-----|-3-----5-----|-7------|--------|--------|--------|--------|
A|-3-----3-----|-3-----3-----|-3-----3-----|-5------|--------|--------|--------|--------|
E|-1-----------|-1-----------|-1-----------|--------|--------|--------|--------|--------|


E|--------|--------|--------|--------|-------------|--------------------|-----------------|
B|--------|--------|--------|--------|-------------|--------------------|-----------------|
G|--------|--------|--------|--------|-------5-----|-5-----7----7---5---|-3----------5----|
D|--------|--------|--------|--------|-3-----5-----|-5-----7----7---5---|-3-----3----5----|
A|--------|--------|--------|--------|-3-----3-----|-3-----5----5---3---|-1-----3----3----|
E|--------|--------|--------|--------|-1-----------|--------------------|-------1---------|


E|--------|-------------|-------------|-------------|--------|-------------|-------------|
B|--------|-------------|-------------|-------------|--------|-------------|-------------|
G|-7------|-------5-----|-------5-----|-------5-----|-7------|-------5-----|-------5-----|
D|-7------|-3-----5-----|-3-----5-----|-3-----5-----|-7------|-3-----5-----|-3-----5-----|
A|-5------|-3-----3-----|-3-----3-----|-3-----3-----|-5------|-3-----3-----|-3-----3-----|
E|--------|-1-----------|-1-----------|-1-----------|--------|-1-----------|-1-----------|


E|-------------|--------|---------------------------------|---------1-------3--1-----0--0---------|
B|-------------|--------|---------------------------------|-------------3---------3--------3------|
G|-------5-----|-7------|---------3---------------5-------|-----2-----------------------------2---|
D|-3-----5-----|-7------|-----3-------3-------5-------5---|-0-------------------------------------|
A|-3-----3-----|-5------|-1---------------3---------------|---------------------------------------|
E|-1-----------|--------|---------------------------------|---------------------------------------|


E|---------------------------------|---------1-------3--1-----0--0---------|--------|
B|---------------------------------|-------------3---------3--------3------|--------|
G|---------3---------------5-------|-----2-----------------------------2---|--------|
D|-----3-------3-------5-------5---|-0-------------------------------------|--------|
A|-1---------------3---------------|---------------------------------------|--------|
E|---------------------------------|---------------------------------------|--------|


E|--------|--------|--------|-------------|--------------------|-----------------|
B|--------|--------|--------|-------------|--------------------|-----------------|
G|--------|--------|--------|-------5-----|-5-----7----7---5---|-3----------5----|
D|--------|--------|--------|-3-----5-----|-5-----7----7---5---|-3-----3----5----|
A|--------|--------|--------|-3-----3-----|-3-----5----5---3---|-1-----3----3----|
E|--------|--------|--------|-1-----------|--------------------|-------1---------|


E|--------|-------------|-------------|-------------|--------|-------------|-------------|
B|--------|-------------|-------------|-------------|--------|-------------|-------------|
G|-7------|-------5-----|-------5-----|-------5-----|-7------|-------5-----|-------5-----|
D|-7------|-3-----5-----|-3-----5-----|-3-----5-----|-7------|-3-----5-----|-3-----5-----|
A|-5------|-3-----3-----|-3-----3-----|-3-----3-----|-5------|-3-----3-----|-3-----3-----|
E|--------|-1-----------|-1-----------|-1-----------|--------|-1-----------|-1-----------|


E|-------------|--------|--------|--------|--------|--------|-------------|--------------------|
B|-------------|--------|--------|--------|--------|--------|-------------|--------------------|
G|-------5-----|-7------|--------|--------|--------|--------|-------5-----|-5-----7----7---5---|
D|-3-----5-----|-7------|--------|--------|--------|--------|-3-----5-----|-5-----7----7---5---|
A|-3-----3-----|-5------|--------|--------|--------|--------|-3-----3-----|-3-----5----5---3---|
E|-1-----------|--------|--------|--------|--------|--------|-1-----------|--------------------|


E|-----------------|--------|-------------|-------------|-------------|--------|-------------|
B|-----------------|--------|-------------|-------------|-------------|--------|-------------|
G|-3----------5----|-7------|-------5-----|-------5-----|-------5-----|-7------|-------5-----|
D|-3-----3----5----|-7------|-3-----5-----|-3-----5-----|-3-----5-----|-7------|-3-----5-----|
A|-1-----3----3----|-5------|-3-----3-----|-3-----3-----|-3-----3-----|-5------|-3-----3-----|
E|-------1---------|--------|-1-----------|-1-----------|-1-----------|--------|-1-----------|


E|-------------|-------------|--------|-------------|-------------|-------------|--------|
B|-------------|-------------|--------|-------------|-------------|-------------|--------|
G|-------5-----|-------5-----|-7------|-------5-----|-------5-----|-------5-----|-7------|
D|-3-----5-----|-3-----5-----|-7------|-3-----5-----|-3-----5-----|-3-----5-----|-7------|
A|-3-----3-----|-3-----3-----|-5------|-3-----3-----|-3-----3-----|-3-----3-----|-5------|
E|-1-----------|-1-----------|--------|-1-----------|-1-----------|-1-----------|--------|


E|-------------|-------------|-------------|--------|
B|-------------|-------------|-------------|--------|
G|-------5-----|-------5-----|-------5-----|-7------|
D|-3-----5-----|-3-----5-----|-3-----5-----|-7------|
A|-3-----3-----|-3-----3-----|-3-----3-----|-5------|
E|-1-----------|-1-----------|-1-----------|--------|





Track 3: Lead

E|--------|----------------------------|-----------------------------|---------------------------13--|
B|--------|------15---13---------13----|-15--13-----------------15---|-13---------13----15---15------|
G|--------|----------------12-14----14-|---------14-12-14--14--------|------12-14----14--------------|
D|--------|----------------------------|-----------------------------|-------------------------------|
A|--------|----------------------------|-----------------------------|-------------------------------|
E|--------|----------------------------|-----------------------------|-------------------------------|


E|-------------|--------------------|-----------------------------|-----------------------13--|
B|-15-----15---|-13-----------13----|-15--13-----------------15---|-13-------13--15---15------|
G|-------------|--------12-14----14-|---------14-12-14--14--------|------14-------------------|
D|-------------|--------------------|-----------------------------|---------------------------|
A|-------------|--------------------|-----------------------------|---------------------------|
E|-------------|--------------------|-----------------------------|---------------------------|


E|-15---15----15--15--|--------|--------|--------|--------|--------|--------|--------|
B|--------------------|--------|--------|--------|--------|--------|--------|--------|
G|--------------------|--------|--------|--------|--------|--------|--------|--------|
D|--------------------|--------|--------|--------|--------|--------|--------|--------|
A|--------------------|--------|--------|--------|--------|--------|--------|--------|
E|--------------------|--------|--------|--------|--------|--------|--------|--------|


E|--------|--------|--------|--------|--------|--------|--------|--------|--------|
B|--------|--------|--------|--------|--------|--------|--------|--------|--------|
G|--------|--------|--------|--------|--------|--------|--------|--------|--------|
D|--------|--------|--------|--------|--------|--------|--------|--------|--------|
A|--------|--------|--------|--------|--------|--------|--------|--------|--------|
E|--------|--------|--------|--------|--------|--------|--------|--------|--------|


E|--------|--------|--------|--------|--------|--------|--------|--------|--------|
B|--------|--------|--------|--------|--------|--------|--------|--------|--------|
G|--------|--------|--------|--------|--------|--------|--------|--------|--------|
D|--------|--------|--------|--------|--------|--------|--------|--------|--------|
A|--------|--------|--------|--------|--------|--------|--------|--------|--------|
E|--------|--------|--------|--------|--------|--------|--------|--------|--------|


E|--------|--------|--------|--------|--------|--------|--------|--------|--------|
B|--------|--------|--------|--------|--------|--------|--------|--------|--------|
G|--------|--------|--------|--------|--------|--------|--------|--------|--------|
D|--------|--------|--------|--------|--------|--------|--------|--------|--------|
A|--------|--------|--------|--------|--------|--------|--------|--------|--------|
E|--------|--------|--------|--------|--------|--------|--------|--------|--------|


E|--------|--------|--------|--------|--------|-------------------------------------------------------------------|
B|--------|--------|--------|--------|--------|----------------------------------------------------------------6--|
G|--------|--------|--------|--------|--------|-------------------------------------------------------7--5--7-----|
D|--------|--------|--------|--------|--------|----------------------------5-----5--7--5--7--8--7--8--------------|
A|--------|--------|--------|--------|--------|-5-----5--7--5--7--8--7--8-----8-----------------------------------|
E|--------|--------|--------|--------|--------|----8--------------------------------------------------------------|


E|--------|--------|--------|--------|--------|--------|--------|--------|--------|
B|--------|--------|--------|--------|--------|--------|--------|--------|--------|
G|--------|--------|--------|--------|--------|--------|--------|--------|--------|
D|--------|--------|--------|--------|--------|--------|--------|--------|--------|
A|--------|--------|--------|--------|--------|--------|--------|--------|--------|
E|--------|--------|--------|--------|--------|--------|--------|--------|--------|


E|--------|--------|--------|--------|--------|--------|--------|--------|--------|
B|--------|--------|--------|--------|--------|--------|--------|--------|--------|
G|--------|--------|--------|--------|--------|--------|--------|--------|--------|
D|--------|--------|--------|--------|--------|--------|--------|--------|--------|
A|--------|--------|--------|--------|--------|--------|--------|--------|--------|
E|--------|--------|--------|--------|--------|--------|--------|--------|--------|


E|--------|--------|--------|--------|--------|--------|
B|--------|--------|--------|--------|--------|--------|
G|--------|--------|--------|--------|--------|--------|
D|--------|--------|--------|--------|--------|--------|
A|--------|--------|--------|--------|--------|--------|
E|--------|--------|--------|--------|--------|--------|





Track 4: Clean Lead Verb

E|--------|--------|--------|--------|--------|--------|--------|--------|--------|
B|--------|--------|--------|--------|--------|--------|--------|--------|--------|
G|--------|--------|--------|--------|--------|--------|--------|--------|--------|
D|--------|--------|--------|--------|--------|--------|--------|--------|--------|
A|--------|--------|--------|--------|--------|--------|--------|--------|--------|
E|--------|--------|--------|--------|--------|--------|--------|--------|--------|


E|---------------------------------|---------1-------3--1-----0--0---------|---------------------------------|
B|---------------------------------|-------------3---------3--------3------|---------------------------------|
G|---------3---------------5-------|-----2-----------------------------2---|---------3---------------5-------|
D|-----3-------3-------5-------5---|-0-------------------------------------|-----3-------3-------5-------5---|
A|-1---------------3---------------|---------------------------------------|-1---------------3---------------|
E|---------------------------------|---------------------------------------|---------------------------------|


E|---------1-------3--1-----0--0---------|---------------------------------|---------1-------3--1-----0--0---------|
B|-------------3---------3--------3------|---------------------------------|-------------3---------3--------3------|
G|-----2-----------------------------2---|---------3---------------5-------|-----2-----------------------------2---|
D|-0-------------------------------------|-----3-------3-------5-------5---|-0-------------------------------------|
A|---------------------------------------|-1---------------3---------------|---------------------------------------|
E|---------------------------------------|---------------------------------|---------------------------------------|


E|---------------------------------|---------1-------3--1-----0--0---------|--------|
B|---------------------------------|-------------3---------3--------3------|--------|
G|---------3---------------5-------|-----2-----------------------------2---|--------|
D|-----3-------3-------5-------5---|-0-------------------------------------|--------|
A|-1---------------3---------------|---------------------------------------|--------|
E|---------------------------------|---------------------------------------|--------|


E|--------|--------|--------|--------|--------|--------|--------|--------|--------|
B|--------|--------|--------|--------|--------|--------|--------|--------|--------|
G|--------|--------|--------|--------|--------|--------|--------|--------|--------|
D|--------|--------|--------|--------|--------|--------|--------|--------|--------|
A|--------|--------|--------|--------|--------|--------|--------|--------|--------|
E|--------|--------|--------|--------|--------|--------|--------|--------|--------|


E|--------|--------|--------|--------|--------|--------|---------------------------------|
B|--------|--------|--------|--------|--------|--------|---------------------------------|
G|--------|--------|--------|--------|--------|--------|---------3---------------5-------|
D|--------|--------|--------|--------|--------|--------|-----3-------3-------5-------5---|
A|--------|--------|--------|--------|--------|--------|-1---------------3---------------|
E|--------|--------|--------|--------|--------|--------|---------------------------------|


E|---------1-------3--1-----0--0---------|---------------------------------|---------1-------3--1-----0--0---------|
B|-------------3---------3--------3------|---------------------------------|-------------3---------3--------3------|
G|-----2-----------------------------2---|---------3---------------5-------|-----2-----------------------------2---|
D|-0-------------------------------------|-----3-------3-------5-------5---|-0-------------------------------------|
A|---------------------------------------|-1---------------3---------------|---------------------------------------|
E|---------------------------------------|---------------------------------|---------------------------------------|


E|--------|--------|--------|--------|--------|--------|--------|--------|--------|
B|--------|--------|--------|--------|--------|--------|--------|--------|--------|
G|--------|--------|--------|--------|--------|--------|--------|--------|--------|
D|--------|--------|--------|--------|--------|--------|--------|--------|--------|
A|--------|--------|--------|--------|--------|--------|--------|--------|--------|
E|--------|--------|--------|--------|--------|--------|--------|--------|--------|


E|--------|--------|--------|---------------------------------|---------1-------3--1-----0--0---------|
B|--------|--------|--------|---------------------------------|-------------3---------3--------3------|
G|--------|--------|--------|---------3---------------5-------|-----2-----------------------------2---|
D|--------|--------|--------|-----3-------3-------5-------5---|-0-------------------------------------|
A|--------|--------|--------|-1---------------3---------------|---------------------------------------|
E|--------|--------|--------|---------------------------------|---------------------------------------|


E|---------------------------------|---------1-------3--1-----0--0---------|--------|
B|---------------------------------|-------------3---------3--------3------|--------|
G|---------3---------------5-------|-----2-----------------------------2---|--------|
D|-----3-------3-------5-------5---|-0-------------------------------------|--------|
A|-1---------------3---------------|---------------------------------------|--------|
E|---------------------------------|---------------------------------------|--------|


E|--------|--------|--------|--------|--------|--------|--------|--------|--------|
B|--------|--------|--------|--------|--------|--------|--------|--------|--------|
G|--------|--------|--------|--------|--------|--------|--------|--------|--------|
D|--------|--------|--------|--------|--------|--------|--------|--------|--------|
A|--------|--------|--------|--------|--------|--------|--------|--------|--------|
E|--------|--------|--------|--------|--------|--------|--------|--------|--------|


E|--------|--------|--------|--------|--------|--------|--------|--------|--------|
B|--------|--------|--------|--------|--------|--------|--------|--------|--------|
G|--------|--------|--------|--------|--------|--------|--------|--------|--------|
D|--------|--------|--------|--------|--------|--------|--------|--------|--------|
A|--------|--------|--------|--------|--------|--------|--------|--------|--------|
E|--------|--------|--------|--------|--------|--------|--------|--------|--------|


E|--------|
B|--------|
G|--------|
D|--------|
A|--------|
E|--------|





Track 5: Untitled

E|--------|--------|--------|--------|--------|--------|--------|--------|--------|
B|--------|--------|--------|--------|--------|--------|--------|--------|--------|
G|--------|--------|--------|--------|--------|--------|--------|--------|--------|
D|--------|--------|--------|--------|--------|--------|--------|--------|--------|
A|--------|--------|--------|--------|--------|--------|--------|--------|--------|
E|--------|--------|--------|--------|--------|--------|--------|--------|--------|


E|-15----------|--------|--------|--------|-------------|--------|-------------|--------|
B|-------------|--------|--------|--------|-------------|--------|-------------|--------|
G|-------------|--------|--------|--------|-------------|--------|-------------|--------|
D|-------------|--------|--------|--------|-3-----5-----|-7------|-3-----5-----|-7------|
A|-------------|--------|--------|--------|-1-----3-----|-5------|-1-----3-----|-5------|
E|-------------|--------|--------|--------|-------------|--------|-------------|--------|


E|--------|--------|--------|--------|--------|--------|--------|--------|--------|
B|--------|--------|--------|--------|--------|--------|--------|--------|--------|
G|--------|--------|--------|--------|--------|--------|--------|--------|--------|
D|--------|--------|--------|--------|--------|--------|--------|--------|--------|
A|--------|--------|--------|--------|--------|--------|--------|--------|--------|
E|--------|--------|--------|--------|--------|--------|--------|--------|--------|


E|--------|--------|--------|--------|--------|--------|--------|-------------|--------|
B|--------|--------|--------|--------|--------|--------|--------|-------------|--------|
G|--------|--------|--------|--------|--------|--------|--------|-------------|--------|
D|--------|--------|--------|--------|--------|--------|--------|-3-----5-----|-7------|
A|--------|--------|--------|--------|--------|--------|--------|-1-----3-----|-5------|
E|--------|--------|--------|--------|--------|--------|--------|-------------|--------|


E|-------------|--------|--------|--------|--------|--------|--------|--------|--------|
B|-------------|--------|--------|--------|--------|--------|--------|--------|--------|
G|-------------|--------|--------|--------|--------|--------|--------|--------|--------|
D|-3-----5-----|-7------|--------|--------|--------|--------|--------|--------|--------|
A|-1-----3-----|-5------|--------|--------|--------|--------|--------|--------|--------|
E|-------------|--------|--------|--------|--------|--------|--------|--------|--------|


E|--------|--------|--------|--------|--------|-8---------------------|---------------------------|
B|--------|--------|--------|--------|--------|-------8---8-----6--5--|-6--5----------------------|
G|--------|--------|--------|--------|--------|-----------------------|-------7---7---------10----|
D|--------|--------|--------|--------|--------|-----------------------|-----------------12-----12-|
A|--------|--------|--------|--------|--------|-----------------------|---------------------------|
E|--------|--------|--------|--------|--------|-----------------------|---------------------------|


E|-----------------------------|----------13--------|--------|--------|--------|--------|
B|-------13--------------13----|-15---15------15----|--------|--------|--------|--------|
G|-12--------12-12---14-----14-|--------------------|--------|--------|--------|--------|
D|-----------------------------|--------------------|--------|--------|--------|--------|
A|-----------------------------|--------------------|--------|--------|--------|--------|
E|-----------------------------|--------------------|--------|--------|--------|--------|


E|--------|--------|--------|--------|--------|--------|--------|--------|--------|
B|--------|--------|--------|--------|--------|--------|--------|--------|--------|
G|--------|--------|--------|--------|--------|--------|--------|--------|--------|
D|--------|--------|--------|--------|--------|--------|--------|--------|--------|
A|--------|--------|--------|--------|--------|--------|--------|--------|--------|
E|--------|--------|--------|--------|--------|--------|--------|--------|--------|


E|--------|--------|--------|--------|--------|--------|--------|
B|--------|--------|--------|--------|--------|--------|--------|
G|--------|--------|--------|--------|--------|--------|--------|
D|--------|--------|--------|--------|--------|--------|--------|
A|--------|--------|--------|--------|--------|--------|--------|
E|--------|--------|--------|--------|--------|--------|--------|





Track 6: Rhy.

E|--------|--------|--------|--------|--------|--------|--------|--------|--------|
B|--------|--------|--------|--------|--------|--------|--------|--------|--------|
G|--------|--------|--------|--------|--------|--------|--------|--------|--------|
D|--------|--------|--------|--------|--------|--------|--------|--------|--------|
A|--------|--------|--------|--------|--------|--------|--------|--------|--------|
E|--------|--------|--------|--------|--------|--------|--------|--------|--------|


E|-------------|--------|-------------|--------|--------|--------|--------|--------|
B|-------------|--------|-------------|--------|--------|--------|--------|--------|
G|-------------|--------|-------------|--------|--------|--------|--------|--------|
D|-3-----5-----|-7------|-3-----5-----|-7------|--------|--------|--------|--------|
A|-1-----3-----|-5------|-1-----3-----|-5------|--------|--------|--------|--------|
E|-------------|--------|-------------|--------|--------|--------|--------|--------|


E|--------|--------|--------|--------|--------|--------|--------|--------|--------|
B|--------|--------|--------|--------|--------|--------|--------|--------|--------|
G|--------|--------|--------|--------|--------|--------|--------|--------|--------|
D|--------|--------|--------|--------|--------|--------|--------|--------|--------|
A|--------|--------|--------|--------|--------|--------|--------|--------|--------|
E|--------|--------|--------|--------|--------|--------|--------|--------|--------|


E|--------|--------|--------|--------|--------|--------|--------|--------|--------|
B|--------|--------|--------|--------|--------|--------|--------|--------|--------|
G|--------|--------|--------|--------|--------|--------|--------|--------|--------|
D|--------|--------|--------|--------|--------|--------|--------|--------|--------|
A|--------|--------|--------|--------|--------|--------|--------|--------|--------|
E|--------|--------|--------|--------|--------|--------|--------|--------|--------|


E|--------|--------|--------|--------|--------|--------|--------|--------|--------|
B|--------|--------|--------|--------|--------|--------|--------|--------|--------|
G|--------|--------|--------|--------|--------|--------|--------|--------|--------|
D|--------|--------|--------|--------|--------|--------|--------|--------|--------|
A|--------|--------|--------|--------|--------|--------|--------|--------|--------|
E|--------|--------|--------|--------|--------|--------|--------|--------|--------|


E|--------|--------|--------|--------|--------|--------|--------|--------|--------|
B|--------|--------|--------|--------|--------|--------|--------|--------|--------|
G|--------|--------|--------|--------|--------|--------|--------|--------|--------|
D|--------|--------|--------|--------|--------|--------|--------|--------|--------|
A|--------|--------|--------|--------|--------|--------|--------|--------|--------|
E|--------|--------|--------|--------|--------|--------|--------|--------|--------|


E|--------|--------|--------|--------|--------|--------|--------|--------|--------|
B|--------|--------|--------|--------|--------|--------|--------|--------|--------|
G|--------|--------|--------|--------|--------|--------|--------|--------|--------|
D|--------|--------|--------|--------|--------|--------|--------|--------|--------|
A|--------|--------|--------|--------|--------|--------|--------|--------|--------|
E|--------|--------|--------|--------|--------|--------|--------|--------|--------|


E|--------|--------|--------|--------|--------|--------|--------|--------|--------|
B|--------|--------|--------|--------|--------|--------|--------|--------|--------|
G|--------|--------|--------|--------|--------|--------|--------|--------|--------|
D|--------|--------|--------|--------|--------|--------|--------|--------|--------|
A|--------|--------|--------|--------|--------|--------|--------|--------|--------|
E|--------|--------|--------|--------|--------|--------|--------|--------|--------|


E|--------|--------|
B|--------|--------|
G|--------|--------|
D|--------|--------|
A|--------|--------|
E|--------|--------|





Track 7: Rhy.

E|--------|--------|--------|--------|--------|--------|--------|--------|--------|
B|--------|--------|--------|--------|--------|--------|--------|--------|--------|
G|--------|--------|--------|--------|--------|--------|--------|--------|--------|
D|--------|--------|--------|--------|--------|--------|--------|--------|--------|
A|--------|--------|--------|--------|--------|--------|--------|--------|--------|
E|--------|--------|--------|--------|--------|--------|--------|--------|--------|


E|--------|--------|--------|--------|--------|--------|--------|--------|--------|
B|--------|--------|--------|--------|--------|--------|--------|--------|--------|
G|--------|--------|--------|--------|--------|--------|--------|--------|--------|
D|--------|--------|--------|--------|--------|--------|--------|--------|--------|
A|--------|--------|--------|--------|--------|--------|--------|--------|--------|
E|--------|--------|--------|--------|--------|--------|--------|--------|--------|


E|--------|--------|--------|--------|--------|--------|--------|--------|--------|
B|--------|--------|--------|--------|--------|--------|--------|--------|--------|
G|--------|--------|--------|--------|--------|--------|--------|--------|--------|
D|--------|--------|--------|--------|--------|--------|--------|--------|--------|
A|--------|--------|--------|--------|--------|--------|--------|--------|--------|
E|--------|--------|--------|--------|--------|--------|--------|--------|--------|


E|--------|--------|-15----------|--------|--------|--------|--------|--------|--------|
B|--------|--------|-------------|--------|--------|--------|--------|--------|--------|
G|--------|--------|-------------|--------|--------|--------|--------|--------|--------|
D|--------|--------|-------------|--------|--------|--------|--------|--------|--------|
A|--------|--------|-------------|--------|--------|--------|--------|--------|--------|
E|--------|--------|-------------|--------|--------|--------|--------|--------|--------|


E|--------|--------|--------|--------|--------|--------|--------|--------|--------|
B|--------|--------|--------|--------|--------|--------|--------|--------|--------|
G|--------|--------|--------|--------|--------|--------|--------|--------|--------|
D|--------|--------|--------|--------|--------|--------|--------|--------|--------|
A|--------|--------|--------|--------|--------|--------|--------|--------|--------|
E|--------|--------|--------|--------|--------|--------|--------|--------|--------|


E|--------|--------|--------|--------|--------|--------|--------|--------|--------|
B|--------|--------|--------|--------|--------|--------|--------|--------|--------|
G|--------|--------|--------|--------|--------|--------|--------|--------|--------|
D|--------|--------|--------|--------|--------|--------|--------|--------|--------|
A|--------|--------|--------|--------|--------|--------|--------|--------|--------|
E|--------|--------|--------|--------|--------|--------|--------|--------|--------|


E|--------|--------|--------|--------|--------|--------|--------|--------|--------|
B|--------|--------|--------|--------|--------|--------|--------|--------|--------|
G|--------|--------|--------|--------|--------|--------|--------|--------|--------|
D|--------|--------|--------|--------|--------|--------|--------|--------|--------|
A|--------|--------|--------|--------|--------|--------|--------|--------|--------|
E|--------|--------|--------|--------|--------|--------|--------|--------|--------|


E|--------|--------|--------|--------|--------|--------|--------|--------|--------|
B|--------|--------|--------|--------|--------|--------|--------|--------|--------|
G|--------|--------|--------|--------|--------|--------|--------|--------|--------|
D|--------|--------|--------|--------|--------|--------|--------|--------|--------|
A|--------|--------|--------|--------|--------|--------|--------|--------|--------|
E|--------|--------|--------|--------|--------|--------|--------|--------|--------|


E|--------|
B|--------|
G|--------|
D|--------|
A|--------|
E|--------|





Track 8: Rhy.

E|--------|--------|--------|--------|--------|--------|--------|--------|--------|
B|--------|--------|--------|--------|--------|--------|--------|--------|--------|
G|--------|--------|--------|--------|--------|--------|--------|--------|--------|
D|--------|--------|--------|--------|--------|--------|--------|--------|--------|
A|--------|--------|--------|--------|--------|--------|--------|--------|--------|
E|--------|--------|--------|--------|--------|--------|--------|--------|--------|


E|--------|--------|--------|--------|--------|--------|--------|--------|--------|
B|--------|--------|--------|--------|--------|--------|--------|--------|--------|
G|--------|--------|--------|--------|--------|--------|--------|--------|--------|
D|--------|--------|--------|--------|--------|--------|--------|--------|--------|
A|--------|--------|--------|--------|--------|--------|--------|--------|--------|
E|--------|--------|--------|--------|--------|--------|--------|--------|--------|


E|--------|--------|--------|--------|--------|--------|--------|--------|--------|
B|--------|--------|--------|--------|--------|--------|--------|--------|--------|
G|--------|--------|--------|--------|--------|--------|--------|--------|--------|
D|--------|--------|--------|--------|--------|--------|--------|--------|--------|
A|--------|--------|--------|--------|--------|--------|--------|--------|--------|
E|--------|--------|--------|--------|--------|--------|--------|--------|--------|


E|--------|--------|-------------|--------|-------------|--------|--------|--------|
B|--------|--------|-------------|--------|-------------|--------|--------|--------|
G|--------|--------|-------------|--------|-------------|--------|--------|--------|
D|--------|--------|-3-----5-----|-7------|-3-----5-----|-7------|--------|--------|
A|--------|--------|-1-----3-----|-5------|-1-----3-----|-5------|--------|--------|
E|--------|--------|-------------|--------|-------------|--------|--------|--------|


E|--------|--------|--------|--------|--------|--------|--------|--------|--------|
B|--------|--------|--------|--------|--------|--------|--------|--------|--------|
G|--------|--------|--------|--------|--------|--------|--------|--------|--------|
D|--------|--------|--------|--------|--------|--------|--------|--------|--------|
A|--------|--------|--------|--------|--------|--------|--------|--------|--------|
E|--------|--------|--------|--------|--------|--------|--------|--------|--------|


E|--------|--------|--------|--------|--------|--------|--------|--------|--------|
B|--------|--------|--------|--------|--------|--------|--------|--------|--------|
G|--------|--------|--------|--------|--------|--------|--------|--------|--------|
D|--------|--------|--------|--------|--------|--------|--------|--------|--------|
A|--------|--------|--------|--------|--------|--------|--------|--------|--------|
E|--------|--------|--------|--------|--------|--------|--------|--------|--------|


E|--------|--------|--------|--------|--------|--------|--------|--------|--------|
B|--------|--------|--------|--------|--------|--------|--------|--------|--------|
G|--------|--------|--------|--------|--------|--------|--------|--------|--------|
D|--------|--------|--------|--------|--------|--------|--------|--------|--------|
A|--------|--------|--------|--------|--------|--------|--------|--------|--------|
E|--------|--------|--------|--------|--------|--------|--------|--------|--------|


E|--------|--------|--------|--------|--------|--------|--------|--------|--------|
B|--------|--------|--------|--------|--------|--------|--------|--------|--------|
G|--------|--------|--------|--------|--------|--------|--------|--------|--------|
D|--------|--------|--------|--------|--------|--------|--------|--------|--------|
A|--------|--------|--------|--------|--------|--------|--------|--------|--------|
E|--------|--------|--------|--------|--------|--------|--------|--------|--------|


E|--------|--------|
B|--------|--------|
G|--------|--------|
D|--------|--------|
A|--------|--------|
E|--------|--------|





Track 9: Rhy.

E|--------|--------|--------|--------|--------|--------|--------|--------|--------|
B|--------|--------|--------|--------|--------|--------|--------|--------|--------|
G|--------|--------|--------|--------|--------|--------|--------|--------|--------|
D|--------|--------|--------|--------|--------|--------|--------|--------|--------|
A|--------|--------|--------|--------|--------|--------|--------|--------|--------|
E|--------|--------|--------|--------|--------|--------|--------|--------|--------|


E|--------|--------|--------|--------|--------|--------|--------|--------|--------|
B|--------|--------|--------|--------|--------|--------|--------|--------|--------|
G|--------|--------|--------|--------|--------|--------|--------|--------|--------|
D|--------|--------|--------|--------|--------|--------|--------|--------|--------|
A|--------|--------|--------|--------|--------|--------|--------|--------|--------|
E|--------|--------|--------|--------|--------|--------|--------|--------|--------|


E|--------|--------|--------|--------|--------|--------|--------|--------|--------|
B|--------|--------|--------|--------|--------|--------|--------|--------|--------|
G|--------|--------|--------|--------|--------|--------|--------|--------|--------|
D|--------|--------|--------|--------|--------|--------|--------|--------|--------|
A|--------|--------|--------|--------|--------|--------|--------|--------|--------|
E|--------|--------|--------|--------|--------|--------|--------|--------|--------|


E|--------|--------|--------|--------|--------|--------|--------|--------|--------|
B|--------|--------|--------|--------|--------|--------|--------|--------|--------|
G|--------|--------|--------|--------|--------|--------|--------|--------|--------|
D|--------|--------|--------|--------|--------|--------|--------|--------|--------|
A|--------|--------|--------|--------|--------|--------|--------|--------|--------|
E|--------|--------|--------|--------|--------|--------|--------|--------|--------|


E|--------|--------|--------|--------|--------|--------|--------|--------|--------|
B|--------|--------|--------|--------|--------|--------|--------|--------|--------|
G|--------|--------|--------|--------|--------|--------|--------|--------|--------|
D|--------|--------|--------|--------|--------|--------|--------|--------|--------|
A|--------|--------|--------|--------|--------|--------|--------|--------|--------|
E|--------|--------|--------|--------|--------|--------|--------|--------|--------|


E|--------|--------|--------|--------|-------------|--------|-------------|--------|
B|--------|--------|--------|--------|-------------|--------|-------------|--------|
G|--------|--------|--------|--------|-------------|--------|-------------|--------|
D|--------|--------|--------|--------|-3-----5-----|-7------|-3-----5-----|-7------|
A|--------|--------|--------|--------|-1-----3-----|-5------|-1-----3-----|-5------|
E|--------|--------|--------|--------|-------------|--------|-------------|--------|


E|--------|--------|--------|--------|--------|--------|--------|--------|--------|
B|--------|--------|--------|--------|--------|--------|--------|--------|--------|
G|--------|--------|--------|--------|--------|--------|--------|--------|--------|
D|--------|--------|--------|--------|--------|--------|--------|--------|--------|
A|--------|--------|--------|--------|--------|--------|--------|--------|--------|
E|--------|--------|--------|--------|--------|--------|--------|--------|--------|


E|--------|--------|--------|--------|--------|--------|--------|--------|--------|
B|--------|--------|--------|--------|--------|--------|--------|--------|--------|
G|--------|--------|--------|--------|--------|--------|--------|--------|--------|
D|--------|--------|--------|--------|--------|--------|--------|--------|--------|
A|--------|--------|--------|--------|--------|--------|--------|--------|--------|
E|--------|--------|--------|--------|--------|--------|--------|--------|--------|


E|--------|--------|
B|--------|--------|
G|--------|--------|
D|--------|--------|
A|--------|--------|
E|--------|--------|





Track 10: Rhy.

E|--------|--------|--------|--------|--------|--------|--------|--------|--------|
B|--------|--------|--------|--------|--------|--------|--------|--------|--------|
G|--------|--------|--------|--------|--------|--------|--------|--------|--------|
D|--------|--------|--------|--------|--------|--------|--------|--------|--------|
A|--------|--------|--------|--------|--------|--------|--------|--------|--------|
E|--------|--------|--------|--------|--------|--------|--------|--------|--------|


E|--------|--------|--------|--------|--------|--------|--------|--------|--------|
B|--------|--------|--------|--------|--------|--------|--------|--------|--------|
G|--------|--------|--------|--------|--------|--------|--------|--------|--------|
D|--------|--------|--------|--------|--------|--------|--------|--------|--------|
A|--------|--------|--------|--------|--------|--------|--------|--------|--------|
E|--------|--------|--------|--------|--------|--------|--------|--------|--------|


E|--------|--------|--------|--------|--------|--------|--------|--------|--------|
B|--------|--------|--------|--------|--------|--------|--------|--------|--------|
G|--------|--------|--------|--------|--------|--------|--------|--------|--------|
D|--------|--------|--------|--------|--------|--------|--------|--------|--------|
A|--------|--------|--------|--------|--------|--------|--------|--------|--------|
E|--------|--------|--------|--------|--------|--------|--------|--------|--------|


E|--------|--------|--------|--------|--------|--------|--------|--------|--------|
B|--------|--------|--------|--------|--------|--------|--------|--------|--------|
G|--------|--------|--------|--------|--------|--------|--------|--------|--------|
D|--------|--------|--------|--------|--------|--------|--------|--------|--------|
A|--------|--------|--------|--------|--------|--------|--------|--------|--------|
E|--------|--------|--------|--------|--------|--------|--------|--------|--------|


E|--------|--------|--------|--------|--------|--------|--------|--------|--------|
B|--------|--------|--------|--------|--------|--------|--------|--------|--------|
G|--------|--------|--------|--------|--------|--------|--------|--------|--------|
D|--------|--------|--------|--------|--------|--------|--------|--------|--------|
A|--------|--------|--------|--------|--------|--------|--------|--------|--------|
E|--------|--------|--------|--------|--------|--------|--------|--------|--------|


E|--------|--------|--------|--------|--------|--------|--------|--------|------------------------|
B|--------|--------|--------|--------|--------|--------|--------|--------|------11-10-------13----|
G|--------|--------|--------|--------|--------|--------|--------|--------|------------10----------|
D|--------|--------|--------|--------|--------|--------|--------|--------|---------------12-------|
A|--------|--------|--------|--------|--------|--------|--------|--------|------------------------|
E|--------|--------|--------|--------|--------|--------|--------|--------|------------------------|


E|----------13-----------13--|-15----18----|-20---20--20--20----|--------|--------|
B|-15---15------15---15------|-------------|--------------------|--------|--------|
G|---------------------------|-------------|--------------------|--------|--------|
D|---------------------------|-------------|--------------------|--------|--------|
A|---------------------------|-------------|--------------------|--------|--------|
E|---------------------------|-------------|--------------------|--------|--------|


E|--------|---------------13-------|--------|--------|--------|---------------13-15--15--15---|
B|--------|------------13----15----|--------|--------|--------|---------13-15-----------------|
G|--------|------12-14-------------|--------|--------|--------|------14-----------------------|
D|--------|------------------------|--------|--------|--------|-------------------------------|
A|--------|------------------------|--------|--------|--------|-------------------------------|
E|--------|------------------------|--------|--------|--------|-------------------------------|


E|--------|--------|--------|------------------------|--------|--------|--------|------------------------|
B|--------|--------|--------|------11-10-------10----|--------|--------|--------|------------13----------|
G|--------|--------|--------|------------10----------|--------|--------|--------|------12-14----14-12----|
D|--------|--------|--------|---------------12-------|--------|--------|--------|------------------------|
A|--------|--------|--------|------------------------|--------|--------|--------|------------------------|
E|--------|--------|--------|------------------------|--------|--------|--------|------------------------|





Track 11: Untitled

G|--------|---------------------|---------------------|---------------------|------------------------|
D|--------|---------------------|-3----3----2----2----|---------------------|------------------------|
A|--------|-----------3----3----|---------------------|-----------3----3----|-5----------3-----5-----|
E|--------|-1----1--------------|---------------------|-1----1--------------|------3--5-----5--------|


G|---------------------|---------------------|---------------------|------------------------|
D|---------------------|-3----3----2----2----|---------------------|------------------------|
A|-----------3----3----|---------------------|-----------3----3----|-5----------3-----5-----|
E|-1----1--------------|---------------------|-1----1--------------|------3--5-----5--------|


G|--------|--------|--------|--------|--------|--------|--------|---------------------------------|
D|--------|--------|--------|--------|--------|--------|--------|---------------------------------|
A|--------|--------|--------|--------|--------|--------|--------|-------------5---5---5--3--------|
E|--------|--------|--------|--------|--------|--------|--------|----------5----------------5--3--|


G|-------------|--------------------|-----------------|------------------------------------------|
D|-------------|--------------------|-----------------|------------------------------------------|
A|-------3-----|-3-----5----5---3---|-1----------3----|-5----5--5--5--5--5--5--5--5--5--3--------|
E|-1-----------|--------------------|-------1---------|------------------------------------5--3--|


G|---------------------|---------------------|---------------------|-----------------------------------|
D|---------------------|-3----3----2----2----|---------------------|-----------------------------------|
A|-----------3----3----|---------------------|-----------3----3----|-5----------3-----5----5--3--------|
E|-1----1--------------|---------------------|-1----1--------------|------3--5-----5-------------5--3--|


G|---------------------|---------------------|---------------------|------------------------|
D|---------------------|-3----3----2----2----|---------------------|------------------------|
A|-----------3----3----|---------------------|-----------3----3----|-5----------3-----5-----|
E|-1----1--------------|---------------------|-1----1--------------|------3--5-----5--------|


G|----------------------|----------------------------|----------------------|----------------------------|
D|----------------------|----------------------------|----------------------|----------------------------|
A|-1-----1-----3---3----|-5-----------5-----5---5----|-1-----1-----3---3----|-5-----------5-----5---5----|
E|----------------------|----------5-----------------|----------------------|----------5-----------------|


G|----------------------|----------------------------|----------------------|---------------------------------|
D|----------------------|----------------------------|----------------------|---------------------------------|
A|-1-----1-----3---3----|-5-----------5-----5---5----|-1-----3-----3---3----|-5-----------5---5---5--3--------|
E|----------------------|----------5-----------------|----------------------|----------5----------------5--3--|


G|-------------|--------------------|-----------------|------------------------------------------|
D|-------------|--------------------|-----------------|------------------------------------------|
A|-------3-----|-3-----5----5---3---|-1----------3----|-5----5--5--5--5--5--5--5--5--5--3--------|
E|-1-----------|--------------------|-------1---------|------------------------------------5--3--|


G|---------------------|---------------------|---------------------|-----------------------------------|
D|---------------------|-3----3----2----2----|---------------------|-----------------------------------|
A|-----------3----3----|---------------------|-----------3----3----|-5----------3-----5----5--3--------|
E|-1----1--------------|---------------------|-1----1--------------|------3--5-----5-------------5--3--|


G|---------------------|---------------------|---------------------|------------------------|
D|---------------------|-3----3----2----2----|---------------------|------------------------|
A|-----------3----3----|---------------------|-----------3----3----|-5----------3-----5-----|
E|-1----1--------------|---------------------|-1----1--------------|------3--5-----5--------|


G|----------------------|----------------------------|----------------------|----------------------------|
D|----------------------|----------------------------|----------------------|----------------------------|
A|-1-----1-----3---3----|-5-----------5-----5---5----|-1-----1-----3---3----|-5-----------5-----5---5----|
E|----------------------|----------5-----------------|----------------------|----------5-----------------|


G|-------------|--------------------|-----------------|-----------------------------------|
D|-------------|--------------------|-----------------|-----------------------------------|
A|-------3-----|-3-----5----5---3---|-1----------3----|-5----------3-----5----5--3--------|
E|-1-----------|--------------------|-------1---------|------3--5-----5-------------5--3--|


G|---------------------|---------------------|---------------------|-----------------------------------|
D|---------------------|-3----3----2----2----|---------------------|-----------------------------------|
A|-----------3----3----|---------------------|-----------3----3----|-5----------3-----5----5--3--------|
E|-1----1--------------|---------------------|-1----1--------------|------3--5-----5-------------5--3--|


G|---------------------|---------------------|---------------------|----------------------------|
D|---------------------|-3----3----2----2----|---------------------|----------------------------|
A|-----------3----3----|---------------------|-----------3----3----|-5-----------5-----5---5----|
E|-1----1--------------|---------------------|-1----1--------------|----------5-----------------|


G|---------------------|---------------------|---------------------|-----------------------------------|
D|---------------------|-3----3----2----2----|---------------------|-----------------------------------|
A|-----------3----3----|---------------------|-----------3----3----|-5----------3-----5----5--3--------|
E|-1----1--------------|---------------------|-1----1--------------|------3--5-----5-------------5--3--|


G|---------------------|---------------------|---------------------|----------------------------|
D|---------------------|-3----3----2----2----|---------------------|----------------------------|
A|-----------3----3----|---------------------|-----------3----3----|-5-----------5-----5---5----|
E|-1----1--------------|---------------------|-1----1--------------|----------5-----------------|