Site menu:

    

Browse: 0-9 A B C D E F G H I J K L N O P Q R S T U V W X Y Z

toto - only the children:



Title: Only The Children
Artist: 
Album: Seventh One
Author: David Paich, Steve Lukather, Joseph Williams


Track 1: Untitled

E|------------------------------|---------------------------|------------------------------|
B|-10---10--10------10------10--|-----10------10--9----9----|-10---10--10------10------10--|
G|-9----9---7-------7-------9---|-----9-------9---9----9----|-9----9---7-------7-------9---|
D|-7----7---0-------0-------7---|-----7-------7-------------|-7----7---0-------0-------7---|
A|------------------------------|-----------------7----7----|------------------------------|
E|------------------------------|---------------------------|------------------------------|


E|---------------------------|-----------------------|-----------------|-----------------------|
B|-----10------10--9----9----|-----------------------|-----------------|-----------------------|
G|-----9-------9---9----9----|-----------------------|-----------------|-----------------------|
D|-----7-------7-------------|-------------7---7-----|-----------------|-------------7---7-----|
A|-----------------7----7----|-------------5---5-----|-------2---2-----|-------------5---5-----|
E|---------------------------|-2---4---5-------------|-5-----0---0-----|-2---4---5-------------|


E|-----------------|---------------------------------|---------------------------------|
B|-----------------|---------------------------------|---------------------------------|
G|-----------------|-2-----------2-------------------|-2-----------2-------------------|
D|-----------------|-2-----------2-------------------|-2-----------2-------------------|
A|-------2---2-----|-0---0---0---0---0---0---0---0---|-0---0---0---0---0---0---0---0---|
E|-5-----0---0-----|---------------------------------|---------------------------------|


E|---------------------------------|---------------------------------|---------------------------------|
B|---------------------------------|---------------------------------|---------------------------------|
G|---------------------------------|-4-----------4-------------------|-2-----------2-------------------|
D|-2-----------2-------------------|-4-----------4-------------------|-2-----------2-------------------|
A|-2-----------2-------------------|-2---2---2---2---2---2---2---2---|-0---0---0---0---0---0---0---0---|
E|-0---0---0---0---0---0---0---0---|---------------------------------|---------------------------------|


E|---------------------------------|---------------------------------|---------------------------------|
B|---------------------------------|---------------------------------|---------------------------------|
G|-2-----------2-------------------|---------------------------------|-4-----------4-------------------|
D|-2-----------2-------------------|-2-----------2-------------------|-4-----------4-------------------|
A|-0---0---0---0---0---0---0---0---|-2-----------2-------------------|-2---2---2---2---2---2---2---2---|
E|---------------------------------|-0---0---0---0---0---0---0---0---|---------------------------------|


E|---------------------------------|---------------------------------|---------------------------------|
B|---------------------------------|---------------------------------|---------------------------------|
G|-2-----------2-------------------|-2-----------2-------------------|---------------------------------|
D|-2-----------2-------------------|-2-----------2-------------------|-2-----------2-------------------|
A|-0---0---0---0---0---0---0---0---|-0---0---0---0---0---0---0---0---|-2-----------2-------------------|
E|---------------------------------|---------------------------------|-0---0---0---0---0---0---0---0---|


E|---------------------------------|---------------------------------|---------------------------------|
B|---------------------------------|---------------------------------|---------------------------------|
G|-4-----------4-------------------|-7-----------7-------------------|-6-----------6-------------------|
D|-4-----------4-------------------|-7-----------7-------------------|-7-----------7-------------------|
A|-2---2---2---2---2---2---2---4---|-5---5---5---5---5---5---5---5---|-4---4---4---4---4---4---4---4---|
E|---------------------------------|---------------------------------|---------------------------------|


E|---------------------------------|---------------------------------|---------------------------------|
B|---------------------------------|---------------------------------|---------------------------------|
G|---------------------------------|---------------------------------|-7-----------7-------------------|
D|-2-----------2-------------------|-4-----------4-------------------|-7-----------7-------------------|
A|-2-----------2-------------------|-4-----------4---------------4---|-5---5---5---5---5---5---5---5---|
E|-0---0---0---0---0---0---0---0---|-2---2---2---2---2---4---5-------|---------------------------------|


E|---------------------------------|------------------------------|--------------------|
B|---------------------------------|------------------------------|--------------------|
G|-6-----------6-------------------|------------------------------|--------------------|
D|-7-----------7-------------------|------------------------------|--------------------|
A|-4---4---4---4---4---4---4---4---|--------------------------2---|-----2--------------|
E|---------------------------------|-----5---4---0---5----4---0---|-----0---------5----|


E|-----------------------|-----------------|-----------------------|-----------------|
B|-----------------------|-----------------|-----------------------|-----------------|
G|-----------------------|-----------------|-----------------------|-----------------|
D|-------------7---7-----|-----------------|-------------7---7-----|-----------------|
A|-------------5---5-----|-------2---2-----|-------------5---5-----|-------2---2-----|
E|-2---4---5-------------|-5-----0---0-----|-2---4---5-------------|-5-----0---0-----|


E|-----------------------|-----------------|---------------------------------|---------------------------------|
B|-----------------------|-----------------|---------------------------------|---------------------------------|
G|-----------------------|-----------------|-2-----------2-------------------|-2-----------2-------------------|
D|-------------7---7-----|-----------------|-2-----------2-------------------|-2-----------2-------------------|
A|-------------5---5-----|-------2---2-----|-0---0---0---0---0---0---0---0---|-0---0---0---0---0---0---0---0---|
E|-2---4---5-------------|-5-----0---0-----|---------------------------------|---------------------------------|


E|---------------------------------|---------------------------------|---------------------------------|
B|---------------------------------|---------------------------------|---------------------------------|
G|---------------------------------|-4-----------4-------------------|-2-----------2-------------------|
D|-2-----------2-------------------|-4-----------4-------------------|-2-----------2-------------------|
A|-2-----------2-------------------|-2---2---2---2---2---2---2---2---|-0---0---0---0---0---0---0---0---|
E|-0---0---0---0---0---0---0---0---|---------------------------------|---------------------------------|


E|---------------------------------|---------------------------------|---------------------------------|
B|---------------------------------|---------------------------------|---------------------------------|
G|-2-----------2-------------------|---------------------------------|-4-----------4-------------------|
D|-2-----------2-------------------|-2-----------2-------------------|-4-----------4-------------------|
A|-0---0---0---0---0---0---0---0---|-2-----------2-------------------|-2---2---2---2---2---2---2---2---|
E|---------------------------------|-0---0---0---0---0---0---0---0---|---------------------------------|


E|---------------------------------|---------------------------------|---------------------------------|
B|---------------------------------|---------------------------------|---------------------------------|
G|-2-----------2-------------------|-2-----------2-------------------|---------------------------------|
D|-2-----------2-------------------|-2-----------2-------------------|-2-----------2-------------------|
A|-0---0---0---0---0---0---0---0---|-0---0---0---0---0---0---0---0---|-2-----------2-------------------|
E|---------------------------------|---------------------------------|-0---0---0---0---0---0---0---0---|


E|---------------------------------|---------------------------------|---------------------------------|
B|---------------------------------|---------------------------------|---------------------------------|
G|-4-----------4-------------------|-7-----------7-------------------|-6-----------6-------------------|
D|-4-----------4-------------------|-7-----------7-------------------|-7-----------7-------------------|
A|-2---2---2---2---2---2---2---4---|-5---5---5---5---5---5---5---5---|-4---4---4---4---4---4---4---4---|
E|---------------------------------|---------------------------------|---------------------------------|


E|---------------------------------|---------------------------------|---------------------------------|
B|---------------------------------|---------------------------------|---------------------------------|
G|---------------------------------|---------------------------------|-7-----------7-------------------|
D|-2-----------2-------------------|-4-----------4-------------------|-7-----------7-------------------|
A|-2-----------2-------------------|-4-----------4---------------4---|-5---5---5---5---5---5---5---5---|
E|-0---0---0---0---0---0---0---0---|-2---2---2---2---2---4---5-------|---------------------------------|


E|---------------------------------|------------------------------|--------------------|
B|---------------------------------|------------------------------|--------------------|
G|-6-----------6-------------------|------------------------------|--------------------|
D|-7-----------7-------------------|------------------------------|--------------------|
A|-4---4---4---4---4---4---4---4---|--------------------------2---|-----2--------------|
E|---------------------------------|-----5---4---0---5----4---0---|-----0---------5----|


E|-----------------------|-----------------|-----------------------|-----------------|
B|-----------------------|-----------------|-----------------------|-----------------|
G|-----------------------|-----------------|-----------------------|-----------------|
D|-------------7---7-----|-----------------|-------------7---7-----|-----------------|
A|-------------5---5-----|-------2---2-----|-------------5---5-----|-------2---2-----|
E|-2---4---5-------------|-5-----0---0-----|-2---4---5-------------|-5-----0---0-----|


E|-----------------------|-----------------|-----------------------|-----------------|
B|-----------------------|-----------------|-----------------------|-----------------|
G|-----------------------|-----------------|-----------------------|-----------------|
D|-------------7---7-----|-----------------|-------------7---7-----|-----------------|
A|-------------5---5-----|-------2---2-----|-------------5---5-----|-------2---2-----|
E|-2---4---5-------------|-5-----0---0-----|-2---4---5-------------|-5-----0---0-----|


E|-------------------------------------|-----------------|-----------------|-----------------|
B|-------------------------------------|-----------------|-----------------|-----------------|
G|------------------------------4--6---|-6---------------|-9---------------|-6---------------|
D|---------------2---4---6---7-----6---|-6-----7---7-----|-9-----9---9-----|-6-----7---7-----|
A|-----2--4--5---------------------4---|-4-----7---7-----|-7-----9---9-----|-4-----7---7-----|
E|-------------------------------------|-------5---5-----|-------7---7-----|-------5---5-----|


E|-----------------|-----------------|-----------------|-----------------|------------------------------|
B|-----------------|-----------------|-----------------|-----------------|------------------------------|
G|-9---------------|-----------------|-7---------------|-----------------|------------------------------|
D|-9-----9---9-----|-9-----5---5-----|-7-----7---7-----|-7-----3---3-----|-5----------------------------|
A|-7-----9---9-----|-9-----5---5-----|-5-----7---7-----|-7-----3---3-----|-5--------2-------4-------6---|
E|-------7---7-----|-7-----3---3-----|-------5---5-----|-5-----1---1-----|-3------------3-------5-------|


E|---------------------------|------------------------------|--------------------------------|
B|-----10------10--10---10---|-10---10--9-------9-------10--|-----10------10--10---10--------|
G|-----9-------9---7----7----|-9----9---9-------9-------9---|-----9-------9---7----7---------|
D|-----7-------7---0----0----|-7----7-------------------7---|-----7-------7---0----0---------|
A|---------------------------|----------7-------7-----------|--------------------------9--12-|
E|---------------------------|------------------------------|--------------------------------|


E|---------------------------|-----------------------|-----------------|-----------------------|
B|---------------------------|-----------------------|-----------------|-----------------------|
G|-9---9---9-----------------|-----------------------|-----------------|-----------------------|
D|-9---11--9-----------------|-------------7---7-----|-----------------|-------------7---7-----|
A|-------------12--9---------|-------------5---5-----|-------2---2-----|-------------5---5-----|
E|---------------------12----|-2---4---5-------------|-5-----0---0-----|-2---4---5-------------|


E|-----------------|-----------------------|-----------------|-----------------------|
B|-----------------|-----------------------|-----------------|-----------------------|
G|-----------------|-----------------------|-----------------|-----------------------|
D|-----------------|-------------7---7-----|-----------------|-------------7---7-----|
A|-------2---2-----|-------------5---5-----|-------2---2-----|-------------5---5-----|
E|-5-----0---0-----|-2---4---5-------------|-5-----0---0-----|-2---4---5-------------|


E|-----------------|-----9-------9-------10------10--|-----9-------9-------7-------7---|
B|-----------------|-----10------10------10------10--|-----10------10------9-------9---|
G|-----------------|---------------------------------|---------------------------------|
D|-----------------|---------------------------------|---------------------------------|
A|-------2---2-----|---------------------------------|---------------------------------|
E|-5-----0---0-----|---------------------------------|---------------------------------|


E|-----9-------9-------10------10--|-----9-------9-------7-------7---|-----9-------9-------10------10--|
B|-----10------10------10------10--|-----10------10------9-------9---|-----10------10------10------10--|
G|---------------------------------|---------------------------------|---------------------------------|
D|---------------------------------|---------------------------------|---------------------------------|
A|---------------------------------|---------------------------------|---------------------------------|
E|---------------------------------|---------------------------------|---------------------------------|


E|-----9-------9-------7-------7---|-----9-------9-------10------10--|-----9-------9-------7-------7---|
B|-----10------10------9-------9---|-----10------10------10------10--|-----10------10------9-------9---|
G|---------------------------------|---------------------------------|---------------------------------|
D|---------------------------------|---------------------------------|---------------------------------|
A|---------------------------------|---------------------------------|---------------------------------|
E|---------------------------------|---------------------------------|---------------------------------|


E|-19----19----19---|-19----19--19----|-------17--17---17--17-16-|-14--------------------|
B|------------------|-----------------|--------------------------|-----14--17--17--17----|
G|------------------|-----------------|--------------------------|-----------------------|
D|------------------|-----------------|--------------------------|-----------------------|
A|------------------|-----------------|--------------------------|-----------------------|
E|------------------|-----------------|--------------------------|-----------------------|


E|------16--16--16--16--16--16--|-16--16--14-----------14------|---------------------------|
B|------------------------------|-------------17--17-------14--|-14---17-----------14------|
G|------------------------------|------------------------------|----------16--16-------14--|
D|------------------------------|------------------------------|---------------------------|
A|------------------------------|------------------------------|---------------------------|
E|------------------------------|------------------------------|---------------------------|


E|----------------------------|---------------------------------|---------------------------------|
B|----------------------------|-----10--10------10--10------10--|-10------10--10------9---9-------|
G|-14---16--13-14-13-14-13----|-----9---9-------9---9-------9---|-9-------9---9-------9---9-------|
D|----------------------------|-11----------11----------11------|-----11----------11----------9---|
A|----------------------------|---------------------------------|---------------------------------|
E|----------------------------|---------------------------------|---------------------------------|


E|---------------------------------|------------------------------------|---------14------14--14----------14--|
B|-10-10------10-10------10-10-----|-----10-10------9--9------9--9------|-----14----------------------14------|
G|-9--9-------9--9-------9--9------|-----9--9-------9--9------9--9--16--|-16----------16----------16----------|
D|-------11---------11---------11--|-11--------11---------9-------------|-------------------------------------|
A|---------------------------------|------------------------------------|-------------------------------------|
E|---------------------------------|------------------------------------|-------------------------------------|


E|---------14----------14--------------------|------------------|-------------------------------------------------------15-17-19-19-|
B|-----14----------14------------------------|------------------|----------------------------------------------15-17-19-------------|
G|-16----------16----------16--16-14-16--14--|-14---------------|-------------------14-14-14-16-16-16-14-16-18----------------------|
D|-------------------------------------------|-----16-14-16-----|-14-14-14-16-16-16-------------------------------------------------|
A|-------------------------------------------|------------------|-------------------------------------------------------------------|
E|-------------------------------------------|------------------|-------------------------------------------------------------------|


E|-19-------19-------19---|-19--19--17--19--19----|
B|------------------------|-----------------------|
G|------------------------|-----------------------|
D|------------------------|-----------------------|
A|------------------------|-----------------------|
E|------------------------|-----------------------|





Track 2: Untitled

E|--------|--------|--------|--------|--------|--------|--------|--------|--------|
B|--------|--------|--------|--------|--------|--------|--------|--------|--------|
G|--------|--------|--------|--------|--------|--------|--------|--------|--------|
D|--------|--------|--------|--------|--------|--------|--------|--------|--------|
A|--------|--------|--------|--------|--------|--------|--------|--------|--------|
E|--------|--------|--------|--------|--------|--------|--------|--------|--------|


E|--------|--------|--------|--------|--------|--------|--------|--------|--------|
B|--------|--------|--------|--------|--------|--------|--------|--------|--------|
G|--------|--------|--------|--------|--------|--------|--------|--------|--------|
D|--------|--------|--------|--------|--------|--------|--------|--------|--------|
A|--------|--------|--------|--------|--------|--------|--------|--------|--------|
E|--------|--------|--------|--------|--------|--------|--------|--------|--------|


E|--------|--------|--------|--------|--------|--------|--------|--------|--------|
B|--------|--------|--------|--------|--------|--------|--------|--------|--------|
G|--------|--------|--------|--------|--------|--------|--------|--------|--------|
D|--------|--------|--------|--------|--------|--------|--------|--------|--------|
A|--------|--------|--------|--------|--------|--------|--------|--------|--------|
E|--------|--------|--------|--------|--------|--------|--------|--------|--------|


E|--------|--------|--------|--------|--------|--------|--------|--------|--------|
B|--------|--------|--------|--------|--------|--------|--------|--------|--------|
G|--------|--------|--------|--------|--------|--------|--------|--------|--------|
D|--------|--------|--------|--------|--------|--------|--------|--------|--------|
A|--------|--------|--------|--------|--------|--------|--------|--------|--------|
E|--------|--------|--------|--------|--------|--------|--------|--------|--------|


E|--------|--------|--------|--------|--------|--------|--------|--------|--------|
B|--------|--------|--------|--------|--------|--------|--------|--------|--------|
G|--------|--------|--------|--------|--------|--------|--------|--------|--------|
D|--------|--------|--------|--------|--------|--------|--------|--------|--------|
A|--------|--------|--------|--------|--------|--------|--------|--------|--------|
E|--------|--------|--------|--------|--------|--------|--------|--------|--------|


E|--------|--------|--------|--------|--------|--------|--------|--------|--------|
B|--------|--------|--------|--------|--------|--------|--------|--------|--------|
G|--------|--------|--------|--------|--------|--------|--------|--------|--------|
D|--------|--------|--------|--------|--------|--------|--------|--------|--------|
A|--------|--------|--------|--------|--------|--------|--------|--------|--------|
E|--------|--------|--------|--------|--------|--------|--------|--------|--------|


E|--------|--------|--------|--------|--------|--------|--------|--------|--------|
B|--------|--------|--------|--------|--------|--------|--------|--------|--------|
G|--------|--------|--------|--------|--------|--------|--------|--------|--------|
D|--------|--------|--------|--------|--------|--------|--------|--------|--------|
A|--------|--------|--------|--------|--------|--------|--------|--------|--------|
E|--------|--------|--------|--------|--------|--------|--------|--------|--------|


E|--------|--------|--------|--------|--------|--------|--------|--------|--------|
B|--------|--------|--------|--------|--------|--------|--------|--------|--------|
G|--------|--------|--------|--------|--------|--------|--------|--------|--------|
D|--------|--------|--------|--------|--------|--------|--------|--------|--------|
A|--------|--------|--------|--------|--------|--------|--------|--------|--------|
E|--------|--------|--------|--------|--------|--------|--------|--------|--------|


E|--------|--------|--------|--------|--------|--------|--------|--------|--------|
B|--------|--------|--------|--------|--------|--------|--------|--------|--------|
G|--------|--------|--------|--------|--------|--------|--------|--------|--------|
D|--------|--------|--------|--------|--------|--------|--------|--------|--------|
A|--------|--------|--------|--------|--------|--------|--------|--------|--------|
E|--------|--------|--------|--------|--------|--------|--------|--------|--------|


E|--------|--------|--------|--------|--------|--------|--------|--------|--------|
B|--------|--------|--------|--------|--------|--------|--------|--------|--------|
G|--------|--------|--------|--------|--------|--------|--------|--------|--------|
D|--------|--------|--------|--------|--------|--------|--------|--------|--------|
A|--------|--------|--------|--------|--------|--------|--------|--------|--------|
E|--------|--------|--------|--------|--------|--------|--------|--------|--------|


E|--------|--------|--------|--------|--------|--------|--------|--------|--------|
B|--------|--------|--------|--------|--------|--------|--------|--------|--------|
G|--------|--------|--------|--------|--------|--------|--------|--------|--------|
D|--------|--------|--------|--------|--------|--------|--------|--------|--------|
A|--------|--------|--------|--------|--------|--------|--------|--------|--------|
E|--------|--------|--------|--------|--------|--------|--------|--------|--------|


E|--------|--------|--------|--------|--------|--------|--------|--------|--------|
B|--------|--------|--------|--------|--------|--------|--------|--------|--------|
G|--------|--------|--------|--------|--------|--------|--------|--------|--------|
D|--------|--------|--------|--------|--------|--------|--------|--------|--------|
A|--------|--------|--------|--------|--------|--------|--------|--------|--------|
E|--------|--------|--------|--------|--------|--------|--------|--------|--------|


E|--------|
B|--------|
G|--------|
D|--------|
A|--------|
E|--------|





Track 3: Keyboard arranged for guitar

E|--------|--------|--------|--------|-----------------|-----------------|-----------------|
B|--------|--------|--------|--------|-14----15--15----|-14----12--12----|-14----15--15----|
G|--------|--------|--------|--------|-14----14--14----|-14----13--13----|-14----14--14----|
D|--------|--------|--------|--------|-14----16--16----|-14----14--14----|-14----16--16----|
A|--------|--------|--------|--------|-----------------|-----------------|-----------------|
E|--------|--------|--------|--------|-----------------|-----------------|-----------------|


E|-----------------|---------------------------|---------------------------|-----------------------|
B|-14----12--12----|---------------------5-----|---------------------------|-----------------------|
G|-14----13--13----|-------------4---4---------|-7-----------6-------------|-------------4---4-----|
D|-14----14--14----|---------7-----------------|-----7------------7--------|---------7-------------|
A|-----------------|-----7---------------------|---------7------------7----|-----7-----------------|
E|-----------------|---------------------------|---------------------------|-----------------------|


E|------------------------|-----------------------|--------|-----------------------|
B|------------------------|-----------------------|--------|-----------------------|
G|---------7---6----------|-------------4---4-----|--------|-------------4---4-----|
D|------------------9-----|---------7-------------|--------|---------7-------------|
A|-----7------------------|-----7-----------------|--------|-----7-----------------|
E|------------------------|-----------------------|--------|-----------------------|


E|------------------------|---------------------------|---------------------------|
B|------------------------|---------------------5-----|---------------------------|
G|---------7---6----------|-------------4---4---------|-7-----------6-------------|
D|------------------9-----|---------7-----------------|-----7------------7--------|
A|-----7------------------|-----7---------------------|---------7------------7----|
E|------------------------|---------------------------|---------------------------|


E|-----------------------|------------------------|---------------------------------|
B|-----------------------|------------------------|-7-----------9-----------10------|
G|-------------4---4-----|---------7---6----------|-----7-----------7---------------|
D|---------7-------------|------------------9-----|---------7-----------7-------7---|
A|-----7-----------------|-----7------------------|---------------------------------|
E|-----------------------|------------------------|---------------------------------|


E|---------------------------------|---------------------------------|-------------|
B|-5-------------------------------|---------------------------------|-------------|
G|-----6-------7-----------6-------|-4-----------4-----------4-------|-6-----------|
D|---------7-------7-----------7---|-----2-----------2-----------2---|-------------|
A|---------------------7-----------|---------2-----------2-----------|-4-----------|
E|---------------------------------|---------------------------------|-------------|


E|---------------------------------|---------------------------------|--------|--------|
B|-7-----------9-----------10------|-5-------------------------------|--------|--------|
G|-----7-----------7---------------|-----6-------7-----------6-------|--------|--------|
D|---------7-----------7-------7---|---------7-------7-----------7---|--------|--------|
A|---------------------------------|---------------------7-----------|--------|--------|
E|---------------------------------|---------------------------------|--------|--------|


E|-----------------|-----------------|-----------------|-----------------|-----------------|
B|-14----15--15----|-14----12--12----|-14----15--15----|-14----12--12----|-14----15--15----|
G|-14----14--14----|-14----13--13----|-14----14--14----|-14----13--13----|-14----14--14----|
D|-14----16--16----|-14----14--14----|-14----16--16----|-14----14--14----|-14----16--16----|
A|-----------------|-----------------|-----------------|-----------------|-----------------|
E|-----------------|-----------------|-----------------|-----------------|-----------------|


E|-----------------|---------------------------|---------------------------|-----------------------|
B|-14----12--12----|---------------------5-----|---------------------------|-----------------------|
G|-14----13--13----|-------------4---4---------|-7-----------6-------------|-------------4---4-----|
D|-14----14--14----|---------7-----------------|-----7------------7--------|---------7-------------|
A|-----------------|-----7---------------------|---------7------------7----|-----7-----------------|
E|-----------------|---------------------------|---------------------------|-----------------------|


E|------------------------|-----------------------|--------|-----------------------|
B|------------------------|-----------------------|--------|-----------------------|
G|---------7---6----------|-------------4---4-----|--------|-------------4---4-----|
D|------------------9-----|---------7-------------|--------|---------7-------------|
A|-----7------------------|-----7-----------------|--------|-----7-----------------|
E|------------------------|-----------------------|--------|-----------------------|


E|------------------------|---------------------------|---------------------------|
B|------------------------|---------------------5-----|---------------------------|
G|---------7---6----------|-------------4---4---------|-7-----------6-------------|
D|------------------9-----|---------7-----------------|-----7------------7--------|
A|-----7------------------|-----7---------------------|---------7------------7----|
E|------------------------|---------------------------|---------------------------|


E|-----------------------|------------------------|---------------------------------|
B|-----------------------|------------------------|-7-----------9-----------10------|
G|-------------4---4-----|---------7---6----------|-----7-----------7---------------|
D|---------7-------------|------------------9-----|---------7-----------7-------7---|
A|-----7-----------------|-----7------------------|---------------------------------|
E|-----------------------|------------------------|---------------------------------|


E|---------------------------------|---------------------------------|-------------|
B|-5-------------------------------|---------------------------------|-------------|
G|-----6-------7-----------6-------|-4-----------4-----------4-------|-6-----------|
D|---------7-------7-----------7---|-----2-----------2-----------2---|-------------|
A|---------------------7-----------|---------2-----------2-----------|-4-----------|
E|---------------------------------|---------------------------------|-------------|


E|---------------------------------|---------------------------------|--------|--------|
B|-7-----------9-----------10------|-5-------------------------------|--------|--------|
G|-----7-----------7---------------|-----6-------7-----------6-------|--------|--------|
D|---------7-----------7-------7---|---------7-------7-----------7---|--------|--------|
A|---------------------------------|---------------------7-----------|--------|--------|
E|---------------------------------|---------------------------------|--------|--------|


E|-----------------|-----------------|-----------------|-----------------|-----------------|
B|-14----15--15----|-14----12--12----|-14----15--15----|-14----12--12----|-14----15--15----|
G|-14----14--14----|-14----13--13----|-14----14--14----|-14----13--13----|-14----14--14----|
D|-14----16--16----|-14----14--14----|-14----16--16----|-14----14--14----|-14----16--16----|
A|-----------------|-----------------|-----------------|-----------------|-----------------|
E|-----------------|-----------------|-----------------|-----------------|-----------------|


E|-----------------|-----------------|-----------------|--------|--------|--------|
B|-14----12--12----|-14----15--15----|-14----12--12----|--------|--------|--------|
G|-14----13--13----|-14----14--14----|-14----13--13----|--------|--------|--------|
D|-14----14--14----|-14----16--16----|-14----14--14----|--------|--------|--------|
A|-----------------|-----------------|-----------------|--------|--------|--------|
E|-----------------|-----------------|-----------------|--------|--------|--------|


E|--------|--------|--------|--------|--------|---------------------------|--------|
B|--------|--------|--------|--------|--------|---------------------------|--------|
G|--------|--------|--------|--------|--------|-------4-------6-------8---|--------|
D|--------|--------|--------|--------|--------|-------4-------6-------8---|--------|
A|--------|--------|--------|--------|--------|-------6-------8-------10--|--------|
E|--------|--------|--------|--------|--------|---------------------------|--------|


E|--------|--------|--------|-----------------|-----------------|-----------------|
B|--------|--------|--------|-14----15--15----|-14----12--12----|-14----15--15----|
G|--------|--------|--------|-14----14--14----|-14----13--13----|-14----14--14----|
D|--------|--------|--------|-14----16--16----|-14----14--14----|-14----16--16----|
A|--------|--------|--------|-----------------|-----------------|-----------------|
E|--------|--------|--------|-----------------|-----------------|-----------------|


E|-----------------|-----------------|-----------------|-----------------|-----------------|
B|-14----12--12----|-14----15--15----|-14----12--12----|-14----15--15----|-14----12--12----|
G|-14----13--13----|-14----14--14----|-14----13--13----|-14----14--14----|-14----13--13----|
D|-14----14--14----|-14----16--16----|-14----14--14----|-14----16--16----|-14----14--14----|
A|-----------------|-----------------|-----------------|-----------------|-----------------|
E|-----------------|-----------------|-----------------|-----------------|-----------------|


E|--------|--------|--------|--------|--------|--------|--------|--------|-----------------|
B|--------|--------|--------|--------|--------|--------|--------|--------|-14----15--15----|
G|--------|--------|--------|--------|--------|--------|--------|--------|-14----14--14----|
D|--------|--------|--------|--------|--------|--------|--------|--------|-14----16--16----|
A|--------|--------|--------|--------|--------|--------|--------|--------|-----------------|
E|--------|--------|--------|--------|--------|--------|--------|--------|-----------------|


E|-----------------|-----------------|-----------------|-----------------|-----------------|
B|-14----12--12----|-14----15--15----|-14----12--12----|-14----15--15----|-14----12--12----|
G|-14----13--13----|-14----14--14----|-14----13--13----|-14----14--14----|-14----13--13----|
D|-14----14--14----|-14----16--16----|-14----14--14----|-14----16--16----|-14----14--14----|
A|-----------------|-----------------|-----------------|-----------------|-----------------|
E|-----------------|-----------------|-----------------|-----------------|-----------------|


E|-----------------|-----------------|-----------------|-----------------|-----------------|
B|-14----15--15----|-14----12--12----|-14----15--15----|-14----12--12----|-14----15--15----|
G|-14----14--14----|-14----13--13----|-14----14--14----|-14----13--13----|-14----14--14----|
D|-14----16--16----|-14----14--14----|-14----16--16----|-14----14--14----|-14----16--16----|
A|-----------------|-----------------|-----------------|-----------------|-----------------|
E|-----------------|-----------------|-----------------|-----------------|-----------------|


E|-----------------|-----------------|-----------------|-----------------|-----------------|
B|-14----12--12----|-14----15--15----|-14----12--12----|-14----15--15----|-14----12--12----|
G|-14----13--13----|-14----14--14----|-14----13--13----|-14----14--14----|-14----13--13----|
D|-14----14--14----|-14----16--16----|-14----14--14----|-14----16--16----|-14----14--14----|
A|-----------------|-----------------|-----------------|-----------------|-----------------|
E|-----------------|-----------------|-----------------|-----------------|-----------------|


E|-----------------|-----------------|
B|-14----15--15----|-14----12--12----|
G|-14----14--14----|-14----13--13----|
D|-14----16--16----|-14----14--14----|
A|-----------------|-----------------|
E|-----------------|-----------------|





Track 4: Untitled

E|--------|--------|--------|--------|--------|--------|--------|--------|--------|
B|--------|--------|--------|--------|--------|--------|--------|--------|--------|
G|--------|--------|--------|--------|--------|--------|--------|--------|--------|
D|--------|--------|--------|--------|--------|--------|--------|--------|--------|
A|--------|--------|--------|--------|--------|--------|--------|--------|--------|
E|--------|--------|--------|--------|--------|--------|--------|--------|--------|


E|--------|--------|--------|--------|--------|--------|--------|--------|--------|
B|--------|--------|--------|--------|--------|--------|--------|--------|--------|
G|--------|--------|--------|--------|--------|--------|--------|--------|--------|
D|--------|--------|--------|--------|--------|--------|--------|--------|--------|
A|--------|--------|--------|--------|--------|--------|--------|--------|--------|
E|--------|--------|--------|--------|--------|--------|--------|--------|--------|


E|--------|--------|--------|--------|--------|--------|--------|--------|--------|
B|--------|--------|--------|--------|--------|--------|--------|--------|--------|
G|--------|--------|--------|--------|--------|--------|--------|--------|--------|
D|--------|--------|--------|--------|--------|--------|--------|--------|--------|
A|--------|--------|--------|--------|--------|--------|--------|--------|--------|
E|--------|--------|--------|--------|--------|--------|--------|--------|--------|


E|--------|--------|--------|--------|--------|--------|--------|--------|--------|
B|--------|--------|--------|--------|--------|--------|--------|--------|--------|
G|--------|--------|--------|--------|--------|--------|--------|--------|--------|
D|--------|--------|--------|--------|--------|--------|--------|--------|--------|
A|--------|--------|--------|--------|--------|--------|--------|--------|--------|
E|--------|--------|--------|--------|--------|--------|--------|--------|--------|


E|--------|--------|--------|--------|--------|--------|--------|--------|--------|
B|--------|--------|--------|--------|--------|--------|--------|--------|--------|
G|--------|--------|--------|--------|--------|--------|--------|--------|--------|
D|--------|--------|--------|--------|--------|--------|--------|--------|--------|
A|--------|--------|--------|--------|--------|--------|--------|--------|--------|
E|--------|--------|--------|--------|--------|--------|--------|--------|--------|


E|--------|--------|--------|--------|--------|--------|--------|--------|--------|
B|--------|--------|--------|--------|--------|--------|--------|--------|--------|
G|--------|--------|--------|--------|--------|--------|--------|--------|--------|
D|--------|--------|--------|--------|--------|--------|--------|--------|--------|
A|--------|--------|--------|--------|--------|--------|--------|--------|--------|
E|--------|--------|--------|--------|--------|--------|--------|--------|--------|


E|--------|--------|--------|--------|--------|--------|--------|--------|--------|
B|--------|--------|--------|--------|--------|--------|--------|--------|--------|
G|--------|--------|--------|--------|--------|--------|--------|--------|--------|
D|--------|--------|--------|--------|--------|--------|--------|--------|--------|
A|--------|--------|--------|--------|--------|--------|--------|--------|--------|
E|--------|--------|--------|--------|--------|--------|--------|--------|--------|


E|--------|--------|------19----19---|-19-----|-19---17---15---17---15---14---|-17---15---14---12----|
B|--------|--------|-----------------|--------|-------------------------------|----------------------|
G|--------|--------|-----------------|--------|-------------------------------|----------------------|
D|--------|--------|-----------------|--------|-------------------------------|----------------------|
A|--------|--------|-----------------|--------|-------------------------------|----------------------|
E|--------|--------|-----------------|--------|-------------------------------|----------------------|


E|----------------15----|--------|--------|--------|--------|--------|--------|--------|
B|------12---13---------|--------|--------|--------|--------|--------|--------|--------|
G|-14-------------------|--------|--------|--------|--------|--------|--------|--------|
D|----------------------|--------|--------|--------|--------|--------|--------|--------|
A|----------------------|--------|--------|--------|--------|--------|--------|--------|
E|----------------------|--------|--------|--------|--------|--------|--------|--------|


E|--------|--------|--------|--------|--------|--------|--------|--------|--------|
B|--------|--------|--------|--------|--------|--------|--------|--------|--------|
G|--------|--------|--------|--------|--------|--------|--------|--------|--------|
D|--------|--------|--------|--------|--------|--------|--------|--------|--------|
A|--------|--------|--------|--------|--------|--------|--------|--------|--------|
E|--------|--------|--------|--------|--------|--------|--------|--------|--------|


E|--------|--------|--------|--------|--------|--------|--------|--------|--------|
B|--------|--------|--------|--------|--------|--------|--------|--------|--------|
G|--------|--------|--------|--------|--------|--------|--------|--------|--------|
D|--------|--------|--------|--------|--------|--------|--------|--------|--------|
A|--------|--------|--------|--------|--------|--------|--------|--------|--------|
E|--------|--------|--------|--------|--------|--------|--------|--------|--------|


E|--------|--------|--------|--------|--------|--------|--------|--------|--------|
B|--------|--------|--------|--------|--------|--------|--------|--------|--------|
G|--------|--------|--------|--------|--------|--------|--------|--------|--------|
D|--------|--------|--------|--------|--------|--------|--------|--------|--------|
A|--------|--------|--------|--------|--------|--------|--------|--------|--------|
E|--------|--------|--------|--------|--------|--------|--------|--------|--------|


E|--------|--------|--------|--------|--------|
B|--------|--------|--------|--------|--------|
G|--------|--------|--------|--------|--------|
D|--------|--------|--------|--------|--------|
A|--------|--------|--------|--------|--------|
E|--------|--------|--------|--------|--------|





Track 5: Untitled

B|--------|--------|--------|--------|--------|--------|--------|--------|--------|
G|--------|--------|--------|--------|--------|--------|--------|--------|--------|
D|--------|--------|--------|--------|--------|--------|--------|--------|--------|
A|--------|--------|--------|--------|--------|--------|--------|--------|--------|
E|--------|--------|--------|--------|--------|--------|--------|--------|--------|
B|--------|--------|--------|--------|--------|--------|--------|--------|--------|


B|--------|--------|--------|--------|--------|--------|--------|--------|--------|
G|--------|--------|--------|--------|--------|--------|--------|--------|--------|
D|--------|--------|--------|--------|--------|--------|--------|--------|--------|
A|--------|--------|--------|--------|--------|--------|--------|--------|--------|
E|--------|--------|--------|--------|--------|--------|--------|--------|--------|
B|--------|--------|--------|--------|--------|--------|--------|--------|--------|


B|--------|--------|--------|--------|--------|--------|--------|--------|--------|
G|--------|--------|--------|--------|--------|--------|--------|--------|--------|
D|--------|--------|--------|--------|--------|--------|--------|--------|--------|
A|--------|--------|--------|--------|--------|--------|--------|--------|--------|
E|--------|--------|--------|--------|--------|--------|--------|--------|--------|
B|--------|--------|--------|--------|--------|--------|--------|--------|--------|


B|--------|--------|--------|--------|--------|--------|--------|--------|--------|
G|--------|--------|--------|--------|--------|--------|--------|--------|--------|
D|--------|--------|--------|--------|--------|--------|--------|--------|--------|
A|--------|--------|--------|--------|--------|--------|--------|--------|--------|
E|--------|--------|--------|--------|--------|--------|--------|--------|--------|
B|--------|--------|--------|--------|--------|--------|--------|--------|--------|


B|--------|--------|--------|--------|--------|--------|--------|--------|--------|
G|--------|--------|--------|--------|--------|--------|--------|--------|--------|
D|--------|--------|--------|--------|--------|--------|--------|--------|--------|
A|--------|--------|--------|--------|--------|--------|--------|--------|--------|
E|--------|--------|--------|--------|--------|--------|--------|--------|--------|
B|--------|--------|--------|--------|--------|--------|--------|--------|--------|


B|--------|--------|--------|--------|--------|--------|--------|--------|--------|
G|--------|--------|--------|--------|--------|--------|--------|--------|--------|
D|--------|--------|--------|--------|--------|--------|--------|--------|--------|
A|--------|--------|--------|--------|--------|--------|--------|--------|--------|
E|--------|--------|--------|--------|--------|--------|--------|--------|--------|
B|--------|--------|--------|--------|--------|--------|--------|--------|--------|


B|--------|--------|--------|--------|--------|--------|--------|--------|--------|
G|--------|--------|--------|--------|--------|--------|--------|--------|--------|
D|--------|--------|--------|--------|--------|--------|--------|--------|--------|
A|--------|--------|--------|--------|--------|--------|--------|--------|--------|
E|--------|--------|--------|--------|--------|--------|--------|--------|--------|
B|--------|--------|--------|--------|--------|--------|--------|--------|--------|


B|--------|--------|--------|--------|--------|--------|--------|--------|--------|
G|--------|--------|--------|--------|--------|--------|--------|--------|--------|
D|--------|--------|--------|--------|--------|--------|--------|--------|--------|
A|--------|--------|--------|--------|--------|--------|--------|--------|--------|
E|--------|--------|--------|--------|--------|--------|--------|--------|--------|
B|--------|--------|--------|--------|--------|--------|--------|--------|--------|


B|--------|--------|--------|--------|--------|--------|--------|--------|--------|
G|--------|--------|--------|--------|--------|--------|--------|--------|--------|
D|--------|--------|--------|--------|--------|--------|--------|--------|--------|
A|--------|--------|--------|--------|--------|--------|--------|--------|--------|
E|--------|--------|--------|--------|--------|--------|--------|--------|--------|
B|--------|--------|--------|--------|--------|--------|--------|--------|--------|


B|--------|--------|--------|--------|--------|--------|--------|--------|--------|
G|--------|--------|--------|--------|--------|--------|--------|--------|--------|
D|--------|--------|--------|--------|--------|--------|--------|--------|--------|
A|--------|--------|--------|--------|--------|--------|--------|--------|--------|
E|--------|--------|--------|--------|--------|--------|--------|--------|--------|
B|--------|--------|--------|--------|--------|--------|--------|--------|--------|


B|--------|--------|--------|--------|--------|--------|--------|--------|--------|
G|--------|--------|--------|--------|--------|--------|--------|--------|--------|
D|--------|--------|--------|--------|--------|--------|--------|--------|--------|
A|--------|--------|--------|--------|--------|--------|--------|--------|--------|
E|--------|--------|--------|--------|--------|--------|--------|--------|--------|
B|--------|--------|--------|--------|--------|--------|--------|--------|--------|


B|--------|--------|--------|--------|--------|--------|--------|--------|--------|
G|--------|--------|--------|--------|--------|--------|--------|--------|--------|
D|--------|--------|--------|--------|--------|--------|--------|--------|--------|
A|--------|--------|--------|--------|--------|--------|--------|--------|--------|
E|--------|--------|--------|--------|--------|--------|--------|--------|--------|
B|--------|--------|--------|--------|--------|--------|--------|--------|--------|


B|--------|
G|--------|
D|--------|
A|--------|
E|--------|
B|--------|