Site menu:

    

Browse: 0-9 A B C D E F G H I J K L N O P Q R S T U V W X Y Z

toto - ill be over you:



Title: I'll Be Over You
Artist: 
Album: Fahrenheit
Author: Toto


Track 1: piano 1

E|--------|---------------------|---------------------|---------------------|---------------------|
B|--------|-3----4----4---4-----|-4----------1----3---|-3----1----1---1-----|------------1----3---|
G|--------|-3----3----3---3-----|-3-----3----2----3---|-3----3----2---2-----|-------3----2----3---|
D|--------|-3----5----5---5-----|-5-----5-------------|---------------------|-------5-------------|
A|--------|---------------------|---------------------|---------------------|---------------------|
E|--------|---------------------|---------------------|---------------------|---------------------|


E|---------------------|---------------------|--------|---------------------|---------------------|
B|-3----4----4---4-----|-4-------------------|--------|------------1----3---|-3----4----4---4-----|
G|-3----3----3---3-----|-3-----3----2----3---|-3------|-3-----3----2----3---|-3----3----3---3-----|
D|-3----5----5---5-----|-5-----3----3----3---|-3------|-3-----5----3----3---|------5----5---5-----|
A|---------------------|---------------------|--------|-------8-------------|---------------------|
E|---------------------|---------------------|--------|---------------------|---------------------|


E|---------------------|---------------------|---------------------|---------------------|
B|-4----------1----3---|-3----1----1---1-----|-1----------1----3---|-3----4----4---4-----|
G|-3-----3----2----3---|-3----3----2---2-----|-2-----3----2----3---|-3----3----3---3-----|
D|-5-----5----3----3---|-3----3----3---3-----|-3-----5----3----3---|-3----5----5---5-----|
A|-------8-------------|---------------------|-------8-------------|---------------------|
E|---------------------|---------------------|---------------------|---------------------|


E|---------------------|--------|-----------------1---|-1-----3--1--1-----|-1---------------|
B|-4-------------------|--------|-------3----4--------|-------------------|-4---------------|
G|-3-----3----2----3---|-3------|-3-------------------|-2-----------------|-0-----0---0-----|
D|-5-----3----3----3---|-3------|-3-------------------|-------------------|-----------------|
A|---------------------|--------|---------------------|-------------------|-----------------|
E|---------------------|--------|---------------------|-------------------|-----------------|


E|-----------------------------|------------------------1---|-------------|-1-----1----1----1---|
B|-4----3-------------3----4---|-3------------1----3----1---|-3-----1-----|-------1----3----1---|
G|-----------5---5----3--------|------5--5---------2----2---|-3-----2-----|-3-----2----3----2---|
D|-4------------------4----4---|-3----------------------3---|-3-----3-----|-5-------------------|
A|-----------------------------|----------------------------|-------------|---------------------|
E|-----------------------------|----------------------------|-------------|---------------------|


E|-1-----1-----|-1-----1---------1---|-------------|-------------------------|--------|
B|-------1-----|-3-----1----3--------|-4-----3-----|-1-----------------------|--------|
G|-3-----2-----|-0-------------------|-3-----3-----|-------3---2--0---2---3--|-3------|
D|-5-----------|---------------------|-------------|-3-----------------------|--------|
A|-------------|---------------------|-------------|-------------------------|--------|
E|-------------|---------------------|-------------|-------------------------|--------|


E|--------|---------------------|---------------------|---------------------|---------------------|
B|--------|-3----4----4---4-----|-4----------1----3---|-3----1----1---1-----|-1----------1----3---|
G|--------|-3----3----3---3-----|-3-----3----2----3---|-3----3----2---2-----|-2-----3----3----3---|
D|--------|-3----5----5---5-----|-5-----5-------------|---------------------|-------5-------------|
A|--------|---------------------|---------------------|---------------------|---------------------|
E|--------|---------------------|---------------------|---------------------|---------------------|


E|---------------------|---------------------|--------|---------------------|-------------------8----|
B|-3-------------------|---------------------|--------|-------3----4----6---|-6----6---8---6---------|
G|-3----3----3---3-----|-3-----3----2----3---|-3------|-3-------------------|-5--------5---5---------|
D|-3----5----5---5-----|-5-----3----3----3---|-3------|-3-------------------|-7----------------------|
A|---------------------|---------------------|--------|---------------------|------------------------|
E|---------------------|---------------------|--------|---------------------|------------------------|


E|-6---------------|-----------------------------|------------------------1---|-------------|
B|-4-----4---4-----|-4----3----1---1----3----4---|-3----1--1----1----3----1---|-3-----1-----|
G|-3-----3---3-----|-3----3--------3-------------|------3--3----0----2----2---|-3-----2-----|
D|-5-----5---5-----|-4---------4--------4----4---|-3----3--3----2----4----3---|-3-----3-----|
A|-----------------|-----------------------------|----------------------------|-------------|
E|-----------------|-----------------------------|----------------------------|-------------|


E|-1-----1----1----1---|-1-----1-----|-1-----1---------1---|-------------|-------------------------|
B|-------1----3----1---|-------1-----|-3-----1----3--------|-4-----3-----|-1-----------------------|
G|-3-----2----3----2---|-3-----2-----|-0-------------------|-3-----3-----|-------3---2--0---2---3--|
D|-5-------------------|-5-----------|---------------------|-------------|-3-----------------------|
A|---------------------|-------------|---------------------|-------------|-------------------------|
E|---------------------|-------------|---------------------|-------------|-------------------------|


E|--------|--------|-----------------------------|---------------------|---------------------|
B|--------|--------|-----------------------------|-3----3----3---3-----|---------------------|
G|-3------|--------|-5----5----5---5----5----5---|-5----5----5---4-----|-3----3----3---3-----|
D|--------|--------|-6----6----6---6----6----6---|-5----5----5---5-----|-4----4----4---4-----|
A|--------|--------|-----------------------------|---------------------|---------------------|
E|--------|--------|-----------------------------|---------------------|---------------------|


E|-----------------------------|--------------------|-----------------1---|-------------|
B|-1----1----1---1----1--------|-------1----1--1----|-------1----3----1---|-3-----1-----|
G|-3----3----3---2----2----2---|-3-----3----3--3----|-3-----0----2----2---|-3-----2-----|
D|-3----3----3---3----3----3---|-5------------------|-5-----2----4----3---|-3-----3-----|
A|-----------------------------|--------------------|---------------------|-------------|
E|-----------------------------|--------------------|---------------------|-------------|


E|-1-----1----1----1---|-1-----1-----|-1-----1---------1---|-------------|-----------------1---|
B|-------1----3----1---|-------1-----|-3-----1----3--------|-4-----3-----|-1-----1----3----1---|
G|-3-----2----3----2---|-3-----2-----|-0-------------------|-3-----3-----|-------0----2----2---|
D|-5-------------------|-5-----------|---------------------|-------------|-3-----2----4----3---|
A|---------------------|-------------|---------------------|-------------|---------------------|
E|---------------------|-------------|---------------------|-------------|---------------------|


E|-------------|-1-----1----1----1---|-1-----1-----|-1-----1---------1---|-------------|
B|-3-----1-----|-------1----3----1---|-------1-----|-3-----1----3--------|-4-----3-----|
G|-3-----2-----|-3-----2----3----2---|-3-----2-----|-0-------------------|-3-----3-----|
D|-3-----3-----|-5-------------------|-5-----------|---------------------|-------------|
A|-------------|---------------------|-------------|---------------------|-------------|
E|-------------|---------------------|-------------|---------------------|-------------|


E|-----------------1---|-------------|-1-----1----1----1---|-1-----1-----|-1-----1---------1---|
B|-1-----1----3----1---|-3-----1-----|-------1----3----1---|-------1-----|-3-----1----3--------|
G|-------0----2----2---|-3-----2-----|-3-----2----3----2---|-3-----2-----|-0-------------------|
D|-3-----2----4----3---|-3-----3-----|-5-------------------|-5-----------|---------------------|
A|---------------------|-------------|---------------------|-------------|---------------------|
E|---------------------|-------------|---------------------|-------------|---------------------|


E|-------------|-----------------1---|-------------|-1-----1----1----1---|-1-----1-----|
B|-4-----3-----|-1-----1----3----1---|-3-----1-----|-------1----3----1---|-------1-----|
G|-3-----3-----|-------0----2----2---|-3-----2-----|-3-----2----3----2---|-3-----2-----|
D|-------------|-3-----2----4----3---|-3-----3-----|-5-------------------|-5-----------|
A|-------------|---------------------|-------------|---------------------|-------------|
E|-------------|---------------------|-------------|---------------------|-------------|


E|-1-----1---------1---|-------------|-------------|
B|-3-----1----3--------|-4-----3-----|-1-----------|
G|-0-------------------|-3-----3-----|-2-----------|
D|---------------------|-------------|-3-----------|
A|---------------------|-------------|-------------|
E|---------------------|-------------|-------------|





Track 2: fx

E|---------------------|---------------------|---------------------|-----------------|
B|------------1----3---|-3----4----4---4-----|-4----------1----3---|-3-----1---1-----|
G|-------3----2----3---|-3----3----3---3-----|-3-----3----2----3---|-3-----2---2-----|
D|-------5----3----3---|-3----5----5---5-----|-5-----5-------------|-3-----3---3-----|
A|---------------------|---------------------|-------8-------------|-----------------|
E|---------------------|---------------------|---------------------|-----------------|


E|---------------------|---------------------|---------------------|--------|---------------------|
B|-1----------1----3---|-3----4----4---4-----|-4----------1--------|--------|------------1----3---|
G|-2-----3----2----3---|-3----3----3---3-----|-3-----3----2----3---|-3------|-3-----3----2----3---|
D|-3-----5----3----3---|-3----5----5---5-----|-5-----5----3----3---|-3------|-3-----5----3----3---|
A|---------------------|---------------------|---------------------|--------|---------------------|
E|---------------------|---------------------|---------------------|--------|---------------------|


E|---------------------|---------------------|-----------------|---------------------|
B|-3----4----4---4-----|-4----------1----3---|-3-----1---1-----|-1----------1----3---|
G|-3----3----3---3-----|-3-----3----2----3---|-3-----2---2-----|-2-----3----2----3---|
D|-3----5----5---5-----|-5-----5----3----3---|-3-----3---3-----|-3-----5----3----3---|
A|---------------------|-------8-------------|-----------------|-------8-------------|
E|---------------------|---------------------|-----------------|---------------------|


E|---------------------|---------------------|--------|--------|--------|--------|
B|-3----4----4---4-----|-4----------1--------|--------|--------|--------|--------|
G|-3----3----3---3-----|-3-----3----2----3---|-3------|-3------|--------|--------|
D|-3----5----5---5-----|-5-----3----3----3---|-3------|-3------|--------|--------|
A|---------------------|---------------------|--------|--------|--------|--------|
E|---------------------|---------------------|--------|--------|--------|--------|


E|--------|--------|-------------|-------------|-1-----1-----|-------1-----|-------------|
B|--------|--------|-3-----1-----|-3-----1-----|-3-----1-----|-6-----1-----|-4-----3-----|
G|--------|--------|-3-----2-----|-3-----2-----|-3-----2-----|-3-----2-----|-3-----3-----|
D|--------|--------|-3-----3-----|-5-----3-----|-3-----3-----|-5-----3-----|-5-----3-----|
A|--------|--------|-------------|-------------|-------------|-6-----------|-------------|
E|--------|--------|-------------|-------------|-------------|-------------|-------------|


E|-------------|--------|---------------------|---------------------|---------------------|
B|-1-----------|--------|------------1----3---|-3----4----4---4-----|-4----------1----3---|
G|-3-----3-----|-3------|-------3----2----3---|-3----3----3---3-----|-3-----3----2----3---|
D|-3-----------|-3------|-------5----3----3---|-3----5----5---5-----|-5-----5-------------|
A|-------------|--------|---------------------|---------------------|-------8-------------|
E|-------------|--------|---------------------|---------------------|---------------------|


E|-----------------|---------------------|---------------------|---------------------|
B|-3-----1---1-----|-1----------1----3---|-3----4----4---4-----|-4----------1--------|
G|-3-----2---2-----|-2-----3----2----3---|-3----3----3---3-----|-3-----3----2----3---|
D|-3-----3---3-----|-3-----5----3----3---|-3----5----5---5-----|-5-----5----3----3---|
A|-----------------|---------------------|---------------------|---------------------|
E|-----------------|---------------------|---------------------|---------------------|


E|--------|--------|--------|--------|--------|-------------------------|-------------|
B|--------|--------|-1------|-4------|-4------|-3----1----1----3----1---|-3-----1-----|
G|-3------|--------|-2------|-3------|-3------|-3----3----0----2----2---|-3-----2-----|
D|-3------|--------|-3------|-5------|-4------|-3----3----2----4----3---|-3-----3-----|
A|--------|--------|--------|--------|--------|-------------------------|-------------|
E|--------|--------|--------|--------|--------|-------------------------|-------------|


E|-------------|-1-----1-----|-------1-----|-------------|-------------|--------|--------|
B|-3-----1-----|-3-----1-----|-6-----1-----|-4-----3-----|-1-----------|--------|--------|
G|-3-----2-----|-3-----2-----|-3-----2-----|-3-----3-----|-3-----3-----|-3------|--------|
D|-5-----3-----|-3-----3-----|-5-----3-----|-5-----3-----|-3-----------|-3------|--------|
A|-------------|-------------|-6-----------|-------------|-------------|--------|--------|
E|-------------|-------------|-------------|-------------|-------------|--------|--------|


E|--------|-------------|--------|-------------|-------------|---------------------|
B|-4------|-6-----6-----|-4------|-1-----1-----|-4-----6-----|-------1----3----1---|
G|-5------|-5-----4-----|-3------|-3-----2-----|-3-----5-----|-3-----0----2----2---|
D|-6------|-5-----5-----|-4------|-3-----3-----|-5-----7-----|-5-----2----4----3---|
A|--------|-------------|--------|-------------|-------------|---------------------|
E|--------|-------------|--------|-------------|-------------|---------------------|


E|-------------|-------------|-1-----1-----|-------1-----|-------------|---------------------|
B|-3-----1-----|-3-----1-----|-3-----1-----|-6-----1-----|-4-----3-----|-1-----1----3----1---|
G|-3-----2-----|-3-----2-----|-3-----2-----|-3-----2-----|-3-----3-----|-3-----0----2----2---|
D|-3-----3-----|-5-----3-----|-3-----3-----|-5-----3-----|-5-----3-----|-3-----2----4----3---|
A|-------------|-------------|-------------|-6-----------|-------------|---------------------|
E|-------------|-------------|-------------|-------------|-------------|---------------------|


E|-------------|-------------|-1-----1-----|-------1-----|-------------|---------------------|
B|-3-----1-----|-3-----1-----|-3-----1-----|-6-----1-----|-4-----3-----|-1-----1----3----1---|
G|-3-----2-----|-3-----2-----|-3-----2-----|-3-----2-----|-3-----3-----|-3-----0----2----2---|
D|-3-----3-----|-5-----3-----|-3-----3-----|-5-----3-----|-5-----3-----|-3-----2----4----3---|
A|-------------|-------------|-------------|-6-----------|-------------|---------------------|
E|-------------|-------------|-------------|-------------|-------------|---------------------|


E|-------------|-------------|-1-----1-----|-------1-----|-------------|---------------------|
B|-3-----1-----|-3-----1-----|-3-----1-----|-6-----1-----|-4-----3-----|-1-----1----3----1---|
G|-3-----2-----|-3-----2-----|-3-----2-----|-3-----2-----|-3-----3-----|-3-----0----2----2---|
D|-3-----3-----|-5-----3-----|-3-----3-----|-5-----3-----|-5-----3-----|-3-----2----4----3---|
A|-------------|-------------|-------------|-6-----------|-------------|---------------------|
E|-------------|-------------|-------------|-------------|-------------|---------------------|


E|-------------|-------------|-1-----1-----|-------1-----|-------------|--------|
B|-3-----1-----|-3-----1-----|-3-----1-----|-6-----1-----|-4-----3-----|-1------|
G|-3-----2-----|-3-----2-----|-3-----2-----|-3-----2-----|-3-----3-----|-3------|
D|-3-----3-----|-5-----3-----|-3-----3-----|-5-----3-----|-5-----3-----|-3------|
A|-------------|-------------|-------------|-6-----------|-------------|--------|
E|-------------|-------------|-------------|-------------|-------------|--------|





Track 3: pad

E|--------|--------|--------|--------|--------|--------|--------|--------|--------|
B|--------|--------|--------|--------|--------|--------|--------|--------|--------|
G|--------|--------|--------|--------|--------|--------|--------|--------|--------|
D|--------|--------|--------|--------|--------|--------|--------|--------|--------|
A|--------|--------|--------|--------|--------|--------|--------|--------|--------|
E|--------|--------|--------|--------|--------|--------|--------|--------|--------|


E|--------|--------|--------|--------|--------|--------|--------|--------|--------|
B|--------|--------|--------|--------|--------|--------|--------|--------|-1------|
G|--------|--------|--------|--------|--------|--------|--------|--------|-2------|
D|--------|--------|--------|--------|--------|--------|--------|--------|-3------|
A|--------|--------|--------|--------|--------|--------|--------|--------|--------|
E|--------|--------|--------|--------|--------|--------|--------|--------|--------|


E|--------|--------|-------------------------|--------|--------|--------|--------|
B|-4------|-4------|-3----1----1----3----1---|--------|--------|--------|--------|
G|-3------|-3------|-3----3----0----2----2---|--------|--------|--------|--------|
D|-5------|-4------|-3----3----2----4----3---|--------|--------|--------|--------|
A|--------|--------|-------------------------|--------|--------|--------|--------|
E|--------|--------|-------------------------|--------|--------|--------|--------|


E|--------|--------|--------|--------|--------|--------|--------|--------|--------|
B|--------|--------|--------|--------|--------|--------|--------|--------|--------|
G|--------|--------|--------|--------|--------|--------|--------|--------|--------|
D|--------|--------|--------|--------|--------|--------|--------|--------|--------|
A|--------|--------|--------|--------|--------|--------|--------|--------|--------|
E|--------|--------|--------|--------|--------|--------|--------|--------|--------|


E|--------|--------|--------|--------|--------|--------|--------|--------|--------|
B|--------|--------|--------|--------|--------|--------|--------|--------|--------|
G|--------|--------|--------|--------|--------|--------|--------|--------|--------|
D|--------|--------|--------|--------|--------|--------|--------|--------|--------|
A|--------|--------|--------|--------|--------|--------|--------|--------|--------|
E|--------|--------|--------|--------|--------|--------|--------|--------|--------|


E|--------|--------|--------|--------|--------|--------|--------|--------|--------|
B|--------|--------|--------|--------|--------|--------|--------|--------|--------|
G|--------|--------|--------|--------|--------|--------|--------|--------|--------|
D|--------|--------|--------|--------|--------|--------|--------|--------|--------|
A|--------|--------|--------|--------|--------|--------|--------|--------|--------|
E|--------|--------|--------|--------|--------|--------|--------|--------|--------|


E|--------|--------|--------|--------|--------|--------|--------|--------|--------|
B|--------|--------|--------|--------|--------|--------|--------|--------|--------|
G|--------|--------|--------|--------|--------|--------|--------|--------|--------|
D|--------|--------|--------|--------|--------|--------|--------|--------|--------|
A|--------|--------|--------|--------|--------|--------|--------|--------|--------|
E|--------|--------|--------|--------|--------|--------|--------|--------|--------|


E|--------|--------|--------|--------|--------|--------|--------|--------|--------|
B|--------|--------|--------|--------|--------|--------|--------|--------|--------|
G|--------|--------|--------|--------|--------|--------|--------|--------|--------|
D|--------|--------|--------|--------|--------|--------|--------|--------|--------|
A|--------|--------|--------|--------|--------|--------|--------|--------|--------|
E|--------|--------|--------|--------|--------|--------|--------|--------|--------|


E|--------|--------|--------|--------|--------|--------|--------|--------|--------|
B|--------|--------|--------|--------|--------|--------|--------|--------|--------|
G|--------|--------|--------|--------|--------|--------|--------|--------|--------|
D|--------|--------|--------|--------|--------|--------|--------|--------|--------|
A|--------|--------|--------|--------|--------|--------|--------|--------|--------|
E|--------|--------|--------|--------|--------|--------|--------|--------|--------|





Track 4: dist gtr

E|--------|--------|--------|--------|--------|--------|--------|--------|--------|
B|--------|--------|--------|--------|--------|--------|--------|--------|--------|
G|--------|--------|--------|--------|--------|--------|--------|--------|--------|
D|--------|--------|--------|--------|--------|--------|--------|--------|--------|
A|--------|--------|--------|--------|--------|--------|--------|--------|--------|
E|--------|--------|--------|--------|--------|--------|--------|--------|--------|


E|--------|--------|--------|--------|--------|--------|--------|--------|--------|
B|--------|--------|--------|--------|--------|--------|--------|--------|--------|
G|--------|--------|--------|--------|--------|--------|--------|--------|--------|
D|--------|--------|--------|--------|--------|--------|--------|--------|--------|
A|--------|--------|--------|--------|--------|--------|--------|--------|--------|
E|--------|--------|--------|--------|--------|--------|--------|--------|--------|


E|--------|--------|--------|--------|--------|--------|--------|--------|--------|
B|--------|--------|--------|--------|--------|--------|--------|--------|--------|
G|--------|--------|--------|--------|--------|--------|--------|--------|--------|
D|--------|--------|--------|--------|--------|--------|--------|--------|--------|
A|--------|--------|--------|--------|--------|--------|--------|--------|--------|
E|--------|--------|--------|--------|--------|--------|--------|--------|--------|


E|--------|--------|--------|--------|--------|--------|--------|--------|--------|
B|--------|--------|--------|--------|--------|--------|--------|--------|--------|
G|--------|--------|--------|--------|--------|--------|--------|--------|--------|
D|--------|--------|--------|--------|--------|--------|--------|--------|--------|
A|--------|--------|--------|--------|--------|--------|--------|--------|--------|
E|--------|--------|--------|--------|--------|--------|--------|--------|--------|


E|--------|--------|--------|--------|--------|--------|--------|--------|--------|
B|--------|--------|--------|--------|--------|--------|--------|--------|--------|
G|--------|--------|--------|--------|--------|--------|--------|--------|--------|
D|--------|--------|--------|--------|--------|--------|--------|--------|--------|
A|--------|--------|--------|--------|--------|--------|--------|--------|--------|
E|--------|--------|--------|--------|--------|--------|--------|--------|--------|


E|--------|--------|--------|--------|---------------------------------|-------------------------|
B|--------|--------|--------|--------|-16-16--16---16--16---16-16--15--|-15----15--15------13-15-|
G|--------|--------|--------|--------|---------------------------------|-------------------------|
D|--------|--------|--------|--------|---------------------------------|-------------------------|
A|--------|--------|--------|--------|---------------------------------|-------------------------|
E|--------|--------|--------|--------|---------------------------------|-------------------------|


E|---------------------------------|---------------------------|-------------------------------------------|
B|-15-15--15---15--15---15-15--13--|-13------------------------|------16-16--16--15------------------------|
G|---------------------------------|-------14-14-14-12--14--15-|-15------------------17--15-15-15--17--19--|
D|---------------------------------|---------------------------|-------------------------------------------|
A|---------------------------------|---------------------------|-------------------------------------------|
E|---------------------------------|---------------------------|-------------------------------------------|


E|--------------------|--------|--------|--------|--------|--------|--------|--------|
B|--------------------|--------|--------|--------|--------|--------|--------|--------|
G|-17-17---17---------|--------|--------|--------|--------|--------|--------|--------|
D|--------------------|--------|--------|--------|--------|--------|--------|--------|
A|--------------------|--------|--------|--------|--------|--------|--------|--------|
E|--------------------|--------|--------|--------|--------|--------|--------|--------|


E|--------|--------|--------|--------|--------|--------|--------|--------|------------------|
B|--------|--------|--------|--------|--------|--------|--------|--------|------------------|
G|--------|--------|--------|--------|--------|--------|--------|--------|------------------|
D|--------|--------|--------|--------|--------|--------|--------|--------|------------------|
A|--------|--------|--------|--------|--------|--------|--------|--------|-----------10-12--|
E|--------|--------|--------|--------|--------|--------|--------|--------|------------------|


E|-11---10-10--10-------------------|-----------------------------------|--------------------|
B|-----------------11---13---1513---|-13----13--------------------18----|--------------------|
G|-------------------------------15-|--------------------15----17----17-|-19----19--19-------|
D|----------------------------------|--------------17-15----17----------|--------------------|
A|----------------------------------|-----------15----------------------|--------------------|
E|----------------------------------|-----------------------------------|--------------------|


E|----------------------13--15--18--17--|-----------------------|-------17---18-20------|
B|--------------13--15------------------|-18-20---20----20--20--|------------------20---|
G|----------15--------------------------|-----------------------|-----------------------|
D|--------------------------------------|-----------------------|-----------------------|
A|--------------------------------------|-----------------------|-----------------------|
E|--------------------------------------|-----------------------|-----------------------|


E|-----20------20------------------------|--------|
B|-20-----18---------20----18------20----|-18-----|
G|----------------17----17------17----17-|--------|
D|---------------------------------------|--------|
A|---------------------------------------|--------|
E|---------------------------------------|--------|





Track 5: piano 1

E|--------|--------|--------|--------|--------|--------|--------|--------|--------|
B|--------|--------|--------|--------|--------|--------|--------|--------|--------|
G|--------|--------|--------|--------|--------|--------|--------|--------|--------|
D|--------|--------|--------|--------|--------|--------|--------|--------|--------|
A|--------|--------|--------|--------|--------|--------|--------|--------|--------|
E|--------|--------|--------|--------|--------|--------|--------|--------|--------|


E|--------|--------|--------|--------|--------|--------|--------|--------|--------|
B|--------|--------|--------|--------|--------|--------|--------|--------|--------|
G|--------|--------|--------|--------|--------|--------|--------|--------|--------|
D|--------|--------|--------|--------|--------|--------|--------|--------|--------|
A|--------|--------|--------|--------|--------|--------|--------|--------|--------|
E|--------|--------|--------|--------|--------|--------|--------|--------|--------|


E|--------|--------|--------|--------|--------|--------|--------|--------|--------|
B|--------|--------|--------|--------|--------|--------|--------|--------|--------|
G|--------|--------|--------|--------|--------|--------|--------|--------|--------|
D|--------|--------|--------|--------|--------|--------|--------|--------|--------|
A|--------|--------|--------|--------|--------|--------|--------|--------|--------|
E|--------|--------|--------|--------|--------|--------|--------|--------|--------|


E|--------|--------|--------|--------|--------|--------|--------|--------|--------|
B|--------|--------|--------|--------|--------|--------|--------|--------|--------|
G|--------|--------|--------|--------|--------|--------|--------|--------|--------|
D|--------|--------|--------|--------|--------|--------|--------|--------|--------|
A|--------|--------|--------|--------|--------|--------|--------|--------|--------|
E|--------|--------|--------|--------|--------|--------|--------|--------|--------|


E|--------|--------|--------|--------|--------|--------|--------|--------|--------|
B|--------|--------|--------|--------|--------|--------|--------|--------|--------|
G|--------|--------|--------|--------|--------|--------|--------|--------|--------|
D|--------|--------|--------|--------|--------|--------|--------|--------|--------|
A|--------|--------|--------|--------|--------|--------|--------|--------|--------|
E|--------|--------|--------|--------|--------|--------|--------|--------|--------|


E|--------|--------|--------|--------|--------|--------|--------|--------|--------|
B|--------|--------|--------|--------|--------|--------|--------|--------|--------|
G|--------|--------|--------|--------|--------|--------|--------|--------|--------|
D|--------|--------|--------|--------|--------|--------|--------|--------|--------|
A|--------|--------|--------|--------|--------|--------|--------|--------|--------|
E|--------|--------|--------|--------|--------|--------|--------|--------|--------|


E|--------|--------|--------|--------|--------|--------|--------|--------|--------|
B|--------|--------|--------|--------|--------|--------|--------|--------|--------|
G|--------|--------|--------|--------|--------|--------|--------|--------|--------|
D|--------|--------|--------|--------|--------|--------|--------|--------|--------|
A|--------|--------|--------|--------|--------|--------|--------|--------|--------|
E|--------|--------|--------|--------|--------|--------|--------|--------|--------|


E|--------|--------|--------|--------|--------|--------|--------|----------------|
B|--------|--------|--------|--------|--------|--------|--------|----------------|
G|--------|--------|--------|--------|--------|--------|--------|----------------|
D|--------|--------|--------|--------|--------|--------|--------|----------------|
A|--------|--------|--------|--------|--------|--------|--------|----------------|
E|--------|--------|--------|--------|--------|--------|--------|----------------|


E|--------|--------|--------|--------|--------|--------|--------|--------|
B|--------|--------|--------|--------|--------|--------|--------|--------|
G|--------|--------|--------|--------|--------|--------|--------|--------|
D|--------|--------|--------|--------|--------|--------|--------|--------|
A|--------|--------|--------|--------|--------|--------|--------|--------|
E|--------|--------|--------|--------|--------|--------|--------|--------|





Track 6: Bass

G|--------|--------|--------|--------|--------|--------|-------------|--------|--------|
D|--------|--------|--------|--------|--------|--------|-------------|-8------|-8------|
A|--------|-6------|-6------|-8------|-8------|-6------|-------8-----|--------|--------|
E|--------|--------|--------|--------|--------|--------|-8-----------|--------|--------|


G|--------|--------|------------------|--------|--------|-----------------------|--------|
D|--------|--------|------------------|--------|--------|-----------------------|-8------|
A|-6------|-6------|-8------8---8-----|-8------|-6------|-------------8-----8---|--------|
E|--------|--------|---------------8--|--------|--------|-8-----8--8------------|--------|


G|--------|--------|-----------------|-----------------|-------------------------|
D|-8------|-7------|-----------------|-----------------|---------------------7---|
A|--------|--------|-10----10--10----|-9-----9---9-----|-8-----8---7----9--------|
E|--------|--------|-----------------|-----------------|-------------------------|


G|---------------------|---------------------------|---------------------|---------------------|
D|-8----8----8---8-----|-8----8----8---8-----------|---------------------|---------------------|
A|---------------------|---------------------8-----|-10---10---10--10----|-6----6----6---6-----|
E|---------------------|------------------------10-|---------------------|---------------------|


G|---------------------------|-------------------|--------|--------|----------------|
D|---------------------------|-------------------|-8------|-8------|----------------|
A|---------------6-----6--6--|-8-----8--8--6-----|--------|--------|-6------6---6---|
E|-8----8----8---------------|-------------------|--------|--------|----------------|


G|--------|----------------|-------------|----------------|-------------------|--------|
D|--------|----------------|-------------|----------------|-------------------|-8------|
A|-6------|-8------8-------|-8-----5-----|-6------6---6---|-------------8-----|--------|
E|--------|-------------8--|-------------|----------------|-8-----8--8--------|--------|


G|--------|-------------------|---------------------------|-----------------|-------------------------|
D|-8------|-7-----7--7--7-----|---------------------------|-----------------|---------------------7---|
A|--------|-------------------|-10----10-10-10---10---10--|-9-----9---9-----|-8-----8---7----9--------|
E|--------|-------------------|---------------------------|-----------------|-------------------------|


G|---------------------|---------------------------|---------------------|---------------------|
D|-8----8----8---8-----|-8----8----8---8-----------|---------------------|---------------------|
A|---------------------|---------------------8-----|-10---10---10--10----|-6----6----6---6-----|
E|---------------------|------------------------10-|---------------------|---------------------|


G|---------------------------|-------------------|--------|--------|---------------------------------|
D|---------------------------|-------------------|-8------|-8------|-6----6--6---6---6----6--6---6---|
A|---------------6-----6--6--|-8-----8--8--6-----|--------|--------|---------------------------------|
E|-8----8----8---------------|-------------------|--------|--------|---------------------------------|


G|---------------------------------|---------------------------------|---------------------------------|
D|-5----5--5---5---5----5--5---5---|---------------------------------|---------------------------------|
A|---------------------------------|-9----9--9---9---9----9--9---9---|-8----8--8---8---8----8--8----8--|
E|---------------------------------|---------------------------------|---------------------------------|


G|---------------------------|---------------------|---------------------|-----------------------------------|
D|---------------------------|-----------------7---|-8----8----8---8-----|-8----8----8---8---8--10-12-10-8---|
A|-------------5----5----5---|-6-----7----9--------|---------------------|-----------------------------------|
E|-8-----8--8----------------|---------------------|---------------------|-----------------------------------|


G|---------------------|---------------------------|---------------------------|-------------------------|
D|---------------------|---------------------------|---------------------------|---------------------7---|
A|-10---10---10--10----|-6----6----6---6-----6--6--|---------------6-----6--6--|-8-----8---7----9--------|
E|---------------------|---------------------------|-8----8----8---------------|-------------------------|


G|---------------------------|---------------------------|-12-------------------|---------------------|
D|-8----8----8---8-----8--8--|-8----8----8---8-----10-12-|----12----------------|---------------------|
A|---------------------------|---------------------------|-------10---10--10----|-6----6----6---6-----|
E|---------------------------|---------------------------|----------------------|---------------------|


G|---------------------------|-------------------------|---------------------------|
D|---------------------------|---------------------7---|-8----8----8---8-----8--8--|
A|---------------6-----6--6--|-8-----8---7----9--------|---------------------------|
E|-8----8----8---------------|-------------------------|---------------------------|


G|-------------------12-14-15----14----|-12-------------------------|---------------------|
D|----------------------------12----12-|----12----------------------|---------------------|
A|-13---13---13--13--------------------|-------10---10--10----10-10-|-6----6----6---6-----|
E|-------------------------------------|----------------------------|---------------------|


G|---------------------------|-------------------------|---------------------------|
D|---------------------------|---------------------7---|-8----8----8---8-----8--8--|
A|---------------6-----6--6--|-8-----8---7----9--------|---------------------------|
E|-8----8----8---------------|-------------------------|---------------------------|


G|--------------------------------|-------------------------|-------------------------|
D|-8----8----8---8----------------|-------------------------|-------------------------|
A|--------------------------------|-10---10---10--10----1---|-6----6----6---6-----6---|
E|------------------------8---10--|-------------------------|-------------------------|


G|-------------------------|--------|
D|-------------------------|--------|
A|---------------6-----6---|-8------|
E|-8----8----8-------------|--------|





Track 7: high piano

E|--------|--------|--------|--------|--------|--------|------------------|-------6---5-------------|
B|--------|--------|--------|--------|--------|--------|-4---3------------|-----------6----8----6---|
G|--------|--------|--------|--------|--------|--------|--------3--3------|-3--------------8----7---|
D|--------|--------|--------|--------|--------|--------|-5---3------------|-------------------------|
A|--------|--------|--------|--------|--------|--------|--------5--5------|-5-----------------------|
E|--------|--------|--------|--------|--------|--------|------------------|-------------------------|


E|--------|--------|--------|--------|--------|--------|------------------|-------6---5-------------|
B|-6------|--------|--------|--------|--------|--------|-4---3------------|-----------6----8----6---|
G|-7------|--------|--------|--------|--------|--------|--------3--3------|-3--------------8----7---|
D|--------|--------|--------|--------|--------|--------|-5---3------------|-------------------------|
A|--------|--------|--------|--------|--------|--------|--------5--5------|-5-----------------------|
E|--------|--------|--------|--------|--------|--------|------------------|-------------------------|


E|--------|--------|--------|--------|--------|------------------------|------------------------|
B|-6------|--------|--------|--------|--------|-----3---------6--------|------------------------|
G|-7------|--------|--------|--------|--------|----------5---------3---|-3---3----2-------------|
D|--------|--------|--------|--------|--------|------------------------|---------------3----3---|
A|--------|--------|--------|--------|--------|------------------------|------------------------|
E|--------|--------|--------|--------|--------|------------------------|------------------------|


E|------------------------|------------------------|--------|--------|-------6---5-------------|
B|-----3---------6--------|------------------------|--------|--------|-----------6----8----6---|
G|----------5---------3---|-3---3----2-------------|--------|--------|----------------8----7---|
D|-3----------------------|---------------3---3----|--------|--------|-------------------------|
A|------------------------|------------------------|--------|--------|-------------------------|
E|------------------------|------------------------|--------|--------|-------------------------|


E|--------|--------|--------|--------|--------|--------|------------------|-------6---5-------------|
B|-6------|--------|--------|--------|--------|--------|-4---3------------|-----------6----8----6---|
G|-7------|--------|--------|--------|--------|--------|--------3--3------|-3--------------8----7---|
D|--------|--------|--------|--------|--------|--------|-5---3------------|-------------------------|
A|--------|--------|--------|--------|--------|--------|--------5--5------|-5-----------------------|
E|--------|--------|--------|--------|--------|--------|------------------|-------------------------|


E|--------|--------|--------|--------|--------|------------------------|------------------------|
B|-6------|--------|--------|--------|--------|-----3---------6--------|------------------------|
G|-7------|--------|--------|--------|--------|----------5---------3---|-3---3----2-------------|
D|--------|--------|--------|--------|--------|------------------------|---------------3----3---|
A|--------|--------|--------|--------|--------|------------------------|------------------------|
E|--------|--------|--------|--------|--------|------------------------|------------------------|


E|------------------------|------------------------|--------|--------|-------6---5-------------|
B|-----3---------6--------|------------------------|--------|--------|-----------6----8----6---|
G|----------5---------3---|-3---3----2-------------|--------|--------|----------------8----7---|
D|-3----------------------|---------------3---3----|--------|--------|-------------------------|
A|------------------------|------------------------|--------|--------|-------------------------|
E|------------------------|------------------------|--------|--------|-------------------------|


E|--------|--------|--------|--------|--------|--------|--------|------------------------|
B|-6------|--------|--------|--------|--------|--------|--------|-----3---------6--------|
G|-7------|--------|--------|--------|--------|--------|--------|----------5---------3---|
D|--------|--------|--------|--------|--------|--------|--------|------------------------|
A|--------|--------|--------|--------|--------|--------|--------|------------------------|
E|--------|--------|--------|--------|--------|--------|--------|------------------------|


E|------------------------|------------------------|------------------------|--------|
B|------------------------|-----3---------6--------|------------------------|--------|
G|-3---3----2-------------|----------5---------3---|-3---3----2-------------|--------|
D|---------------3----3---|-3----------------------|---------------3---3----|--------|
A|------------------------|------------------------|------------------------|--------|
E|------------------------|------------------------|------------------------|--------|


E|--------|------------------------|------------------------|------------------------|
B|--------|-----3---------6--------|------------------------|-----3---------6--------|
G|--------|----------5---------3---|-3---3----2-------------|----------5---------3---|
D|--------|------------------------|---------------3----3---|-3----------------------|
A|--------|------------------------|------------------------|------------------------|
E|--------|------------------------|------------------------|------------------------|


E|------------------------|--------|--------|------------------------|------------------------|
B|------------------------|--------|--------|-----3---------6--------|------------------------|
G|-3---3----2-------------|--------|--------|----------5---------3---|-3---3----2-------------|
D|---------------3---3----|--------|--------|------------------------|---------------3----3---|
A|------------------------|--------|--------|------------------------|------------------------|
E|------------------------|--------|--------|------------------------|------------------------|


E|------------------------|------------------------|--------|--------|------------------------|
B|-----3---------6--------|------------------------|--------|--------|-----3---------6--------|
G|----------5---------3---|-3---3----2-------------|--------|--------|----------5---------3---|
D|-3----------------------|---------------3---3----|--------|--------|------------------------|
A|------------------------|------------------------|--------|--------|------------------------|
E|------------------------|------------------------|--------|--------|------------------------|


E|------------------------|------------------------|------------------------|--------|
B|------------------------|-----3---------6--------|------------------------|--------|
G|-3---3----2-------------|----------5---------3---|-3---3----2-------------|--------|
D|---------------3----3---|-3----------------------|---------------3---3----|--------|
A|------------------------|------------------------|------------------------|--------|
E|------------------------|------------------------|------------------------|--------|


E|--------|
B|--------|
G|--------|
D|--------|
A|--------|
E|--------|





Track 8: strings

E|--------|--------|--------|--------|--------|--------|--------|--------|--------|
B|--------|--------|--------|--------|--------|--------|--------|--------|--------|
G|--------|--------|--------|--------|--------|--------|--------|--------|--------|
D|--------|--------|--------|--------|--------|--------|--------|--------|--------|
A|--------|--------|--------|--------|--------|--------|--------|--------|--------|
E|--------|--------|--------|--------|--------|--------|--------|--------|--------|


E|--------|--------|--------|--------|--------|--------|--------|--------|--------|
B|--------|--------|--------|--------|--------|--------|--------|--------|-1------|
G|--------|--------|--------|--------|--------|--------|--------|--------|--------|
D|--------|--------|--------|--------|--------|--------|--------|--------|--------|
A|--------|--------|--------|--------|--------|--------|--------|--------|--------|
E|--------|--------|--------|--------|--------|--------|--------|--------|--------|


E|-1-----1-----|-----------------------------|-------------------------1---|-------------|
B|-4-----------|-4----3----1---1----3----4---|-3----1--------1----3--------|-------------|
G|-------------|-----------------------------|-----------3-----------------|-3-----2-----|
D|-------------|-----------------------------|-----------------------------|-------------|
A|-------------|-----------------------------|-----------------------------|-------------|
E|-------------|-----------------------------|-----------------------------|-------------|


E|-------------|-------------|-------------|-------------|-------------|--------|--------|
B|-------------|-------------|-------------|-------3-----|-1-----------|--------|--------|
G|-------2-----|-3-----2-----|-------2-----|-3-----3-----|-2-----3-----|-3------|-3------|
D|-5-----------|-------------|-5-----------|-------------|-------------|-3------|-3------|
A|-------------|-------------|-------------|-------------|-------------|--------|--------|
E|-------------|-------------|-------------|-------------|-------------|--------|--------|


E|--------|--------|--------|--------|--------|--------|--------|--------|------------8----|
B|--------|--------|--------|--------|--------|--------|--------|--------|-------6---------|
G|--------|--------|--------|--------|--------|--------|--------|--------|-5---------------|
D|--------|--------|--------|--------|--------|--------|--------|--------|-----------------|
A|--------|--------|--------|--------|--------|--------|--------|--------|-----------------|
E|--------|--------|--------|--------|--------|--------|--------|--------|-----------------|


E|-6------|-6------|-6-----------|-------------|-------------|-------------|-------------|
B|--------|--------|-------------|-------------|-------------|-------------|-------------|
G|--------|--------|-------------|-3-----2-----|-------2-----|-3-----2-----|-------2-----|
D|--------|--------|-------------|-------------|-5-----------|-------------|-5-----------|
A|--------|--------|-------------|-------------|-------------|-------------|-------------|
E|--------|--------|-------------|-------------|-------------|-------------|-------------|


E|-------------|-------------|--------|--------|--------|--------|-------------|-------------|
B|-------3-----|-1-----------|--------|--------|-6------|-6------|-4------3----|-1-----------|
G|-3-----3-----|-2-----3-----|-3------|-3------|--------|--------|-------------|-3-----------|
D|-------------|-------------|-3------|-3------|--------|--------|-------------|-------3-----|
A|-------------|-------------|--------|--------|--------|--------|-------------|-------------|
E|-------------|-------------|--------|--------|--------|--------|-------------|-------------|


E|-------------|---------------------|-------------|-------------|-------------|-------------|
B|-------1-----|-----------------1---|-------------|-------------|-------------|-------------|
G|-3-----------|-3-----0----2----2---|-3-----2-----|-------2-----|-3-----2-----|-------2-----|
D|-3-----------|-5-----2----4--------|-------------|-5-----------|-------------|-5-----------|
A|-------------|---------------------|-------------|-------------|-------------|-------------|
E|-------------|---------------------|-------------|-------------|-------------|-------------|


E|-------------|---------------------1---|-------------|-------------|-------------|
B|-------3-----|-1---------1----3--------|-------------|-------------|-------------|
G|-3-----3-----|-2-----3-----------------|-3-----2-----|-------2-----|-3-----2-----|
D|-------------|-------------------------|-------------|-5-----------|-------------|
A|-------------|-------------------------|-------------|-------------|-------------|
E|-------------|-------------------------|-------------|-------------|-------------|


E|-------------|-------------|---------------------1---|-------------|-------------|
B|-------------|-------3-----|-1---------1----3--------|-------------|-------------|
G|-------2-----|-3-----3-----|-2-----3-----------------|-3-----2-----|-------2-----|
D|-5-----------|-------------|-------------------------|-------------|-5-----------|
A|-------------|-------------|-------------------------|-------------|-------------|
E|-------------|-------------|-------------------------|-------------|-------------|


E|-------------|-------------|-------------|---------------------1---|-------------|
B|-------------|-------------|-------3-----|-1---------1----3--------|-------------|
G|-3-----2-----|-------2-----|-3-----3-----|-2-----3-----------------|-3-----2-----|
D|-------------|-5-----------|-------------|-------------------------|-------------|
A|-------------|-------------|-------------|-------------------------|-------------|
E|-------------|-------------|-------------|-------------------------|-------------|


E|-------------|-------------|-------------|-------------|--------|
B|-------------|-------------|-------------|-------3-----|-1------|
G|-------2-----|-3-----2-----|-------2-----|-3-----3-----|-2------|
D|-5-----------|-------------|-5-----------|-------------|--------|
A|-------------|-------------|-------------|-------------|--------|
E|-------------|-------------|-------------|-------------|--------|