Site menu:

    

Browse: 0-9 A B C D E F G H I J K L N O P Q R S T U V W X Y Z

tomahawk - pop 1:



Title: POP 1
Artist: 
Album: Tomahawk
Author: Duane Denison


Track 1: wet, clean guitar (versey)

E|-------------|-------------|-0-----0-----|-0-----0-----|-3-----3-----|-6-----6-----|
B|-4-----4-----|-4-----4-----|-1-----1-----|-1-----1-----|-4-----4-----|-4-----4-----|
G|-5-----5-----|-5-----5-----|-2-----2-----|-2-----2-----|-5-----5-----|-5-----5-----|
D|-5-----5-----|-5-----5-----|-------------|-------------|-5-----5-----|-5-----5-----|
A|-------------|-------------|-0-----0-----|-0-----0-----|-------------|-------------|
E|-------------|-------------|-------------|-------------|-------------|-------------|


E|-0-----0-----|-0-----0-----|-10----10----|-13----13----|-0-----0-----|-0-----0-----|
B|-1-----1-----|-1-----1-----|-11----11----|-11----11----|-0-----0-----|-0-----0-----|
G|-2-----2-----|-2-----2-----|-12----12----|-12----12----|-0-----0-----|-0-----0-----|
D|-------------|-------------|-------------|-------------|-------------|-------------|
A|-0-----0-----|-0-----0-----|-------------|-------------|-------------|-------------|
E|-------------|-------------|-------------|-------------|-------------|-------------|


E|-10----10----|-10----10----|-0-----0-----|-0-----0-----|-3-----3-----|-6-----6-----|
B|-11----11----|-11----11----|-0-----0-----|-0-----0-----|-4-----4-----|-4-----4-----|
G|-12----12----|-12----12----|-0-----0-----|-0-----0-----|-5-----5-----|-5-----5-----|
D|-------------|-------------|-------------|-------------|-5-----5-----|-5-----5-----|
A|-------------|-------------|-------------|-------------|-------------|-------------|
E|-------------|-------------|-------------|-------------|-------------|-------------|


E|-0-----0-----|-0-----0-----|-3-----3-----|-6-----6-----|-0-----0-----|-0-----0-----|
B|-1-----1-----|-1-----1-----|-4-----4-----|-4-----4-----|-1-----1-----|-1-----1-----|
G|-2-----2-----|-2-----2-----|-5-----5-----|-5-----5-----|-2-----2-----|-2-----2-----|
D|-------------|-------------|-5-----5-----|-5-----5-----|-------------|-------------|
A|-0-----0-----|-0-----0-----|-------------|-------------|-0-----0-----|-0-----0-----|
E|-------------|-------------|-------------|-------------|-------------|-------------|


E|-10----10----|-13----13----|-0-----0-----|-0-----0-----|-3-----3-----|-6-----6-----|
B|-11----11----|-11----11----|-0-----0-----|-0-----0-----|-4-----4-----|-4-----4-----|
G|-12----12----|-12----12----|-0-----0-----|-0-----0-----|-5-----5-----|-5-----5-----|
D|-------------|-------------|-------------|-------------|-5-----5-----|-5-----5-----|
A|-------------|-------------|-------------|-------------|-------------|-------------|
E|-------------|-------------|-------------|-------------|-------------|-------------|


E|-0-----0-----|-0-----0-----|--------|--------|--------|--------|--------|--------|
B|-1-----1-----|-1-----1-----|--------|--------|--------|--------|--------|--------|
G|-2-----2-----|-2-----2-----|--------|--------|--------|--------|--------|--------|
D|-------------|-------------|--------|--------|--------|--------|--------|--------|
A|-0-----0-----|-0-----0-----|--------|--------|--------|--------|--------|--------|
E|-------------|-------------|--------|--------|--------|--------|--------|--------|


E|--------|--------|--------|--------|--------|--------|--------|--------|--------|
B|--------|--------|--------|--------|--------|--------|--------|--------|--------|
G|--------|--------|--------|--------|--------|--------|--------|--------|--------|
D|--------|--------|--------|--------|--------|--------|--------|--------|--------|
A|--------|--------|--------|--------|--------|--------|--------|--------|--------|
E|--------|--------|--------|--------|--------|--------|--------|--------|--------|


E|-------7-----|-7-----7-----|-7-----7-----|-7-----7-----|--------|--------|--------|
B|-------8-----|-8-----8-----|-8-----8-----|-8-----8-----|--------|--------|--------|
G|-------9-----|-9-----9-----|-9-----9-----|-9-----9-----|--------|--------|--------|
D|-------------|-------------|-------------|-------------|--------|--------|--------|
A|-------------|-------------|-------------|-------------|--------|--------|--------|
E|-------------|-------------|-------------|-------------|--------|--------|--------|


E|--------|--------|--------|--------|--------|--------|--------|--------|--------|
B|--------|--------|--------|--------|--------|--------|--------|--------|--------|
G|--------|--------|--------|--------|--------|--------|--------|--------|--------|
D|--------|--------|--------|--------|--------|--------|--------|--------|--------|
A|--------|--------|--------|--------|--------|--------|--------|--------|--------|
E|--------|--------|--------|--------|--------|--------|--------|--------|--------|


E|--------|-3-----3-----|-3-----3-----|-0-----0-----|-0-----0-----|-3-----3-----|-3-----3-----|
B|--------|-4-----4-----|-4-----4-----|-1-----1-----|-1-----1-----|-4-----4-----|-4-----4-----|
G|--------|-5-----5-----|-5-----5-----|-2-----2-----|-2-----2-----|-5-----5-----|-5-----5-----|
D|--------|-------------|-------------|-------------|-------------|-------------|-------------|
A|--------|-------------|-------------|-0-----0-----|-0-----0-----|-------------|-------------|
E|--------|-------------|-------------|-------------|-------------|-------------|-------------|


E|-0-----0-----|-0-----0-----|-10----10----|-10----10----|-0-----0-----|-0-----0-----|
B|-1-----1-----|-1-----1-----|-11----11----|-11----11----|-0-----0-----|-0-----0-----|
G|-2-----2-----|-2-----2-----|-12----12----|-12----12----|-0-----0-----|-0-----0-----|
D|-------------|-------------|-12----12----|-12----12----|-------------|-------------|
A|-0-----0-----|-0-----0-----|-------------|-------------|-------------|-------------|
E|-------------|-------------|-------------|-------------|-------------|-------------|


E|-3-----3-----|-3-----3-----|-0-----0-----|-0-----0-----|--------|
B|-4-----4-----|-4-----4-----|-1-----1-----|-1-----1-----|--------|
G|-5-----5-----|-5-----5-----|-2-----2-----|-2-----2-----|--------|
D|-------------|-------------|-------------|-------------|--------|
A|-------------|-------------|-0-----0-----|-0-----0-----|--------|
E|-------------|-------------|-------------|-------------|--------|





Track 2: synth (/sampler!)

E|--------|--------|--------|--------|--------|--------|--------|--------|--------|
B|--------|--------|--------|--------|--------|--------|--------|--------|--------|
G|--------|--------|--------|--------|--------|--------|--------|--------|--------|
D|--------|--------|--------|--------|--------|--------|--------|--------|--------|
A|--------|--------|--------|--------|--------|--------|--------|--------|--------|
E|--------|--------|--------|--------|--------|--------|--------|--------|--------|


E|--------|--------|--------|--------|--------|--------|--------|-3-----3-----|-3-----6-----|
B|--------|--------|--------|--------|--------|--------|--------|-4-----4-----|-4-----4-----|
G|--------|--------|--------|--------|--------|--------|--------|-5-----5-----|-5-----5-----|
D|--------|--------|--------|--------|--------|--------|--------|-------------|-------------|
A|--------|--------|--------|--------|--------|--------|--------|-3-----3-----|-3-----3-----|
E|--------|--------|--------|--------|--------|--------|--------|-------------|-------------|


E|-5-----5-----|-5-----5-----|-3-----3-----|-3-----6-----|-5-----5-----|-5-----5-----|
B|-5-----5-----|-5-----5-----|-4-----4-----|-4-----4-----|-5-----5-----|-5-----5-----|
G|-5-----5-----|-5-----5-----|-5-----5-----|-5-----5-----|-5-----5-----|-5-----5-----|
D|-------------|-------------|-------------|-------------|-------------|-------------|
A|-0-----0-----|-0-----0-----|-3-----3-----|-3-----3-----|-0-----0-----|-0-----0-----|
E|-------------|-------------|-------------|-------------|-------------|-------------|


E|-3-----3-----|-3-----3-----|-3-----3-----|-3-----3-----|-3-----3-----|-3-----6-----|
B|-3-----3-----|-3-----3-----|-5-----5-----|-5-----5-----|-4-----4-----|-4-----4-----|
G|-3-----3-----|-3-----3-----|-4-----4-----|-4-----4-----|-5-----5-----|-5-----5-----|
D|-------------|-------------|-5-----5-----|-5-----5-----|-------------|-------------|
A|-------------|-------------|-------------|-------------|-3-----3-----|-3-----3-----|
E|-3-----3-----|-3-----3-----|-0-----0-----|-0-----0-----|-------------|-------------|


E|-5-----5-----|-5-----5-----|--------|--------|--------|--------|--------|--------|
B|-5-----5-----|-5-----5-----|--------|--------|--------|--------|--------|--------|
G|-5-----5-----|-5-----5-----|--------|--------|--------|--------|--------|--------|
D|-------------|-------------|--------|--------|--------|--------|--------|--------|
A|-0-----0-----|-0-----0-----|--------|--------|--------|--------|--------|--------|
E|-------------|-------------|--------|--------|--------|--------|--------|--------|


E|--------|--------|--------|--------|--------|--------|--------|--------|--------|
B|--------|--------|--------|--------|--------|--------|--------|--------|--------|
G|--------|--------|--------|--------|--------|--------|--------|--------|--------|
D|--------|--------|--------|--------|--------|--------|--------|--------|--------|
A|--------|--------|--------|--------|--------|--------|--------|--------|--------|
E|--------|--------|--------|--------|--------|--------|--------|--------|--------|


E|--------|--------|--------|--------|--------|--------|--------|--------|--------|
B|--------|--------|--------|--------|--------|--------|--------|--------|--------|
G|--------|--------|--------|--------|--------|--------|--------|--------|--------|
D|--------|--------|--------|--------|--------|--------|--------|--------|--------|
A|--------|--------|--------|--------|--------|--------|--------|--------|--------|
E|--------|--------|--------|--------|--------|--------|--------|--------|--------|


E|--------|--------|--------|--------|--------|--------|--------|--------|-3-----3-----|
B|--------|--------|--------|--------|--------|--------|--------|--------|-4-----4-----|
G|--------|--------|--------|--------|--------|--------|--------|--------|-5-----5-----|
D|--------|--------|--------|--------|--------|--------|--------|--------|-------------|
A|--------|--------|--------|--------|--------|--------|--------|--------|-3-----3-----|
E|--------|--------|--------|--------|--------|--------|--------|--------|-------------|


E|-3-----3-----|-5-----5-----|-5-----5-----|-3-----3-----|-3-----3-----|-5-----5-----|
B|-4-----4-----|-5-----5-----|-5-----5-----|-4-----4-----|-4-----4-----|-5-----5-----|
G|-5-----5-----|-5-----5-----|-5-----5-----|-5-----5-----|-5-----5-----|-5-----5-----|
D|-------------|-------------|-------------|-------------|-------------|-------------|
A|-3-----3-----|-0-----0-----|-0-----0-----|-3-----3-----|-3-----3-----|-0-----0-----|
E|-------------|-------------|-------------|-------------|-------------|-------------|


E|-5-----5-----|-3-----3-----|-3-----3-----|-3-----3-----|-3-----3-----|-3-----3-----|
B|-5-----5-----|-3-----3-----|-3-----3-----|-5-----5-----|-5-----5-----|-4-----4-----|
G|-5-----5-----|-3-----3-----|-3-----3-----|-4-----4-----|-4-----4-----|-5-----5-----|
D|-------------|-------------|-------------|-5-----5-----|-5-----5-----|-------------|
A|-0-----0-----|-------------|-------------|-------------|-------------|-3-----3-----|
E|-------------|-3-----3-----|-3-----3-----|-0-----0-----|-0-----0-----|-------------|


E|-3-----3-----|-5-----5-----|-5-----5-----|--------|
B|-4-----4-----|-5-----5-----|-5-----5-----|--------|
G|-5-----5-----|-5-----5-----|-5-----5-----|--------|
D|-------------|-------------|-------------|--------|
A|-3-----3-----|-0-----0-----|-0-----0-----|--------|
E|-------------|-------------|-------------|--------|





Track 3: Chunky O/D

E|--------|--------|--------|--------|--------|--------|--------|--------|--------|
B|--------|--------|--------|--------|--------|--------|--------|--------|--------|
G|--------|--------|--------|--------|--------|--------|--------|--------|--------|
D|--------|--------|--------|--------|--------|--------|--------|--------|--------|
A|--------|--------|--------|--------|--------|--------|--------|--------|--------|
E|--------|--------|--------|--------|--------|--------|--------|--------|--------|


E|--------|--------|--------|--------|--------|--------|--------|--------|--------|
B|--------|--------|--------|--------|--------|--------|--------|--------|--------|
G|--------|--------|--------|--------|--------|--------|--------|--------|--------|
D|--------|--------|--------|--------|--------|--------|--------|--------|--------|
A|--------|--------|--------|--------|--------|--------|--------|--------|--------|
E|--------|--------|--------|--------|--------|--------|--------|--------|--------|


E|--------|--------|--------|--------|--------|--------|--------|--------|--------|
B|--------|--------|--------|--------|--------|--------|--------|--------|--------|
G|--------|--------|--------|--------|--------|--------|--------|--------|--------|
D|--------|--------|--------|--------|--------|--------|--------|--------|--------|
A|--------|--------|--------|--------|--------|--------|--------|--------|--------|
E|--------|--------|--------|--------|--------|--------|--------|--------|--------|


E|--------|--------|--------|--------|--------|--------|--------|-------------------------------------------------|
B|--------|--------|--------|--------|--------|--------|--------|-------------------------------------------------|
G|--------|--------|--------|--------|--------|--------|--------|-------------------------------------------------|
D|--------|--------|--------|--------|--------|--------|--------|-------------------------------------------------|
A|--------|--------|--------|--------|--------|--------|--------|-------------------------------------------------|
E|--------|--------|--------|--------|--------|--------|--------|-0--0--3--0--3--0--0--3--0--3--0--0--3--0--3--0--|


E|-------------------------------------------------|-------------------------------------------------|
B|-------------------------------------------------|-------------------------------------------------|
G|-------------------------------------------------|-------------------------------------------------|
D|-------------------------------------------------|-------------------------------------------------|
A|-------------------------------------------------|-------------------------------------------------|
E|-0--3--0--3--0--0--3--0--3--0--0--3--0--3--0--0--|-0--0--3--0--3--0--0--3--0--3--0--0--3--0--3--0--|


E|-------------------------------------------------|-------------------------------------------------|
B|-------------------------------------------------|-------------------------------------------------|
G|-------------------------------------------------|-------------------------------------------------|
D|-------------------------------------------------|-------------------------------------------------|
A|-------------------------------------------------|-------------------------------------------------|
E|-0--3--0--3--0--0--3--0--3--0--0--3--0--3--0--0--|-0--0--3--0--3--0--0--3--0--3--0--0--3--0--3--0--|


E|-------------------------------------------------|--------------------------------------|
B|-------------------------------------------------|--------------------------------------|
G|-------------------------------------------------|--------------------------------------|
D|-------------------------------------------------|-----6-----6--------6-----6-----------|
A|-------------------------------------------------|-----4-----4--------4-----4-----------|
E|-0--3--0--3--0--0--3--0--3--0--0--3--0--3--0--0--|--------------------------------------|


E|--------|--------|--------|--------|--------|--------|--------|--------|--------|
B|--------|--------|--------|--------|--------|--------|--------|--------|--------|
G|--------|--------|--------|--------|--------|--------|--------|--------|--------|
D|--------|--------|--------|--------|--------|--------|--------|--------|--------|
A|--------|--------|--------|--------|--------|--------|--------|--------|--------|
E|--------|--------|--------|--------|--------|--------|--------|--------|--------|


E|--------|-------------------------------------------------|-------------------------------------------------|
B|--------|-------------------------------------------------|-------------------------------------------------|
G|--------|-------------------------------------------------|-------------------------------------------------|
D|--------|-------------------------------------------------|-------------------------------------------------|
A|--------|-------------------------------------------------|-------------------------------------------------|
E|--------|-0--0--3--0--3--0--0--3--0--3--0--0--3--0--3--0--|-0--3--0--3--0--0--3--0--3--0--0--3--0--3--0--0--|


E|-------------------------------------------------|-------------------------------------------------|
B|-------------------------------------------------|-------------------------------------------------|
G|-------------------------------------------------|-------------------------------------------------|
D|-------------------------------------------------|-------------------------------------------------|
A|-------------------------------------------------|-------------------------------------------------|
E|-0--0--3--0--3--0--0--3--0--3--0--0--3--0--3--0--|-0--3--0--3--0--0--3--0--3--0--0--3--0--3--0--0--|


E|-------------------------------------------------|-------------------------------------------------|
B|-------------------------------------------------|-------------------------------------------------|
G|-------------------------------------------------|-------------------------------------------------|
D|-------------------------------------------------|-------------------------------------------------|
A|-------------------------------------------------|-------------------------------------------------|
E|-0--0--3--0--3--0--0--3--0--3--0--0--3--0--3--0--|-0--3--0--3--0--0--3--0--3--0--0--3--0--3--0--0--|


E|--------------------------------------|--------|--------|--------|--------|--------|
B|--------------------------------------|--------|--------|--------|--------|--------|
G|--------------------------------------|--------|--------|--------|--------|--------|
D|-----6-----6--------6-----6-----------|--------|--------|--------|--------|--------|
A|-----4-----4--------4-----4-----------|--------|--------|--------|--------|--------|
E|--------------------------------------|--------|--------|--------|--------|--------|


E|--------|-----------------------------------------|-----------------------------------------|
B|--------|-----------------------------------------|-----------------------------------------|
G|--------|-----------------------------------------|-----------------------------------------|
D|--------|-----------------------------------------|-----------------------------------------|
A|--------|-3--3-----3-----3----3--3-----3-----3----|-3--3-----3-----3----3--3-----3-----3----|
E|--------|-----------------------------------------|-----------------------------------------|


E|-----------------------------------------|-----------------------------------------|
B|-----------------------------------------|-----------------------------------------|
G|-----------------------------------------|-----------------------------------------|
D|-----------------------------------------|-----------------------------------------|
A|-----------------------------------------|-----------------------------------------|
E|-5--5-----5-----5----5--5-----5-----5----|-5--5-----5-----5----5--5-----5-----5----|


E|-----------------------------------------|-----------------------------------------|
B|-----------------------------------------|-----------------------------------------|
G|-----------------------------------------|-----------------------------------------|
D|-----------------------------------------|-----------------------------------------|
A|-3--3-----3-----3----3--3-----3-----3----|-3--3-----3-----3----3--3-----3-----3----|
E|-----------------------------------------|-----------------------------------------|


E|-----------------------------------------|-----------------------------------------|
B|-----------------------------------------|-----------------------------------------|
G|-----------------------------------------|-----------------------------------------|
D|-----------------------------------------|-----------------------------------------|
A|-----------------------------------------|-----------------------------------------|
E|-5--5-----5-----5----5--5-----5-----5----|-5--5-----5-----5----5--5-----5-----5----|


E|-----------------------------------------|-----------------------------------------|
B|-----------------------------------------|-----------------------------------------|
G|-----------------------------------------|-----------------------------------------|
D|-----------------------------------------|-----------------------------------------|
A|-----------------------------------------|-----------------------------------------|
E|-3--3-----3-----3----3--3-----3-----3----|-3--3-----3-----3----3--3-----3-----3----|


E|-----------------------------------------|-----------------------------------------|
B|-----------------------------------------|-----------------------------------------|
G|-----------------------------------------|-----------------------------------------|
D|-----------------------------------------|-----------------------------------------|
A|-----------------------------------------|-----------------------------------------|
E|-0--0-----0-----0----0--0-----0-----0----|-0--0-----0-----0----0--0-----0-----0----|


E|-----------------------------------------|-----------------------------------------|
B|-----------------------------------------|-----------------------------------------|
G|-----------------------------------------|-----------------------------------------|
D|-----------------------------------------|-----------------------------------------|
A|-3--3-----3-----3----3--3-----3-----3----|-3--3-----3-----3----3--3-----3-----3----|
E|-----------------------------------------|-----------------------------------------|


E|-----------------------------------------|-----------------------------------------|
B|-----------------------------------------|-----------------------------------------|
G|-----------------------------------------|-----------------------------------------|
D|-----------------------------------------|-----------------------------------------|
A|-----------------------------------------|-----------------------------------------|
E|-5--5-----5-----5----5--5-----5-----5----|-5--5-----5-----5----5--5-----5-----5----|


E|--------|
B|--------|
G|--------|
D|--------|
A|--------|
E|--------|





Track 4: wet, clean guitar (versey)

E|--------|--------|--------|--------|--------|--------|--------|--------|--------|
B|--------|--------|--------|--------|--------|--------|--------|--------|--------|
G|--------|--------|--------|--------|--------|--------|--------|--------|--------|
D|--------|--------|--------|--------|--------|--------|--------|--------|--------|
A|--------|--------|--------|--------|--------|--------|--------|--------|--------|
E|--------|--------|--------|--------|--------|--------|--------|--------|--------|


E|--------|--------|--------|--------|--------|--------|--------|--------|--------|
B|--------|--------|--------|--------|--------|--------|--------|--------|--------|
G|--------|--------|--------|--------|--------|--------|--------|--------|--------|
D|--------|--------|--------|--------|--------|--------|--------|--------|--------|
A|--------|--------|--------|--------|--------|--------|--------|--------|--------|
E|--------|--------|--------|--------|--------|--------|--------|--------|--------|


E|--------|--------|--------|--------|--------|--------|--------|--------|--------|
B|--------|--------|--------|--------|--------|--------|--------|--------|--------|
G|--------|--------|--------|--------|--------|--------|--------|--------|--------|
D|--------|--------|--------|--------|--------|--------|--------|--------|--------|
A|--------|--------|--------|--------|--------|--------|--------|--------|--------|
E|--------|--------|--------|--------|--------|--------|--------|--------|--------|


E|--------|--------|--------|--------|--------|--------|--------|-------------|--------|
B|--------|--------|--------|--------|--------|--------|--------|-------------|--------|
G|--------|--------|--------|--------|--------|--------|--------|-------------|--------|
D|--------|--------|--------|--------|--------|--------|--------|-------------|--------|
A|--------|--------|--------|--------|--------|--------|--------|-------------|--------|
E|--------|--------|--------|--------|--------|--------|--------|-------------|--------|


E|--------|--------|--------|--------|--------|--------|--------|--------|--------|
B|--------|--------|--------|--------|--------|--------|--------|--------|--------|
G|--------|--------|--------|--------|--------|--------|--------|--------|--------|
D|--------|--------|--------|--------|--------|--------|--------|--------|--------|
A|--------|--------|--------|--------|--------|--------|--------|--------|--------|
E|--------|--------|--------|--------|--------|--------|--------|--------|--------|


E|--------|--------|--------|--------|--------|--------|--------|--------|--------|
B|--------|--------|--------|--------|--------|--------|--------|--------|--------|
G|--------|--------|--------|--------|--------|--------|--------|--------|--------|
D|--------|--------|--------|--------|--------|--------|--------|--------|--------|
A|--------|--------|--------|--------|--------|--------|--------|--------|--------|
E|--------|--------|--------|--------|--------|--------|--------|--------|--------|


E|--------|--------|--------|--------|--------|--------|--------|--------|--------|
B|--------|--------|--------|--------|--------|--------|--------|--------|--------|
G|--------|--------|--------|--------|--------|--------|--------|--------|--------|
D|--------|--------|--------|--------|--------|--------|--------|--------|--------|
A|--------|--------|--------|--------|--------|--------|--------|--------|--------|
E|--------|--------|--------|--------|--------|--------|--------|--------|--------|


E|--------|--------|--------|--------|--------|--------|--------|--------|--------|
B|--------|--------|--------|--------|--------|--------|--------|--------|--------|
G|--------|--------|--------|--------|--------|--------|--------|--------|--------|
D|--------|--------|--------|--------|--------|--------|--------|--------|--------|
A|--------|--------|--------|--------|--------|--------|--------|--------|--------|
E|--------|--------|--------|--------|--------|--------|--------|--------|--------|


E|--------|--------|--------|--------|--------|--------|--------|--------|--------|
B|--------|--------|--------|--------|--------|--------|--------|--------|--------|
G|--------|--------|--------|--------|--------|--------|--------|--------|--------|
D|--------|--------|--------|--------|--------|--------|--------|--------|--------|
A|--------|--------|--------|--------|--------|--------|--------|--------|--------|
E|--------|--------|--------|--------|--------|--------|--------|--------|--------|





Track 5: Overdub Gtr effect

E|--------|--------|--------|--------|--------|--------|--------|--------|--------|
B|--------|--------|--------|--------|--------|--------|--------|--------|--------|
G|--------|--------|--------|--------|--------|--------|--------|--------|--------|
D|--------|--------|--------|--------|--------|--------|--------|--------|--------|
A|--------|--------|--------|--------|--------|--------|--------|--------|--------|
E|--------|--------|--------|--------|--------|--------|--------|--------|--------|


E|--------|--------|--------|--------|--------|--------|--------|--------|--------|
B|--------|--------|--------|--------|--------|--------|--------|--------|--------|
G|--------|--------|--------|--------|--------|--------|--------|--------|--------|
D|--------|--------|--------|--------|--------|--------|--------|--------|--------|
A|--------|--------|--------|--------|--------|--------|--------|--------|--------|
E|--------|--------|--------|--------|--------|--------|--------|--------|--------|


E|--------|--------|--------|--------|--------|--------|--------|--------|--------|
B|--------|--------|--------|--------|--------|--------|--------|--------|--------|
G|--------|--------|--------|--------|--------|--------|--------|--------|--------|
D|--------|--------|--------|--------|--------|--------|--------|--------|--------|
A|--------|--------|--------|--------|--------|--------|--------|--------|--------|
E|--------|--------|--------|--------|--------|--------|--------|--------|--------|


E|--------|--------|--------|--------|--------|--------|--------|--------|-------------|
B|--------|--------|--------|--------|--------|--------|--------|--------|-------------|
G|--------|--------|--------|--------|--------|--------|--------|--------|-------------|
D|--------|--------|--------|--------|--------|--------|--------|--------|-------------|
A|--------|--------|--------|--------|--------|--------|--------|--------|-------------|
E|--------|--------|--------|--------|--------|--------|--------|--------|-------------|


E|-------------|-------------|-------------|-------------|-------------|-------------|
B|-------------|-------------|-------------|-------------|--------0----|-0-----0-----|
G|-4-----4-----|-4-----4-----|-4-----4-----|-4-----4-----|--------4----|-4-----4-----|
D|-2-----2-----|-2-----2-----|-2-----2-----|-2-----2-----|--------5----|-5-----5-----|
A|-2-----2-----|-2-----2-----|-2-----2-----|-2-----2-----|-------------|-------------|
E|-0-----0-----|-0-----0-----|-0-----0-----|-0-----0-----|-------------|-------------|


E|--------------------------------------|-------------|--------------------------------------|
B|---------------------------------0----|-0-----0-----|---------------------------------0----|
G|---------------------------------4----|-4-----4-----|---------------------------------4----|
D|-----6-----6--------6-----6------5----|-5-----5-----|-----6-----6--------6-----6------5----|
A|-----4-----4--------4-----4-----------|-------------|-----4-----4--------4-----4-----------|
E|--------------------------------------|-------------|--------------------------------------|


E|-------------|--------|--------|--------|--------|--------|--------|-------------|
B|-0-----0-----|--------|--------|--------|--------|--------|--------|-------------|
G|-4-----4-----|--------|--------|--------|--------|--------|--------|-------------|
D|-5-----5-----|--------|--------|--------|--------|--------|--------|-------------|
A|-------------|--------|--------|--------|--------|--------|--------|-------------|
E|-------------|--------|--------|--------|--------|--------|--------|-------------|


E|-------------|-------------|-------------|-------------|-------------|-------------|
B|-------------|-------------|-------------|-------------|--------0----|-0-----0-----|
G|-4-----4-----|-4-----4-----|-4-----4-----|-4-----4-----|--------4----|-4-----4-----|
D|-2-----2-----|-2-----2-----|-2-----2-----|-2-----2-----|--------5----|-5-----5-----|
A|-2-----2-----|-2-----2-----|-2-----2-----|-2-----2-----|-------------|-------------|
E|-0-----0-----|-0-----0-----|-0-----0-----|-0-----0-----|-------------|-------------|


E|--------------------------------------|-------------|--------------------------------------|
B|---------------------------------0----|-0-----0-----|---------------------------------0----|
G|---------------------------------4----|-4-----4-----|---------------------------------4----|
D|-----6-----6--------6-----6------5----|-5-----5-----|-----6-----6--------6-----6------5----|
A|-----4-----4--------4-----4-----------|-------------|-----4-----4--------4-----4-----------|
E|--------------------------------------|-------------|--------------------------------------|


E|-------------|--------|--------|--------|--------|--------|--------|--------|--------|
B|-0-----0-----|--------|--------|--------|--------|--------|--------|--------|--------|
G|-4-----4-----|--------|--------|--------|--------|--------|--------|--------|--------|
D|-5-----5-----|--------|--------|--------|--------|--------|--------|--------|--------|
A|-------------|--------|--------|--------|--------|--------|--------|--------|--------|
E|-------------|--------|--------|--------|--------|--------|--------|--------|--------|


E|--------|--------|--------|--------|--------|--------|--------|--------|--------|
B|--------|--------|--------|--------|--------|--------|--------|--------|--------|
G|--------|--------|--------|--------|--------|--------|--------|--------|--------|
D|--------|--------|--------|--------|--------|--------|--------|--------|--------|
A|--------|--------|--------|--------|--------|--------|--------|--------|--------|
E|--------|--------|--------|--------|--------|--------|--------|--------|--------|


E|--------|
B|--------|
G|--------|
D|--------|
A|--------|
E|--------|





Track 6: wet, clean guitar (versey)

E|--------|--------|--------|--------|--------|--------|--------|--------|--------|
B|--------|--------|--------|--------|--------|--------|--------|--------|--------|
G|--------|--------|--------|--------|--------|--------|--------|--------|--------|
D|--------|--------|--------|--------|--------|--------|--------|--------|--------|
A|--------|--------|--------|--------|--------|--------|--------|--------|--------|
E|--------|--------|--------|--------|--------|--------|--------|--------|--------|


E|--------|--------|--------|--------|--------|--------|--------|--------|--------|
B|--------|--------|--------|--------|--------|--------|--------|--------|--------|
G|--------|--------|--------|--------|--------|--------|--------|--------|--------|
D|--------|--------|--------|--------|--------|--------|--------|--------|--------|
A|--------|--------|--------|--------|--------|--------|--------|--------|--------|
E|--------|--------|--------|--------|--------|--------|--------|--------|--------|


E|--------|--------|--------|--------|--------|--------|--------|--------|--------|
B|--------|--------|--------|--------|--------|--------|--------|--------|--------|
G|--------|--------|--------|--------|--------|--------|--------|--------|--------|
D|--------|--------|--------|--------|--------|--------|--------|--------|--------|
A|--------|--------|--------|--------|--------|--------|--------|--------|--------|
E|--------|--------|--------|--------|--------|--------|--------|--------|--------|


E|--------|--------|--------|--------|--------|--------|--------|--------|--------|
B|--------|--------|--------|--------|--------|--------|--------|--------|--------|
G|--------|--------|--------|--------|--------|--------|--------|--------|--------|
D|--------|--------|--------|--------|--------|--------|--------|--------|--------|
A|--------|--------|--------|--------|--------|--------|--------|--------|--------|
E|--------|--------|--------|--------|--------|--------|--------|--------|--------|


E|--------|--------|--------|--------|-----------------|--------|--------|--------|
B|--------|--------|--------|--------|-----------------|--------|--------|--------|
G|--------|--------|--------|--------|-----------------|--------|--------|--------|
D|--------|--------|--------|--------|-----------------|--------|--------|--------|
A|--------|--------|--------|--------|-----------------|--------|--------|--------|
E|--------|--------|--------|--------|-----------------|--------|--------|--------|


E|--------|--------|--------|--------|--------|--------|--------|--------|--------|
B|--------|--------|--------|--------|--------|--------|--------|--------|--------|
G|--------|--------|--------|--------|--------|--------|--------|--------|--------|
D|--------|--------|--------|--------|--------|--------|--------|--------|--------|
A|--------|--------|--------|--------|--------|--------|--------|--------|--------|
E|--------|--------|--------|--------|--------|--------|--------|--------|--------|


E|--------|--------|--------|--------|--------|--------|--------|--------|--------|
B|--------|--------|--------|--------|--------|--------|--------|--------|--------|
G|--------|--------|--------|--------|--------|--------|--------|--------|--------|
D|--------|--------|--------|--------|--------|--------|--------|--------|--------|
A|--------|--------|--------|--------|--------|--------|--------|--------|--------|
E|--------|--------|--------|--------|--------|--------|--------|--------|--------|


E|--------|--------|--------|--------|--------|--------|--------|--------|--------|
B|--------|--------|--------|--------|--------|--------|--------|--------|--------|
G|--------|--------|--------|--------|--------|--------|--------|--------|--------|
D|--------|--------|--------|--------|--------|--------|--------|--------|--------|
A|--------|--------|--------|--------|--------|--------|--------|--------|--------|
E|--------|--------|--------|--------|--------|--------|--------|--------|--------|


E|--------|--------|--------|--------|--------|--------|--------|--------|--------|
B|--------|--------|--------|--------|--------|--------|--------|--------|--------|
G|--------|--------|--------|--------|--------|--------|--------|--------|--------|
D|--------|--------|--------|--------|--------|--------|--------|--------|--------|
A|--------|--------|--------|--------|--------|--------|--------|--------|--------|
E|--------|--------|--------|--------|--------|--------|--------|--------|--------|


E|--------|
B|--------|
G|--------|
D|--------|
A|--------|
E|--------|





Track 7: Overdub Gtr effect

E|--------|--------|--------|--------|--------|--------|--------|--------|--------|
B|--------|--------|--------|--------|--------|--------|--------|--------|--------|
G|--------|--------|--------|--------|--------|--------|--------|--------|--------|
D|--------|--------|--------|--------|--------|--------|--------|--------|--------|
A|--------|--------|--------|--------|--------|--------|--------|--------|--------|
E|--------|--------|--------|--------|--------|--------|--------|--------|--------|


E|--------|--------|--------|--------|--------|--------|--------|--------|--------|
B|--------|--------|--------|--------|--------|--------|--------|--------|--------|
G|--------|--------|--------|--------|--------|--------|--------|--------|--------|
D|--------|--------|--------|--------|--------|--------|--------|--------|--------|
A|--------|--------|--------|--------|--------|--------|--------|--------|--------|
E|--------|--------|--------|--------|--------|--------|--------|--------|--------|


E|--------|--------|--------|--------|--------|--------|--------|--------|--------|
B|--------|--------|--------|--------|--------|--------|--------|--------|--------|
G|--------|--------|--------|--------|--------|--------|--------|--------|--------|
D|--------|--------|--------|--------|--------|--------|--------|--------|--------|
A|--------|--------|--------|--------|--------|--------|--------|--------|--------|
E|--------|--------|--------|--------|--------|--------|--------|--------|--------|


E|--------|--------|--------|--------|--------|--------|--------|--------|--------|
B|--------|--------|--------|--------|--------|--------|--------|--------|--------|
G|--------|--------|--------|--------|--------|--------|--------|--------|--------|
D|--------|--------|--------|--------|--------|--------|--------|--------|--------|
A|--------|--------|--------|--------|--------|--------|--------|--------|--------|
E|--------|--------|--------|--------|--------|--------|--------|--------|--------|


E|--------|--------|--------|--------|--------0----|-0-----------|------------0----|
B|--------|--------|--------|--------|--------0----|-0-----------|------------0----|
G|--------|--------|--------|--------|--------0----|-0-----------|------------0----|
D|--------|--------|--------|--------|--------9----|-9-----------|------------9----|
A|--------|--------|--------|--------|--------10---|-10----------|------------10---|
E|--------|--------|--------|--------|-------------|-------------|-----------------|


E|-0-----------|------------0----|-0-----------|--------|--------|--------|--------|
B|-0-----------|------------0----|-0-----------|--------|--------|--------|--------|
G|-0-----------|------------0----|-0-----------|--------|--------|--------|--------|
D|-9-----------|------------9----|-9-----------|--------|--------|--------|--------|
A|-10----------|------------10---|-10----------|--------|--------|--------|--------|
E|-------------|-----------------|-------------|--------|--------|--------|--------|


E|--------|--------|--------|--------|--------|--------|--------|--------0----|-0-----------|
B|--------|--------|--------|--------|--------|--------|--------|--------0----|-0-----------|
G|--------|--------|--------|--------|--------|--------|--------|--------0----|-0-----------|
D|--------|--------|--------|--------|--------|--------|--------|--------9----|-9-----------|
A|--------|--------|--------|--------|--------|--------|--------|--------10---|-10----------|
E|--------|--------|--------|--------|--------|--------|--------|-------------|-------------|


E|------------0----|-0-----------|------------0----|-0-----------|--------|--------|
B|------------0----|-0-----------|------------0----|-0-----------|--------|--------|
G|------------0----|-0-----------|------------0----|-0-----------|--------|--------|
D|------------9----|-9-----------|------------9----|-9-----------|--------|--------|
A|------------10---|-10----------|------------10---|-10----------|--------|--------|
E|-----------------|-------------|-----------------|-------------|--------|--------|


E|--------|--------|--------|--------|--------|--------|--------|--------|--------|
B|--------|--------|--------|--------|--------|--------|--------|--------|--------|
G|--------|--------|--------|--------|--------|--------|--------|--------|--------|
D|--------|--------|--------|--------|--------|--------|--------|--------|--------|
A|--------|--------|--------|--------|--------|--------|--------|--------|--------|
E|--------|--------|--------|--------|--------|--------|--------|--------|--------|


E|--------|--------|--------|--------|--------|--------|--------|
B|--------|--------|--------|--------|--------|--------|--------|
G|--------|--------|--------|--------|--------|--------|--------|
D|--------|--------|--------|--------|--------|--------|--------|
A|--------|--------|--------|--------|--------|--------|--------|
E|--------|--------|--------|--------|--------|--------|--------|





Track 8: wet, clean guitar (versey)

E|--------|--------|--------|--------|--------|--------|--------|--------|--------|
B|--------|--------|--------|--------|--------|--------|--------|--------|--------|
G|--------|--------|--------|--------|--------|--------|--------|--------|--------|
D|--------|--------|--------|--------|--------|--------|--------|--------|--------|
A|--------|--------|--------|--------|--------|--------|--------|--------|--------|
E|--------|--------|--------|--------|--------|--------|--------|--------|--------|


E|--------|--------|--------|--------|--------|--------|--------|--------|--------|
B|--------|--------|--------|--------|--------|--------|--------|--------|--------|
G|--------|--------|--------|--------|--------|--------|--------|--------|--------|
D|--------|--------|--------|--------|--------|--------|--------|--------|--------|
A|--------|--------|--------|--------|--------|--------|--------|--------|--------|
E|--------|--------|--------|--------|--------|--------|--------|--------|--------|


E|--------|--------|--------|--------|--------|--------|--------|--------|--------|
B|--------|--------|--------|--------|--------|--------|--------|--------|--------|
G|--------|--------|--------|--------|--------|--------|--------|--------|--------|
D|--------|--------|--------|--------|--------|--------|--------|--------|--------|
A|--------|--------|--------|--------|--------|--------|--------|--------|--------|
E|--------|--------|--------|--------|--------|--------|--------|--------|--------|


E|--------|--------|--------|--------|--------|--------|--------|--------|--------|
B|--------|--------|--------|--------|--------|--------|--------|--------|--------|
G|--------|--------|--------|--------|--------|--------|--------|--------|--------|
D|--------|--------|--------|--------|--------|--------|--------|--------|--------|
A|--------|--------|--------|--------|--------|--------|--------|--------|--------|
E|--------|--------|--------|--------|--------|--------|--------|--------|--------|


E|--------|--------|--------|--------|--------|--------|--------|--------|--------|
B|--------|--------|--------|--------|--------|--------|--------|--------|--------|
G|--------|--------|--------|--------|--------|--------|--------|--------|--------|
D|--------|--------|--------|--------|--------|--------|--------|--------|--------|
A|--------|--------|--------|--------|--------|--------|--------|--------|--------|
E|--------|--------|--------|--------|--------|--------|--------|--------|--------|


E|--------|--------|--------|--------|--------|--------|-------------|--------|--------|
B|--------|--------|--------|--------|--------|--------|-------------|--------|--------|
G|--------|--------|--------|--------|--------|--------|-------------|--------|--------|
D|--------|--------|--------|--------|--------|--------|-------------|--------|--------|
A|--------|--------|--------|--------|--------|--------|-------------|--------|--------|
E|--------|--------|--------|--------|--------|--------|-------------|--------|--------|


E|--------|--------|--------|--------|--------|--------|--------|--------|--------|
B|--------|--------|--------|--------|--------|--------|--------|--------|--------|
G|--------|--------|--------|--------|--------|--------|--------|--------|--------|
D|--------|--------|--------|--------|--------|--------|--------|--------|--------|
A|--------|--------|--------|--------|--------|--------|--------|--------|--------|
E|--------|--------|--------|--------|--------|--------|--------|--------|--------|


E|--------|--------|--------|--------|--------|--------|--------|--------|--------|
B|--------|--------|--------|--------|--------|--------|--------|--------|--------|
G|--------|--------|--------|--------|--------|--------|--------|--------|--------|
D|--------|--------|--------|--------|--------|--------|--------|--------|--------|
A|--------|--------|--------|--------|--------|--------|--------|--------|--------|
E|--------|--------|--------|--------|--------|--------|--------|--------|--------|


E|--------|--------|--------|--------|--------|--------|--------|--------|--------|
B|--------|--------|--------|--------|--------|--------|--------|--------|--------|
G|--------|--------|--------|--------|--------|--------|--------|--------|--------|
D|--------|--------|--------|--------|--------|--------|--------|--------|--------|
A|--------|--------|--------|--------|--------|--------|--------|--------|--------|
E|--------|--------|--------|--------|--------|--------|--------|--------|--------|





Track 9: wet, clean guitar (versey)

E|--------|--------|--------|--------|--------|--------|--------|--------|--------|
B|--------|--------|--------|--------|--------|--------|--------|--------|--------|
G|--------|--------|--------|--------|--------|--------|--------|--------|--------|
D|--------|--------|--------|--------|--------|--------|--------|--------|--------|
A|--------|--------|--------|--------|--------|--------|--------|--------|--------|
E|--------|--------|--------|--------|--------|--------|--------|--------|--------|


E|--------|--------|--------|--------|--------|--------|--------|--------|--------|
B|--------|--------|--------|--------|--------|--------|--------|--------|--------|
G|--------|--------|--------|--------|--------|--------|--------|--------|--------|
D|--------|--------|--------|--------|--------|--------|--------|--------|--------|
A|--------|--------|--------|--------|--------|--------|--------|--------|--------|
E|--------|--------|--------|--------|--------|--------|--------|--------|--------|


E|--------|--------|--------|--------|--------|--------|--------|--------|--------|
B|--------|--------|--------|--------|--------|--------|--------|--------|--------|
G|--------|--------|--------|--------|--------|--------|--------|--------|--------|
D|--------|--------|--------|--------|--------|--------|--------|--------|--------|
A|--------|--------|--------|--------|--------|--------|--------|--------|--------|
E|--------|--------|--------|--------|--------|--------|--------|--------|--------|


E|--------|--------|--------|--------|--------|--------|--------|--------|--------|
B|--------|--------|--------|--------|--------|--------|--------|--------|--------|
G|--------|--------|--------|--------|--------|--------|--------|--------|--------|
D|--------|--------|--------|--------|--------|--------|--------|--------|--------|
A|--------|--------|--------|--------|--------|--------|--------|--------|--------|
E|--------|--------|--------|--------|--------|--------|--------|--------|--------|


E|--------|--------|--------|--------|--------|--------|--------|--------|--------|
B|--------|--------|--------|--------|--------|--------|--------|--------|--------|
G|--------|--------|--------|--------|--------|--------|--------|--------|--------|
D|--------|--------|--------|--------|--------|--------|--------|--------|--------|
A|--------|--------|--------|--------|--------|--------|--------|--------|--------|
E|--------|--------|--------|--------|--------|--------|--------|--------|--------|


E|--------|--------|--------|--------|--------|--------|--------|--------|--------|
B|--------|--------|--------|--------|--------|--------|--------|--------|--------|
G|--------|--------|--------|--------|--------|--------|--------|--------|--------|
D|--------|--------|--------|--------|--------|--------|--------|--------|--------|
A|--------|--------|--------|--------|--------|--------|--------|--------|--------|
E|--------|--------|--------|--------|--------|--------|--------|--------|--------|


E|--------|--------|--------|-----------------|--------|--------|--------|--------|
B|--------|--------|--------|-----------------|--------|--------|--------|--------|
G|--------|--------|--------|-----------------|--------|--------|--------|--------|
D|--------|--------|--------|-----------------|--------|--------|--------|--------|
A|--------|--------|--------|-----------------|--------|--------|--------|--------|
E|--------|--------|--------|-----------------|--------|--------|--------|--------|


E|--------|--------|--------|--------|--------|--------|--------|--------|--------|
B|--------|--------|--------|--------|--------|--------|--------|--------|--------|
G|--------|--------|--------|--------|--------|--------|--------|--------|--------|
D|--------|--------|--------|--------|--------|--------|--------|--------|--------|
A|--------|--------|--------|--------|--------|--------|--------|--------|--------|
E|--------|--------|--------|--------|--------|--------|--------|--------|--------|


E|--------|--------|--------|--------|--------|--------|--------|--------|--------|
B|--------|--------|--------|--------|--------|--------|--------|--------|--------|
G|--------|--------|--------|--------|--------|--------|--------|--------|--------|
D|--------|--------|--------|--------|--------|--------|--------|--------|--------|
A|--------|--------|--------|--------|--------|--------|--------|--------|--------|
E|--------|--------|--------|--------|--------|--------|--------|--------|--------|


E|--------|
B|--------|
G|--------|
D|--------|
A|--------|
E|--------|





Track 10: Untitled

G|-----------------------------------------|-----------------------------------------|
D|-----------------------------------------|-----------------------------------------|
A|-3--3-----3-----3----3--3-----3-----3----|-3--3-----3-----3----3--3-----3-----3----|
E|-----------------------------------------|-----------------------------------------|


G|---------------------------------------------|-----------------------------------------|
D|---------------------------------------------|-----------------------------------------|
A|------------------------------------3--------|-----------------------------------------|
E|-5--5-----5-----5----5--5-----5--------5--0--|-5--5-----5-----5----5--5-----5-----5----|


G|-----------------------------------------|-------------------------------------------|
D|-----------------------------------------|-------------------------------------------|
A|-3--3-----3-----3----3--3-----3-----3----|-3--3-----3-----3----3--3-----3--3--3--1---|
E|-----------------------------------------|-------------------------------------------|


G|-----------------------------------------|-------------------------------------------|
D|-----------------------------------------|-------------------------------------------|
A|-----------------------------------------|-------------------------------------------|
E|-5--5-----5-----5----5--5-----5-----5----|-5--5-----5-----5----5--5-----5-----5--4---|


G|-----------------------------------------|-------------------------------------------|
D|-----------------------------------------|---------------------------------------2---|
A|-----------------------------------------|---------------------------------3--5------|
E|-3--3-----3-----3----3--3--3--3-----3----|-3--3-----3-----3----3--3--3--3------------|


G|-----------------------------------------|-------------------------------------------|
D|-----------------------------------------|-------------------------------------------|
A|-----------------------------------------|------------------------------7--7---------|
E|-0--0-----0-----0----0--0-----0-----0----|-0--0-----0-----0----0--0-----------7--6---|


G|-----------------------------------------|-------------------------------------------|
D|-----------------------------------------|-------------------------------------------|
A|-----------------------------------------|-------------------------------------------|
E|-3--3-----3-----3----3--3-----3-----3----|-3--3-----3-----3----3--3-----3--3--5--3---|


G|-----------------------------------------|-----------------------------------------|
D|-----------------------------------------|-----------------------------------------|
A|-----------------------------------------|-----------------------------------------|
E|-0--0-----0-----0----0--0-----0-----0----|-0--0-----0-----0----0--0-----0-----0----|


G|-----------------------------------------|-------------------------------------------|
D|-----------------------------------------|------------------------------1--1--1--3---|
A|-3--3-----3-----3----3--3-----3-----3----|-3--3-----3-----3----3--3--3---------------|
E|-----------------------------------------|-------------------------------------------|


G|---------------------------------------------|-------------------------------------------|
D|---------------------------------------------|-------------------------------------------|
A|------------------------------------3--------|---------------------------------------2---|
E|-5--5-----5-----5----5--5-----5--------5--0--|-5--5-----5-----5----5--5-----5-----5------|


G|-----------------------------------------|-----------------------------------------|
D|-----------------------------------------|-----------------------------------------|
A|-3--3-----3-----3----3--3-----3-----3----|-3--3-----3-----3----3--3-----3-----3----|
E|-----------------------------------------|-----------------------------------------|


G|-----------------------------------------|-------------------------------------------|
D|-----------------------------------------|-------------------------------------------|
A|-----------------------------------------|-------------------------------------------|
E|-5--5-----5-----5----5--5-----5-----5----|-5--5-----5-----5----5--5-----5-----5--4---|


G|-----------------------------------------|-------------------------------------------|
D|-----------------------------------------|-------------------------------------------|
A|-----------------------------------------|-------------------------------------------|
E|-3--3-----3-----3----3--3-----3-----3----|-3--3-----3-----3----3--3-----3--3--5--3---|


G|-------------------------------------------|-------------------------------------------|
D|-------------------------------------------|-------------------------------------------|
A|------------------------------7--7---------|------------------------------7--7---------|
E|-0--0-----0-----0----0--0-----------7--6---|-0--0-----0-----0----0--0-----------7--6---|


G|-----------------------------------------|-----------------------------------------|
D|-----------------------------------------|-----------------------------------------|
A|-3--3-----3-----3----3--3-----3-----3----|-3--3-----3-----3----3--3-----3-----3----|
E|-----------------------------------------|-----------------------------------------|


G|-----------------------------------------|-----------------------------------------|
D|-----------------------------------------|-----------------------------------------|
A|-----------------------------------------|-----------------------------------------|
E|-5--5-----5-----5----5--5-----5-----5----|-5--5-----5-----5----5--5-----5-----5----|


G|----------------------------------------|----------------------------------------|
D|----------------------------------------|----------------------------------------|
A|----------------------------------------|----------------------------------------|
E|-0--0--3--0--3--0--0--3--0--3-----------|-0--0--3--0--3--0--0--3--0--3-----------|


G|-------------------------------------------------|-------------------------------------------------|
D|-------------------------------------------------|-------------------------------------------------|
A|-------------------------------------------------|-------------------------------------------------|
E|-0--0--3--0--3--0--0--3--0--3--0--0--3--0--3--0--|-0--3--0--3--0--0--3--0--3--0--0--3--0--3--0--0--|


G|-------------------------------------------------|-------------------------------------------------|
D|-------------------------------------------------|-------------------------------------------------|
A|-------------------------------------------------|-------------------------------------------------|
E|-0--0--3--0--3--0--0--3--0--3--0--0--3--0--3--0--|-0--3--0--3--0--0--3--0--3--0--0--3--0--3--0--0--|


G|-------------------------------------------------|-------------------------------------------------|
D|-------------------------------------------------|-------------------------------------------------|
A|-------------------------------------------------|-------------------------------------------------|
E|-0--0--3--0--3--0--0--3--0--3--0--0--3--0--3--0--|-0--3--0--3--0--0--3--0--3--0--0--3--0--3--0--0--|


G|-------------------------------------------------|-------------------------------------------------|
D|-------------------------------------------------|-------------------------------------------------|
A|-2--4--4--4--4--4--4--4--4--4--4--4--4--4--4--4--|-2--4--4--4--4--4--4--4--2--4--4--4--2--4--4--4--|
E|-------------------------------------------------|-------------------------------------------------|


G|-------------------------------------------------|-------------------------------------------------|
D|-------------------------------------------------|-------------------------------------------------|
A|-2--4--4--4--4--4--4--4--4--4--4--4--4--4--4--4--|-2--4--4--4--4--4--4--4--2--4--4--4--2--4--4--4--|
E|-------------------------------------------------|-------------------------------------------------|


G|-------------------------------------------------|-------------------------------------------------|
D|-------------------------------------------------|-------------------------------------------------|
A|-2--4--4--4--4--4--4--4--4--4--4--4--4--4--4--4--|-2--4--4--4--4--4--4--4--2--4--4--4--2--4--4--4--|
E|-------------------------------------------------|-------------------------------------------------|


G|--------------------------------------|----------------------------------------|
D|--------------------------------------|----------------------------------------|
A|--------------------------------------|----------------------------------------|
E|-0--0-----------0--------0-----0------|-0--0--3--0--3--0--0--3--0--3-----------|


G|----------------------------------------|----------------------------------------|
D|----------------------------------------|----------------------------------------|
A|----------------------------------------|----------------------------------------|
E|-0--0--3--0--3--0--0--3--0--3-----------|-0--0--3--0--3--0--0--3--0--3-----------|


G|----------------------------------------|-------------------------------------------------|
D|----------------------------------------|-------------------------------------------------|
A|----------------------------------------|-------------------------------------------------|
E|-0--0--3--0--3--0--0--3--0--3-----------|-0--0--3--0--3--0--0--3--0--3--0--0--3--0--3--0--|


G|-------------------------------------------------|-------------------------------------------------|
D|-------------------------------------------------|-------------------------------------------------|
A|-------------------------------------------------|-------------------------------------------------|
E|-0--3--0--3--0--0--3--0--3--0--0--3--0--3--0--0--|-0--0--3--0--3--0--0--3--0--3--0--0--3--0--3--0--|


G|-------------------------------------------------|-------------------------------------------------|
D|-------------------------------------------------|-------------------------------------------------|
A|-------------------------------------------------|-------------------------------------------------|
E|-0--3--0--3--0--0--3--0--3--0--0--3--0--3--0--0--|-0--0--3--0--3--0--0--3--0--3--0--0--3--0--3--0--|


G|-------------------------------------------------|-------------------------------------------------|
D|-------------------------------------------------|-------------------------------------------------|
A|-------------------------------------------------|-2--4--4--4--4--4--4--4--4--4--4--4--4--4--4--4--|
E|-0--3--0--3--0--0--3--0--3--0--0--3--0--3--0--0--|-------------------------------------------------|


G|-------------------------------------------------|-------------------------------------------------|
D|-------------------------------------------------|-------------------------------------------------|
A|-2--4--4--4--4--4--4--4--2--4--4--4--2--4--4--4--|-2--4--4--4--4--4--4--4--4--4--4--4--4--4--4--4--|
E|-------------------------------------------------|-------------------------------------------------|


G|-------------------------------------------------|-------------------------------------------------|
D|-------------------------------------------------|-------------------------------------------------|
A|-2--4--4--4--4--4--4--4--2--4--4--4--2--4--4--4--|-2--4--4--4--4--4--4--4--4--4--4--4--4--4--4--4--|
E|-------------------------------------------------|-------------------------------------------------|


G|-------------------------------------------------|--------------------------------------|
D|-------------------------------------------------|--------------------------------------|
A|-2--4--4--4--4--4--4--4--2--4--4--4--2--4--4--4--|--------------------------------------|
E|-------------------------------------------------|-0--0-----------0--------0-----0------|


G|-----------------------------------------|-----------------------------------------|
D|-----------------------------------------|-----------------------------------------|
A|-3--3-----3-----3----3--3-----3-----3----|-3--3-----3-----3----3--3-----3-----3----|
E|-----------------------------------------|-----------------------------------------|


G|-----------------------------------------|-----------------------------------------|
D|-----------------------------------------|-----------------------------------------|
A|-----------------------------------------|-----------------------------------------|
E|-5--5-----5-----5----5--5-----5-----5----|-5--5-----5-----5----5--5-----5-----5----|


G|-----------------------------------------|-----------------------------------------|
D|-----------------------------------------|-----------------------------------------|
A|-3--3-----3-----3----3--3-----3-----3----|-3--3-----3-----3----3--3-----3-----3----|
E|-----------------------------------------|-----------------------------------------|


G|-----------------------------------------|-------------------------------------------|
D|-----------------------------------------|-------------------------------------------|
A|-----------------------------------------|-------------------------------------------|
E|-5--5-----5-----5----5--5-----5-----5----|-5--5-----5-----5----5--5-----5-----5--4---|


G|-----------------------------------------|-------------------------------------------|
D|-----------------------------------------|-------------------------------------------|
A|-----------------------------------------|-------------------------------------------|
E|-3--3-----3-----3----3--3-----3-----3----|-3--3-----3-----3----3--3-----3-----5--3---|


G|-------------------------------------------|-------------------------------------------|
D|-------------------------------------------|-------------------------------------------|
A|------------------------------7--7---------|------------------------------7--7---------|
E|-0--0-----0-----0----0--0-----------7--6---|-0--0-----0-----0----0--0-----------7--6---|


G|-----------------------------------------|---------------------------------------|
D|-----------------------------------------|---------------------------------------|
A|-3--3-----3-----3----3--3-----3-----3----|-3------3-----3----3--3-----3-----3----|
E|-----------------------------------------|---------------------------------------|


G|---------------------------------------------|-----------------------------------------|
D|---------------------------------------------|-----------------------------------------|
A|------------------------------------3--------|-----------------------------------------|
E|-5--5-----5-----5----5--5-----5--------5--5--|-5--5-----5-----5----5--5-----5-----5----|


G|--------------------------------------|
D|--------------------------------------|
A|--------------------------------------|
E|-0--0-----------0--------0-----0------|