Site menu:

    

Browse: 0-9 A B C D E F G H I J K L N O P Q R S T U V W X Y Z

tomahawk - god hates a coward:



Title: God Hates A Coward
Artist: 
Album: Tomahawk
Author: Duane Denison, Kevin Rutmanis, John Stanier


Track 1: Gtr I

E|-------------------------------------------------|-------------------------------------------------|
B|-------------------------------------------------|-------------------------------------------------|
G|-------------------------------------------------|-------------------------------------------------|
D|-6-----6--------------7-----7--------------------|-8-----8--------------4-----4--------------------|
A|-4--4--4--4--5--4--4--4--4--4--5--4--5--4--4--4--|-4--4--4--4--5--4--4--4--4--4--5--4--0--0--0--0--|
E|-------------------------------------------------|-------------------------------------------------|


E|-------------------------------------------------|-------------------------------------------------|
B|-------------------------------------------------|-------------------------------------------------|
G|-------------------------------------------------|-------------------------------------------------|
D|-------------------------------------------------|-------------------------------------------------|
A|-6-----6--------------7-----7--------------------|-8-----8--------------4-----4--------------------|
E|-4--4--4--4--5--4--4--4--4--4--5--4--5--4--4--4--|-4--4--4--4--5--4--4--4--4--4--5--4--0--0--0--0--|


E|-------------------------------------------------|-------------------------------------------------|
B|-------------------------------------------------|-------------------------------------------------|
G|-------------------------------------------------|-------------------------------------------------|
D|-6-----6--------------7-----7--------------------|-8-----8--------------4-----4--------------------|
A|-4--4--4--4--5--4--4--4--4--4--5--4--5--4--4--4--|-4--4--4--4--5--4--4--4--4--4--5--4--0--0--0--0--|
E|-------------------------------------------------|-------------------------------------------------|


E|-------------------------------------------------|-------------------------------------------------|
B|-------------------------------------------------|-------------------------------------------------|
G|-------------------------------------------------|-------------------------------------------------|
D|-------------------------------------------------|-------------------------------------------------|
A|-6-----6--------------7-----7--------------------|-8-----8--------------4-----4--------------------|
E|-4--4--4--4--5--4--4--4--4--4--5--4--5--4--4--4--|-4--4--4--4--5--4--4--4--4--4--5--4--0--0--0--0--|


E|---------------------------------------------|---------------------------------------------|
B|---------------------------------------------|---------------------------------------------|
G|---------------------------------------------|---------------------------------------------|
D|-6---6------------7-----7--------------------|-8---8------------4-----4--------7--7--7--7--|
A|-4---4---5--4--4--4-----4--5--4--5--4--4--4--|-4---4---5--4--4--4-----4--5--4--0--0--0--0--|
E|---------------------------------------------|---------------------------------------------|


E|---------------------------------------------|---------------------------------------------|
B|---------------------------------------------|---------------------------------------------|
G|---------------------------------------------|---------------------------------------------|
D|---------------------------------------------|---------------------------------------------|
A|-6---6------------7-----7--------------------|-8---8------------4-----4--------7--7--7--7--|
E|-4---4---5--4--4--4-----4--5--4--5--4--4--4--|-4---4---5--4--4--4-----4--5--4--0--0--0--0--|


E|---------------------------------------------|---------------------------------------------|
B|---------------------------------------------|---------------------------------------------|
G|---------------------------------------------|---------------------------------------------|
D|-6---6------------7-----7--------------------|-8---8------------4-----4--------7--7--7--7--|
A|-4---4---5--4--4--4-----4--5--4--5--4--4--4--|-4---4---5--4--4--4-----4--5--4--0--0--0--0--|
E|---------------------------------------------|---------------------------------------------|


E|---------------------------------------------|---------------------------|-------------------------------------------------|
B|---------------------------------------------|---------------------------|-------------------------------------------------|
G|---------------------------------------------|---------------------------|-------------------------------------------------|
D|---------------------------------------------|---------------------------|-6--6--6--6--6--6--6--7--7--7--7--7--7--7--7--7--|
A|-6---6------------7-----7--------------------|-8---8------------4--------|-4--4--4--4--5--4--4--4--4--4--5--4--5--4--4--4--|
E|-4---4---5--4--4--4-----4--5--4--5--4--4--4--|-4---4---5--4--4--4--------|-------------------------------------------------|


E|-------------------------------------------------|-------------------------------------------------|
B|-------------------------------------------------|-------------------------------------------------|
G|-------------------------------------------------|-------------------------------------------------|
D|-8--8--8--8--8--8--8--4--4--4--4--4--7--7--7--7--|-------------------------------------------------|
A|-4--4--4--4--5--4--4--4--4--4--5--4--0--0--0--0--|-6--6--6--6--6--6--6--7--7--7--7--7--7--7--7--7--|
E|-------------------------------------------------|-4--4--4--4--5--4--4--4--4--4--5--4--5--4--4--4--|


E|-------------------------------------------------|-------------------------------------------------|
B|-------------------------------------------------|-------------------------------------------------|
G|-------------------------------------------------|-------------------------------------------------|
D|-------------------------------------------------|-6--6--6--6--6--6--6--7--7--7--7--7--7--7--7--7--|
A|-8--8--8--8--8--8--8--4--4--4--4--4--7--7--7--7--|-4--4--4--4--5--4--4--4--4--4--5--4--5--4--4--4--|
E|-4--4--4--4--5--4--4--4--4--4--5--4--0--0--0--0--|-------------------------------------------------|


E|-------------------------------------------------|-------------------------------------------------|
B|-------------------------------------------------|-------------------------------------------------|
G|-------------------------------------------------|-------------------------------------------------|
D|-8--8--8--8--8--8--8--4--4--4--4--4--7--7--7--7--|-------------------------------------------------|
A|-4--4--4--4--5--4--4--4--4--4--5--4--0--0--0--0--|-6--6--6--6--6--6--6--7--7--7--7--7--7--7--7--7--|
E|-------------------------------------------------|-4--4--4--4--5--4--4--4--4--4--5--4--5--4--4--4--|


E|-------------------------------------------------|---------------------------|---------------------------|
B|-------------------------------------------------|---------------------------|---------------------------|
G|-------------------------------------------------|---------------------------|---------------------------|
D|-------------------------------------------------|---------------------------|---------------------------|
A|-8--8--8--8--8--8--8--4--4--4--4--4--7--7--7--7--|-4--4----------4--4--------|-4--4----------4--4--------|
E|-4--4--4--4--5--4--4--4--4--4--5--4--0--0--0--0--|-2--2----------2--2--------|-2--2----------2--2--------|


E|---------------------------|---------------------------|---------------------------|
B|---------------------------|---------------------------|---------------------------|
G|---------------------------|---------------------------|---------------------------|
D|---------------------------|---------------------------|---------------------------|
A|-4--4----------4--4--------|-4--4----------4--4--------|-4--4----------4--4--------|
E|-2--2----------2--2--------|-2--2----------2--2--------|-2--2----------2--2--------|


E|---------------------------|---------------------------|---------------------------|
B|---------------------------|---------------------------|---------------------------|
G|---------------------------|---------------------------|---------------------------|
D|---------------------------|---------------------------|---------------------------|
A|-4--4----------4--4--------|-4--4----------4--4--------|-4--4----------4--2--2-----|
E|-2--2----------2--2--------|-2--2----------2--2--------|-2--2----------2--0--0-----|


E|-------------------------------------------------|-------------------------------------------------|
B|-------------------------------------------------|-------------------------------------------------|
G|-------------------------------------------------|-------------------------------------------------|
D|-6-----6--------------7-----7--------------------|-8-----8--------------4-----4--------------------|
A|-4--4--4--4--5--4--4--4--4--4--5--4--5--4--4--4--|-4--4--4--4--5--4--4--4--4--4--5--4--0--0--0--0--|
E|-------------------------------------------------|-------------------------------------------------|


E|-------------------------------------------------|-------------------------------------------------|
B|-------------------------------------------------|-------------------------------------------------|
G|-------------------------------------------------|-------------------------------------------------|
D|-------------------------------------------------|-------------------------------------------------|
A|-6-----6--------------7-----7--------------------|-8-----8--------------4-----4--------------------|
E|-4--4--4--4--5--4--4--4--4--4--5--4--5--4--4--4--|-4--4--4--4--5--4--4--4--4--4--5--4--0--0--0--0--|


E|---------------------------------------------|---------------------------------------------|
B|---------------------------------------------|---------------------------------------------|
G|---------------------------------------------|---------------------------------------------|
D|-6---6------------7-----7--------------------|-8---8------------4-----4--------7--7--7--7--|
A|-4---4---5--4--4--4-----4--5--4--5--4--4--4--|-4---4---5--4--4--4-----4--5--4--0--0--0--0--|
E|---------------------------------------------|---------------------------------------------|


E|---------------------------------------------|---------------------------|-------------------------------------------------|
B|---------------------------------------------|---------------------------|-------------------------------------------------|
G|---------------------------------------------|---------------------------|-------------------------------------------------|
D|---------------------------------------------|---------------------------|-6--6--6--6--6--6--6--7--7--7--7--7--7--7--7--7--|
A|-6---6------------7-----7--------------------|-8---8------------4--------|-4--4--4--4--5--4--4--4--4--4--5--4--5--4--4--4--|
E|-4---4---5--4--4--4-----4--5--4--5--4--4--4--|-4---4---5--4--4--4--------|-------------------------------------------------|


E|-------------------------------------------------|-------------------------------------------------|
B|-------------------------------------------------|-------------------------------------------------|
G|-------------------------------------------------|-------------------------------------------------|
D|-8--8--8--8--8--8--8--4--4--4--4--4--7--7--7--7--|-------------------------------------------------|
A|-4--4--4--4--5--4--4--4--4--4--5--4--0--0--0--0--|-6--6--6--6--6--6--6--7--7--7--7--7--7--7--7--7--|
E|-------------------------------------------------|-4--4--4--4--5--4--4--4--4--4--5--4--5--4--4--4--|


E|-------------------------------------------------|-------------------------------------------------|
B|-------------------------------------------------|-------------------------------------------------|
G|-------------------------------------------------|-------------------------------------------------|
D|-------------------------------------------------|-6--6--6--6--6--6--6--7--7--7--7--7--7--7--7--7--|
A|-8--8--8--8--8--8--8--4--4--4--4--4--7--7--7--7--|-4--4--4--4--5--4--4--4--4--4--5--4--5--4--4--4--|
E|-4--4--4--4--5--4--4--4--4--4--5--4--0--0--0--0--|-------------------------------------------------|


E|-------------------------------------------------|-------------------------------------------------|
B|-------------------------------------------------|-------------------------------------------------|
G|-------------------------------------------------|-------------------------------------------------|
D|-8--8--8--8--8--8--8--4--4--4--4--4--7--7--7--7--|-------------------------------------------------|
A|-4--4--4--4--5--4--4--4--4--4--5--4--0--0--0--0--|-6--6--6--6--6--6--6--7--7--7--7--7--7--7--7--7--|
E|-------------------------------------------------|-4--4--4--4--5--4--4--4--4--4--5--4--5--4--4--4--|


E|-------------------------------------------------|
B|-------------------------------------------------|
G|-------------------------------------------------|
D|-------------------------------------------------|
A|-8--8--8--8--8--8--8--4--4--4--4--4--7--7--7--7--|
E|-4--4--4--4--5--4--4--4--4--4--5--4--0--0--0--0--|





Track 2: String Synthesizer

E|--------|--------|--------|--------|--------|--------|--------|--------|--------|
B|--------|--------|--------|--------|--------|--------|--------|--------|--------|
G|--------|--------|--------|--------|--------|--------|--------|--------|--------|
D|--------|--------|--------|--------|--------|--------|--------|--------|--------|
A|--------|--------|--------|--------|--------|--------|--------|--------|--------|
E|--------|--------|--------|--------|--------|--------|--------|--------|--------|


E|--------|--------|--------|--------|--------|--------|--------|--------|--------|
B|--------|--------|--------|--------|--------|--------|--------|--------|--------|
G|--------|--------|--------|--------|--------|--------|--------|--------|--------|
D|--------|--------|--------|--------|--------|--------|--------|--------|--------|
A|--------|--------|--------|--------|--------|--------|--------|--------|--------|
E|--------|--------|--------|--------|--------|--------|--------|--------|--------|


E|--------|--------|--------|--------|--------|--------|--------------------|------------------------|
B|--------|--------|--------|--------|--------|--------|--------------------|------------------------|
G|--------|--------|--------|--------|--------|--------|-----11--11---------|-------------------8----|
D|--------|--------|--------|--------|--------|--------|-11------11---------|-----8---9----8---------|
A|--------|--------|--------|--------|--------|--------|--------------9-----|-9----------------------|
E|--------|--------|--------|--------|--------|--------|--------------------|------------------------|


E|--------------------|------------------------|--------------------|------------------------|
B|--------------------|------------------------|--------------------|------------------------|
G|-----11--11---------|-------------------8----|-----11--11---------|-------------------8----|
D|-11------11---------|-----8---9----8---------|-11------11---------|-----8---9----8---------|
A|--------------9-----|-9----------------------|--------------9-----|-9----------------------|
E|--------------------|------------------------|--------------------|------------------------|


E|--------------------|-----------------12----|--------|--------|--------|--------|
B|--------------------|--------------12-------|--------|--------|--------|--------|
G|-----11--11---------|-----------------------|--------|--------|--------|--------|
D|-11------11---------|-----8---9-------------|--------|--------|--------|--------|
A|--------------9-----|-9---------------------|--------|--------|--------|--------|
E|--------------------|-----------------------|--------|--------|--------|--------|


E|--------|--------|--------|--------|--------|--------|--------|--------|--------|
B|--------|--------|--------|--------|--------|--------|--------|--------|--------|
G|--------|--------|--------|--------|--------|--------|--------|--------|--------|
D|--------|--------|--------|--------|--------|--------|--------|--------|--------|
A|--------|--------|--------|--------|--------|--------|--------|--------|--------|
E|--------|--------|--------|--------|--------|--------|--------|--------|--------|


E|--------|--------|--------|
B|--------|--------|--------|
G|--------|--------|--------|
D|--------|--------|--------|
A|--------|--------|--------|
E|--------|--------|--------|





Track 3: Bass

G|---------------------------------------------|---------------------------------------------|
D|---------------------------------------------|---------------------------------------------|
A|-4---4---5--4--4--4-----4--5--4--5--4--4--4--|-4---4---5--4--4--4-----4--5--4--------------|
E|---------------------------------------------|---------------------------------5--5--5--5--|


G|---------------------------------------------|---------------------------------------------|
D|---------------------------------------------|---------------------------------------------|
A|---------------------------------------------|---------------------------------------------|
E|-4---4---5--4--4--4-----4--5--4--5--4--4--4--|-4---4---5--4--4--4-----4--5--4--0--0--0--0--|


G|---------------------------------------------|---------------------------------------------|
D|---------------------------------------------|---------------------------------------------|
A|-4---4---5--4--4--4-----4--5--4--5--4--4--4--|-4---4---5--4--4--4-----4--5--4--------------|
E|---------------------------------------------|---------------------------------5--5--5--5--|


G|---------------------------------------------|---------------------------------------------|
D|---------------------------------------------|---------------------------------------------|
A|---------------------------------------------|---------------------------------------------|
E|-4---4---5--4--4--4-----4--5--4--5--4--4--4--|-4---4---5--4--4--4-----4--5--4--0--0--0--0--|


G|---------------------------------------------|---------------------------------------------|
D|---------------------------------------------|---------------------------------------------|
A|-4---4---5--4--4--4-----4--5--4--5--4--4--4--|-4---4---5--4--4--4-----4--5--4--------------|
E|---------------------------------------------|---------------------------------5--5--5--5--|


G|---------------------------------------------|---------------------------------------------|
D|---------------------------------------------|---------------------------------------------|
A|---------------------------------------------|---------------------------------------------|
E|-4---4---5--4--4--4-----4--5--4--5--4--4--4--|-4---4---5--4--4--4-----4--5--4--0--0--0--0--|


G|---------------------------------------------|---------------------------------------------|
D|---------------------------------------------|---------------------------------------------|
A|-4---4---5--4--4--4-----4--5--4--5--4--4--4--|-4---4---5--4--4--4-----4--5--4--------------|
E|---------------------------------------------|---------------------------------5--5--5--5--|


G|---------------------------------------------|---------------------------|-------------------------------------------------|
D|---------------------------------------------|---------------------------|-------------------------------------------------|
A|---------------------------------------------|---------------------------|-4--4--4--4--5--4--4--4--4--4--5--4--5--4--4--4--|
E|-4---4---5--4--4--4-----4--5--4--5--4--4--4--|-4---4---5--4--4--4--------|-------------------------------------------------|


G|-------------------------------------------------|-------------------------------------------------|
D|-------------------------------------------------|-------------------------------------------------|
A|-4--4--4--4--5--4--4--4--4--4--5--4--------------|-------------------------------------------------|
E|-------------------------------------5--5--5--5--|-4--4--4--4--5--4--4--4--4--4--5--4--5--4--4--4--|


G|-------------------------------------------------|-------------------------------------------------|
D|-------------------------------------------------|-------------------------------------------------|
A|-------------------------------------------------|-4--4--4--4--5--4--4--4--4--4--5--4--5--4--4--4--|
E|-4--4--4--4--5--4--4--4--4--4--5--4--0--0--0--0--|-------------------------------------------------|


G|-------------------------------------------------|-------------------------------------------------|
D|-------------------------------------------------|-------------------------------------------------|
A|-4--4--4--4--5--4--4--4--4--4--5--4--------------|-------------------------------------------------|
E|-------------------------------------5--5--5--5--|-4--4--4--4--5--4--4--4--4--4--5--4--5--4--4--4--|


G|-------------------------------------------------|---------------------------|---------------------------|
D|-------------------------------------------------|---------------------------|---------------------------|
A|-------------------------------------------------|---------------------------|---------------------------|
E|-4--4--4--4--5--4--4--4--4--4--5--4--0--0--0--0--|-2--2----------2--2--------|-2--2----------2--2--------|


G|---------------------------|---------------------------|---------------------------|
D|---------------------------|---------------------------|---------------------------|
A|---------------------------|---------------------------|---------------------------|
E|-2--2----------2--2--------|-2--2----------2--2--------|-2--2----------2--2--------|


G|---------------------------|---------------------------|---------------------------|
D|---------------------------|---------------------------|---------------------------|
A|---------------------------|---------------------------|---------------------------|
E|-2--2----------2--2--------|-2--2----------2--2--------|-2--2----------2--0--0-----|


G|---------------------------------------------|---------------------------------------------|
D|---------------------------------------------|---------------------------------------------|
A|-4---4---5--4--4--4-----4--5--4--5--4--4--4--|-4---4---5--4--4--4-----4--5--4--------------|
E|---------------------------------------------|---------------------------------5--5--5--5--|


G|---------------------------------------------|---------------------------------------------|
D|---------------------------------------------|---------------------------------------------|
A|---------------------------------------------|---------------------------------------------|
E|-4---4---5--4--4--4-----4--5--4--5--4--4--4--|-4---4---5--4--4--4-----4--5--4--0--0--0--0--|


G|---------------------------------------------|---------------------------------------------|
D|---------------------------------------------|---------------------------------------------|
A|-4---4---5--4--4--4-----4--5--4--5--4--4--4--|-4---4---5--4--4--4-----4--5--4--------------|
E|---------------------------------------------|---------------------------------5--5--5--5--|


G|---------------------------------------------|---------------------------|-------------------------------------------------|
D|---------------------------------------------|---------------------------|-------------------------------------------------|
A|---------------------------------------------|---------------------------|-4--4--4--4--5--4--4--4--4--4--5--4--5--4--4--4--|
E|-4---4---5--4--4--4-----4--5--4--5--4--4--4--|-4---4---5--4--4--4--------|-------------------------------------------------|


G|-------------------------------------------------|-------------------------------------------------|
D|-------------------------------------------------|-------------------------------------------------|
A|-4--4--4--4--5--4--4--4--4--4--5--4--------------|-------------------------------------------------|
E|-------------------------------------5--5--5--5--|-4--4--4--4--5--4--4--4--4--4--5--4--5--4--4--4--|


G|-------------------------------------------------|-------------------------------------------------|
D|-------------------------------------------------|-------------------------------------------------|
A|-------------------------------------------------|-4--4--4--4--5--4--4--4--4--4--5--4--5--4--4--4--|
E|-4--4--4--4--5--4--4--4--4--4--5--4--0--0--0--0--|-------------------------------------------------|


G|-------------------------------------------------|-------------------------------------------------|
D|-------------------------------------------------|-------------------------------------------------|
A|-4--4--4--4--5--4--4--4--4--4--5--4--------------|-------------------------------------------------|
E|-------------------------------------5--5--5--5--|-4--4--4--4--5--4--4--4--4--4--5--4--5--4--4--4--|


G|-------------------------------------------------|
D|-------------------------------------------------|
A|-------------------------------------------------|
E|-4--4--4--4--5--4--4--4--4--4--5--4--0--0--0--0--|