Site menu:

    

Browse: 0-9 A B C D E F G H I J K L N O P Q R S T U V W X Y Z

tomahawk - birdsong:



Title: Birdsong
Artist: 
Album: Mit Gas
Author: Duane Denison


Track 1: Overdriven Guitar

E|--------|--------|--------|--------|--------|-------------|-----------------|--------|
B|--------|--------|--------|--------|--------|-------------|------------13---|-13-----|
G|--------|--------|--------|--------|-13-----|-19-----19---|-17----17---13---|-13-----|
D|--------|--------|--------|--------|--------|-19-----19---|-17----17--------|--------|
A|--------|--------|--------|--------|--------|-------------|-----------------|--------|
D|--------|--------|--------|--------|--------|-------------|-----------------|--------|


E|--------|--------|--------|-------------|-------------|--------|--------|--------|
B|-13-----|--------|--------|-------------|-------------|-1------|-1------|--------|
G|-13-----|--------|--------|-7------7----|-5------5----|-1------|-1------|--------|
D|--------|--------|--------|-7------7----|-5------5----|--------|--------|--------|
A|--------|--------|--------|-------------|-------------|--------|--------|--------|
D|--------|--------|--------|-------------|-------------|--------|--------|--------|


E|--------|--------|-------------|-------------|--------|--------|--------|--------|
B|--------|--------|-------------|-------------|--------|--------|--------|--------|
G|--------|--------|-19-----19---|-17-----17---|-13-----|-13-----|--------|--------|
D|--------|--------|-------------|-------------|--------|--------|--------|--------|
A|--------|--------|-------------|-------------|--------|--------|--------|--------|
D|--------|--------|-------------|-------------|--------|--------|--------|--------|


E|--------|--------|--------|--------|--------|--------|--------|--------|--------|
B|--------|--------|--------|--------|--------|--------|--------|--------|--------|
G|--------|--------|--------|--------|--------|--------|--------|--------|--------|
D|--------|--------|--------|--------|--------|--------|--------|--------|--------|
A|--------|--------|--------|--------|--------|--------|--------|--------|--------|
D|--------|--------|--------|--------|--------|--------|--------|--------|--------|


E|--------|------------------|--------|--------|--------|--------|--------|------------------------|
B|--------|-3----------------|--------|--------|--------|--------|--------|------8---------8-------|
G|--------|-------5----------|--------|--------|--------|--------|--------|----------10------------|
D|--------|-------------6----|-6------|-6------|-6------|-6------|--------|--------------------12--|
A|--------|------------------|--------|--------|--------|--------|--------|------------------------|
D|--------|------------------|--------|--------|--------|--------|--------|------------------------|


E|--------|--------|--------|--------|--------|--------|--------|--------|------------------|
B|--------|--------|--------|--------|--------|--------|--------|--------|-3----------------|
G|--------|--------|--------|--------|--------|--------|--------|--------|-------5----------|
D|-12-----|-12-----|-12-----|-12-----|--------|--------|--------|--------|-------------6----|
A|--------|--------|--------|--------|--------|--------|--------|--------|------------------|
D|--------|--------|--------|--------|--------|--------|--------|--------|------------------|


E|------------------|-------------|--------|--------|--------|--------|------------------------|
B|-3----------------|-------------|--------|--------|--------|--------|------8---------8-------|
G|-------5----------|-------------|--------|--------|--------|--------|----------10------------|
D|-------------6----|-6-----6-----|-6------|--------|--------|--------|--------------------12--|
A|------------------|-------------|--------|--------|--------|--------|------------------------|
D|------------------|-------------|--------|--------|--------|--------|------------------------|


E|--------|--------|--------|--------|------------------|-------------|-------------|
B|--------|--------|--------|--------|-3----------------|-------------|-------------|
G|--------|--------|--------|--------|-------5----------|-------------|-------------|
D|-12-----|-12-----|--------|--------|-------------6----|-6-----6-----|-6-----6-----|
A|--------|--------|--------|--------|------------------|-------------|-------------|
D|--------|--------|--------|--------|------------------|-------------|-------------|


E|------------------------|--------|--------|--------|--------|------------------|
B|------8---------8-------|--------|--------|--------|--------|-3----------------|
G|----------10------------|--------|--------|--------|--------|-------5----------|
D|--------------------12--|-12-----|-12-----|--------|--------|-------------6----|
A|------------------------|--------|--------|--------|--------|------------------|
D|------------------------|--------|--------|--------|--------|------------------|


E|-------------|-------------|------------------------|--------|------------------------|
B|-------------|-------------|------8---------8-------|--------|------8---------8-------|
G|-------------|-------------|----------10------------|--------|----------10------------|
D|-6-----6-----|-6-----6-----|--------------------12--|-12-----|--------------------12--|
A|-------------|-------------|------------------------|--------|------------------------|
D|-------------|-------------|------------------------|--------|------------------------|


E|--------|------------------------|--------|------------------------|--------|--------|
B|--------|------8---------8-------|--------|------8---------8-------|--------|--------|
G|--------|----------10------------|--------|----------10------------|--------|--------|
D|-12-----|--------------------12--|-12-----|--------------------12--|-12-----|--------|
A|--------|------------------------|--------|------------------------|--------|--------|
D|--------|------------------------|--------|------------------------|--------|--------|


E|--------|--------|--------|--------|--------|--------|--------|------------------------------|
B|--------|--------|--------|--------|--------|--------|--------|------------------------------|
G|--------|--------|--------|--------|--------|--------|--------|------12--10--10--10--10--10--|
D|--------|--------|--------|--------|--------|--------|--------|------12--10--10--10--10--10--|
A|--------|--------|--------|--------|--------|--------|--------|------------------------------|
D|--------|--------|--------|--------|--------|--------|--------|------------------------------|


E|---------------------------------|---------------------------------|---------------------------------|
B|---------------------------------|---------------------------------|---------------------------------|
G|---------------------------------|---------------------------------|-5---5---5---5---5---5---5---5---|
D|-8---8---8---8---8---8---8---8---|-3---3---3---3---3---3---3---3---|-5---5---5---5---5---5---5---5---|
A|-8---8---8---8---8---8---8---8---|-3---3---3---3---3---3---3---3---|-3---3---3---3---3---3---3---3---|
D|-8---8---8---8---8---8---8---8---|-3---3---3---3---3---3---3---3---|---------------------------------|


E|---------------------------------|------------------------|------------------------------|
B|---------------------------------|------------------------|------------------------------|
G|-6---6---6---6---6---6---6-------|------------------------|------------------------------|
D|-6---6---6---6---6---6---6-------|-7--------6--------8----|-----5--------5-------10------|
A|-4---4---4---4---4---4---4-------|-5--------8--------9----|-----6--------6-------11------|
D|---------------------------------|------------------------|------------------------------|


E|------------------------|---------------------------|------------------------|------------------------------|
B|------------------------|---------------------------|------------------------|------------------------------|
G|------------------------|---------------------------|------------------------|------------------------------|
D|-7--------6--------8----|-----5--------5---6---5----|-7--------6--------8----|-----5--------5-------10------|
A|-5--------8--------9----|-----6--------6---7---6----|-5--------8--------9----|-----6--------6-------11------|
D|------------------------|---------------------------|------------------------|------------------------------|


E|---------------------------|---------------------------|--------|--------|--------|
B|---------------------------|---------------------------|--------|--------|--------|
G|---------------------------|---------------------------|--------|--------|--------|
D|-5---------5-------5---10--|-----5--------5-------10---|-5------|--------|--------|
A|-6---------6-------6---11--|-----6--------6-------11---|-6------|--------|--------|
D|---------------------------|---------------------------|--------|--------|--------|


E|--------|--------|--------|--------|--------|--------|--------|--------|--------|
B|--------|--------|--------|--------|--------|--------|--------|--------|--------|
G|--------|--------|--------|--------|--------|--------|--------|--------|--------|
D|--------|--------|--------|--------|--------|--------|--------|--------|--------|
A|--------|--------|--------|--------|--------|--------|--------|--------|--------|
D|--------|--------|--------|--------|--------|--------|--------|--------|--------|


E|--------|--------|--------|--------|--------|-------------|--------|--------|--------|
B|--------|--------|--------|--------|--------|-------------|--------|--------|--------|
G|--------|--------|--------|--------|--------|-------------|--------|--------|--------|
D|--------|--------|--------|--------|--------|------3------|--------|--------|--------|
A|--------|--------|--------|--------|--------|-------------|--------|--------|--------|
D|--------|--------|--------|--------|--------|-------------|--------|--------|--------|


E|--------|--------|--------|--------|------------------------------|---------------------------------|
B|--------|--------|--------|--------|------------------------------|---------------------------------|
G|--------|--------|--------|--------|------12--10--10--10--10--10--|---------------------------------|
D|--------|--------|--------|--------|------12--10--10--10--10--10--|-8---8---8---8---8---8---8---8---|
A|--------|--------|--------|--------|------------------------------|-8---8---8---8---8---8---8---8---|
D|--------|--------|--------|--------|------------------------------|-8---8---8---8---8---8---8---8---|


E|---------------------------------|---------------------------------|---------------------------------|
B|---------------------------------|---------------------------------|---------------------------------|
G|---------------------------------|-5---5---5---5---5---5---5---5---|---------------------------------|
D|-3---3---3---3---3---3---3---3---|-5---5---5---5---5---5---5---5---|-6---6---6---6---6---6---6---6---|
A|-3---3---3---3---3---3---3---3---|-3---3---3---3---3---3---3---3---|-4---4---4---4---4---4---4---4---|
D|-3---3---3---3---3---3---3---3---|---------------------------------|---------------------------------|


E|---------------------------------|------------------------|------------------------------|
B|---------------------------------|------------------------|------------------------------|
G|---------------------------------|------------------------|------------------------------|
D|-6---6---6---6---6---6---6---6---|-7--------6--------8----|-----5--------5-------10------|
A|-4---4---4---4---4---4---4---4---|-5--------8--------9----|-----6--------6-------11------|
D|---------------------------------|------------------------|------------------------------|


E|------------------------|---------------------------|------------------------|------------------------------|
B|------------------------|---------------------------|------------------------|------------------------------|
G|------------------------|---------------------------|------------------------|------------------------------|
D|-7--------6--------8----|-----5--------5---6---5----|-7--------6--------8----|-----5--------5-------10------|
A|-5--------8--------9----|-----6--------6---7---6----|-5--------8--------9----|-----6--------6-------11------|
D|------------------------|---------------------------|------------------------|------------------------------|


E|------------------------|---------------------------|------------------------|---------------------------|
B|------------------------|---------------------------|------------------------|---------------------------|
G|------------------------|---------------------------|------------------------|---------------------------|
D|-7--------6--------8----|-----5--------5---6---5----|-7--------6--------8----|-----5--------5-------10---|
A|-5--------8--------9----|-----6--------6---7---6----|-5--------8--------9----|-----6--------6-------11---|
D|------------------------|---------------------------|------------------------|---------------------------|


E|-----------------------|---------------------------|-----------------------|---------------------------|
B|-----------------------|---------------------------|-----------------------|---------------------------|
G|-----------------------|---------------------------|-----------------------|---------------------------|
D|-5-----5-------5---10--|-10--5--------5-------10---|-5-----5-------5---10--|-10--5--------5-------10---|
A|-6-----6-------6---11--|-11--6--------6-------11---|-6-----6-------6---11--|-11--6--------6-------11---|
D|-----------------------|---------------------------|-----------------------|---------------------------|


E|-----------------------|---------------------------|--------|--------|
B|-----------------------|---------------------------|--------|--------|
G|-----------------------|---------------------------|--------|--------|
D|-5-----5-------5---10--|-10--5--------5-------10---|-5------|-5------|
A|-6-----6-------6---11--|-11--6--------6-------11---|-6------|-6------|
D|-----------------------|---------------------------|--------|--------|





Track 2: Sampler (wind noise generator)

E|--------|--------|--------|--------|--------|--------|--------|--------|--------|
B|--------|--------|--------|--------|--------|--------|--------|--------|--------|
G|--------|--------|--------|--------|--------|--------|--------|--------|--------|
D|--------|--------|--------|--------|--------|--------|--------|--------|--------|
A|--------|--------|--------|--------|--------|--------|--------|--------|--------|
D|--------|--------|--------|--------|--------|--------|--------|--------|--------|


E|--------|--------|--------|--------|--------|--------|--------|--------|--------|
B|--------|--------|--------|--------|--------|--------|--------|--------|--------|
G|--------|--------|--------|--------|--------|--------|--------|--------|--------|
D|--------|--------|--------|--------|--------|--------|--------|--------|--------|
A|--------|--------|--------|--------|--------|--------|--------|--------|--------|
D|--------|--------|--------|--------|--------|--------|--------|--------|--------|


E|--------|--------|--------|--------|--------|--------|--------|--------|--------|
B|--------|--------|--------|--------|--------|--------|--------|--------|--------|
G|--------|--------|--------|--------|--------|--------|--------|--------|--------|
D|--------|--------|--------|--------|--------|--------|--------|--------|--------|
A|--------|--------|--------|--------|--------|--------|--------|--------|--------|
D|--------|--------|--------|--------|--------|--------|--------|--------|--------|


E|--------|--------|--------|--------|--------|--------|-----------------|--------|
B|--------|--------|--------|--------|--------|--------|-----------------|--------|
G|--------|--------|--------|--------|--------|--------|-----------------|--------|
D|--------|--------|--------|--------|--------|--------|-------6---6-----|-6------|
A|--------|--------|--------|--------|--------|--------|-----------------|--------|
D|--------|--------|--------|--------|--------|--------|-----------------|--------|


E|--------|--------|--------|--------|--------|--------|--------|--------|--------|
B|--------|--------|--------|--------|--------|--------|--------|--------|--------|
G|--------|--------|--------|--------|--------|--------|--------|--------|--------|
D|-6------|-6------|-6------|-6------|-6------|-6------|-6------|-6------|-6------|
A|--------|--------|--------|--------|--------|--------|--------|--------|--------|
D|--------|--------|--------|--------|--------|--------|--------|--------|--------|


E|--------|--------|--------|--------|--------|--------|--------|--------|--------|
B|--------|--------|--------|--------|--------|--------|--------|--------|--------|
G|--------|--------|--------|--------|--------|--------|--------|--------|--------|
D|-6------|-6------|-6------|-6------|-6------|--------|--------|--------|--------|
A|--------|--------|--------|--------|--------|--------|--------|--------|--------|
D|--------|--------|--------|--------|--------|--------|--------|--------|--------|


E|--------|--------|--------|--------|--------|--------|--------|--------|--------|
B|--------|--------|--------|--------|--------|--------|--------|--------|--------|
G|--------|--------|--------|--------|--------|--------|--------|--------|--------|
D|--------|--------|--------|--------|--------|--------|--------|--------|--------|
A|--------|--------|--------|--------|--------|--------|--------|--------|--------|
D|--------|--------|--------|--------|--------|--------|--------|--------|--------|


E|--------|--------|--------|--------|--------|--------|--------|--------|--------|
B|--------|--------|--------|--------|--------|--------|--------|--------|--------|
G|--------|--------|--------|--------|--------|--------|--------|--------|--------|
D|--------|--------|--------|--------|--------|--------|--------|--------|--------|
A|--------|--------|--------|--------|--------|--------|--------|--------|--------|
D|--------|--------|--------|--------|--------|--------|--------|--------|--------|


E|--------|--------|--------|--------|--------|--------|--------|--------|--------|
B|--------|--------|--------|--------|--------|--------|--------|--------|--------|
G|--------|--------|--------|--------|--------|--------|--------|--------|--------|
D|--------|--------|--------|--------|--------|--------|--------|--------|--------|
A|--------|--------|--------|--------|--------|--------|--------|--------|--------|
D|--------|--------|--------|--------|--------|--------|--------|--------|--------|


E|--------|--------|--------|--------|--------|--------|--------|--------|--------|
B|--------|--------|--------|--------|--------|--------|--------|--------|--------|
G|--------|--------|--------|--------|--------|--------|--------|--------|--------|
D|--------|--------|--------|--------|--------|--------|--------|--------|--------|
A|--------|--------|--------|--------|--------|--------|--------|--------|--------|
D|--------|--------|--------|--------|--------|--------|--------|--------|--------|


E|--------|--------|--------|--------|--------|--------|--------|--------|--------|
B|--------|--------|--------|--------|--------|--------|--------|--------|--------|
G|--------|--------|--------|--------|--------|--------|--------|--------|--------|
D|--------|--------|--------|--------|--------|--------|--------|--------|--------|
A|--------|--------|--------|--------|--------|--------|--------|--------|--------|
D|--------|--------|--------|--------|--------|--------|--------|--------|--------|


E|--------|--------|--------|--------|--------|--------|--------|--------|--------|
B|--------|--------|--------|--------|--------|--------|--------|--------|--------|
G|--------|--------|--------|--------|--------|--------|--------|--------|--------|
D|--------|--------|--------|--------|--------|--------|--------|--------|--------|
A|--------|--------|--------|--------|--------|--------|--------|--------|--------|
D|--------|--------|--------|--------|--------|--------|--------|--------|--------|


E|--------|--------|--------|--------|--------|--------|--------|--------|--------|
B|--------|--------|--------|--------|--------|--------|--------|--------|--------|
G|--------|--------|--------|--------|--------|--------|--------|--------|--------|
D|--------|--------|--------|--------|--------|--------|--------|--------|--------|
A|--------|--------|--------|--------|--------|--------|--------|--------|--------|
D|--------|--------|--------|--------|--------|--------|--------|--------|--------|


E|--------|--------|--------|--------|--------|--------|--------|--------|--------|
B|--------|--------|--------|--------|--------|--------|--------|--------|--------|
G|--------|--------|--------|--------|--------|--------|--------|--------|--------|
D|--------|--------|--------|--------|--------|--------|--------|--------|--------|
A|--------|--------|--------|--------|--------|--------|--------|--------|--------|
D|--------|--------|--------|--------|--------|--------|--------|--------|--------|


E|--------|--------|--------|--------|--------|--------|--------|--------|--------|
B|--------|--------|--------|--------|--------|--------|--------|--------|--------|
G|--------|--------|--------|--------|--------|--------|--------|--------|--------|
D|--------|--------|--------|--------|--------|--------|--------|--------|--------|
A|--------|--------|--------|--------|--------|--------|--------|--------|--------|
D|--------|--------|--------|--------|--------|--------|--------|--------|--------|


E|--------|--------|--------|--------|--------|--------|--------|--------|--------|
B|--------|--------|--------|--------|--------|--------|--------|--------|--------|
G|--------|--------|--------|--------|--------|--------|--------|--------|--------|
D|--------|--------|--------|--------|--------|--------|--------|--------|--------|
A|--------|--------|--------|--------|--------|--------|--------|--------|--------|
D|--------|--------|--------|--------|--------|--------|--------|--------|--------|


E|--------|--------|--------|--------|--------|--------|--------|
B|--------|--------|--------|--------|--------|--------|--------|
G|--------|--------|--------|--------|--------|--------|--------|
D|--------|--------|--------|--------|--------|--------|--------|
A|--------|--------|--------|--------|--------|--------|--------|
D|--------|--------|--------|--------|--------|--------|--------|





Track 3: Distorted Guitar

E|--------|--------|--------|--------|--------|--------|--------|--------|--------|
B|--------|--------|--------|--------|--------|--------|--------|--------|--------|
G|--------|--------|--------|--------|--------|--------|--------|--------|--------|
D|--------|--------|--------|--------|--------|--------|--------|--------|--------|
A|--------|--------|--------|--------|--------|--------|--------|--------|--------|
D|--------|--------|--------|--------|--------|--------|--------|--------|--------|


E|--------|--------|--------|--------|--------|--------|--------|--------|--------|
B|--------|--------|--------|--------|--------|--------|--------|--------|--------|
G|--------|--------|--------|--------|--------|--------|--------|--------|--------|
D|--------|--------|--------|--------|--------|--------|--------|--------|--------|
A|--------|--------|--------|--------|--------|--------|--------|--------|--------|
D|--------|--------|--------|--------|--------|--------|--------|--------|--------|


E|--------|--------|--------|--------|--------|--------|--------|--------|--------|
B|--------|--------|--------|--------|--------|--------|--------|--------|--------|
G|--------|--------|--------|--------|--------|--------|--------|--------|--------|
D|--------|--------|--------|--------|--------|--------|--------|--------|--------|
A|--------|--------|--------|--------|--------|--------|--------|--------|--------|
D|--------|--------|--------|--------|--------|--------|--------|--------|--------|


E|--------|--------|--------|--------|--------|--------|--------|--------|--------|
B|--------|--------|--------|--------|--------|--------|--------|--------|--------|
G|--------|--------|--------|--------|--------|--------|--------|--------|--------|
D|--------|--------|--------|--------|--------|--------|--------|--------|--------|
A|--------|--------|--------|--------|--------|--------|--------|--------|--------|
D|--------|--------|--------|--------|--------|--------|--------|--------|--------|


E|--------|--------|--------|--------|--------|--------|--------|--------|--------|
B|--------|--------|--------|--------|--------|--------|--------|--------|--------|
G|--------|--------|--------|--------|--------|--------|--------|--------|--------|
D|--------|--------|--------|--------|--------|--------|--------|--------|--------|
A|--------|--------|--------|--------|--------|--------|--------|--------|--------|
D|--------|--------|--------|--------|--------|--------|--------|--------|--------|


E|--------|--------|--------|--------|--------|--------|--------|--------|--------|
B|--------|--------|--------|--------|--------|--------|--------|--------|--------|
G|--------|--------|--------|--------|--------|--------|--------|--------|--------|
D|--------|--------|--------|--------|--------|--------|--------|--------|--------|
A|--------|--------|--------|--------|--------|--------|--------|--------|--------|
D|--------|--------|--------|--------|--------|--------|--------|--------|--------|


E|--------|--------|--------|--------|--------|--------|--------|--------|--------|
B|--------|--------|--------|--------|--------|--------|--------|--------|--------|
G|--------|--------|--------|--------|--------|--------|--------|--------|--------|
D|--------|--------|--------|--------|--------|--------|--------|--------|--------|
A|--------|--------|--------|--------|--------|--------|--------|--------|--------|
D|--------|--------|--------|--------|--------|--------|--------|--------|--------|


E|--------|--------|--------|--------|--------|--------|--------|--------|--------|
B|--------|--------|--------|--------|--------|--------|--------|--------|--------|
G|--------|--------|--------|--------|--------|--------|--------|--------|--------|
D|--------|--------|--------|--------|--------|--------|--------|--------|--------|
A|--------|--------|--------|--------|--------|--------|--------|--------|--------|
D|--------|--------|--------|--------|--------|--------|--------|--------|--------|


E|--------|--------|--------|--------|--------|--------|--------|--------|------------------------------|
B|--------|--------|--------|--------|--------|--------|--------|--------|------------------------------|
G|--------|--------|--------|--------|--------|--------|--------|--------|------12--10--10--10--12--9---|
D|--------|--------|--------|--------|--------|--------|--------|--------|------12--10--10--10--12--9---|
A|--------|--------|--------|--------|--------|--------|--------|--------|------------------------------|
D|--------|--------|--------|--------|--------|--------|--------|--------|------------------------------|


E|---------------------------------|---------------------------------|---------------------------------|
B|---------------------------------|---------------------------------|---------------------------------|
G|-9---9---9---9---9---9---9---9---|-9---9---10--9---9---9---10--9---|-9---9---9---9---9---9---9---9---|
D|-9---9---9---9---9---9---9---9---|-9---9---10--9---9---9---10--9---|-9---9---9---9---9---9---9---9---|
A|-7---7---7---7---7---7---7---7---|-7---7---8---7---7---7---8---7---|-7---7---7---7---7---7---7---7---|
D|---------------------------------|---------------------------------|---------------------------------|


E|---------------------------------|--------|--------------|--------|-------------|
B|---------------------------------|--------|--------------|-15-----|-15----------|
G|-9---9---10--9---9---9---10--10--|--------|--------------|-14-----|-14----------|
D|-9---9---10--9---9---9---10--10--|-12-----|-12-----12-12-|-12-----|-12----------|
A|-7---7---8---7---7---7---8---8---|-12-----|-12-----12-12-|-12-----|-12----------|
D|---------------------------------|-12-----|-12-----12-12-|-12-----|-12----------|


E|--------|--------|--------|--------|--------|--------|--------|--------|--------|
B|--------|--------|--------|--------|--------|--------|--------|--------|--------|
G|--------|--------|--------|--------|--------|--------|--------|--------|--------|
D|--------|--------|--------|--------|--------|--------|--------|--------|--------|
A|--------|--------|--------|--------|--------|--------|--------|--------|--------|
D|--------|--------|--------|--------|--------|--------|--------|--------|--------|


E|--------|--------|--------|--------|--------|------------------|---------------------|
B|--------|--------|--------|--------|--------|-15---------------|-----15--------------|
G|--------|--------|--------|--------|--------|-------17---------|-----------17--------|
D|--------|--------|--------|--------|--------|-------------18---|-18-------------18---|
A|--------|--------|--------|--------|--------|------------------|---------------------|
D|--------|--------|--------|--------|--------|------------------|---------------------|


E|--------------------|--------|------------------|---------------------|------------------------|
B|-15-----------------|--------|-10---------------|-----10--------------|-10---------------------|
G|-----17-------------|-17-----|-------12---------|-----------12--------|-----12-----------------|
D|---------18---18----|-18-----|-------------13---|-13-------------13---|---------13---13---13---|
A|--------------------|--------|------------------|---------------------|------------------------|
D|--------------------|--------|------------------|---------------------|------------------------|


E|---------------------|------------------|---------------------|------------------------|
B|---------------------|-15---------------|-----15--------------|-15---------------------|
G|-12---12---12---12---|-------17---------|-----------17--------|-----17-----------17----|
D|-13---13---13---13---|-------------18---|-18-------------18---|---------18---18--18----|
A|---------------------|------------------|---------------------|------------------------|
D|---------------------|------------------|---------------------|------------------------|


E|---------------------|------------------|---------------------|-----------------------|
B|---------------------|-8----------------|-----8---------------|-8-----------8---8-----|
G|-17----17--17---17---|-------10---------|-----------10--------|-----10----------10----|
D|-18----18--18---18---|-------------11---|-11-------------11---|---------11------11----|
A|---------------------|------------------|---------------------|-----------------------|
D|---------------------|------------------|---------------------|-----------------------|


E|---------------------------|---------------------------------|---------------------------------|
B|-4-------------------------|---------------------------------|---------------------------------|
G|-6----12--10--10---12--9---|-9---9---9---9---9---9---9---9---|-9---9---10--9---9---9---10--9---|
D|-7----12--10--10---12--9---|-9---9---9---9---9---9---9---9---|-9---9---10--9---9---9---10--9---|
A|------10--8---8----10--7---|-7---7---7---7---7---7---7---7---|-7---7---8---7---7---7---8---7---|
D|---------------------------|---------------------------------|---------------------------------|


E|---------------------------------|---------------------------------|--------|------------|
B|---------------------------------|---------------------------------|--------|------------|
G|-9---9---9---9---9---9---9---9---|-9---9---10--9---9---9---10------|--------|--------14--|
D|-9---9---9---9---9---9---9---9---|-9---9---10--9---9---9---10--12--|-12-----|-12-----12--|
A|-7---7---7---7---7---7---7---7---|-7---7---8---7---7---7---8---12--|-12-----|-12-----12--|
D|---------------------------------|-----------------------------12--|-12-----|-12-----12--|


E|--------|-------------|--------|--------|--------|--------|--------|--------|--------|
B|--------|-------------|--------|--------|--------|--------|--------|--------|--------|
G|-14-----|-14----------|--------|--------|--------|--------|--------|--------|--------|
D|-12-----|-12----------|--------|--------|--------|--------|--------|--------|--------|
A|-12-----|-12----------|--------|--------|--------|--------|--------|--------|--------|
D|-12-----|-12----------|--------|--------|--------|--------|--------|--------|--------|


E|--------|--------|--------|--------|--------|--------|--------|--------|--------|
B|--------|--------|--------|--------|--------|--------|--------|--------|--------|
G|--------|--------|--------|--------|--------|--------|--------|--------|--------|
D|--------|--------|--------|--------|--------|--------|--------|--------|--------|
A|--------|--------|--------|--------|--------|--------|--------|--------|--------|
D|--------|--------|--------|--------|--------|--------|--------|--------|--------|


E|--------|--------|--------|--------|--------|--------|--------|
B|--------|--------|--------|--------|--------|--------|--------|
G|--------|--------|--------|--------|--------|--------|--------|
D|--------|--------|--------|--------|--------|--------|--------|
A|--------|--------|--------|--------|--------|--------|--------|
D|--------|--------|--------|--------|--------|--------|--------|





Track 4: Untitled

G|--------|--------|--------|-------------|-------------|--------|--------|-------------|
D|--------|--------|--------|-------------|-------------|--------|--------|-------------|
A|--------|--------|--------|-------------|-------------|--------|--------|-------------|
D|-0------|-0------|-0------|-0----3------|-3------0----|-0------|-0------|-0-----3-----|


G|--------|-------------|--------|--------|--------|--------|--------|--------|--------|
D|--------|-------------|--------|--------|--------|--------|--------|--------|--------|
A|--------|-------------|--------|--------|--------|--------|--------|--------|--------|
D|-0------|-0-----3-----|-0------|-0------|-0------|-0------|-0------|-0------|-0------|


G|--------|--------|--------|--------|--------|--------|--------|--------|---------------------------------|
D|--------|--------|--------|-0------|-0------|--------|--------|--------|---------------------------------|
A|--------|--------|--------|--------|--------|--------|--------|--------|---------------------------------|
D|-0------|-0------|-0------|--------|--------|-0------|-0------|-0------|-0---0---0---0---0---0---0---0---|


G|---------------------------------|---------------------------------|---------------------------------|
D|---------------------------------|---------------------------------|---------------------------------|
A|---------------------------------|---------------------------------|---------------------------------|
D|-0---0---0---0---0---0---0---0---|-0---0---0---0---0---0---0---0---|-0---0---0---0---0---0---0---0---|


G|---------------------------------|---------------------------------|---------------------------------|
D|---------------------------------|---------------------------------|---------------------------------|
A|---------------------------------|---------------------------------|---------------------------------|
D|-0---0---0---0---0---0---0---0---|-0---0---0---0---0---0---0---0---|-0---0---0---0---0---0---0---0---|


G|---------------------------------|---------------------------------|---------------------------------|
D|---------------------------------|---------------------------------|---------------------------------|
A|-----5---5---3---3---3-----------|---------------------------------|---------------------------------|
D|-0-----------------------6---6---|-0---0---0---0---0---0---0---0---|-0---0---0---0---0---0---0---0---|


G|---------------------------------|---------------------------------|---------------------------------|
D|---------------------------------|---------------------------------|---------------------------------|
A|---------------------------------|---------------------------------|---------------------------------|
D|-0---0---0---0---0---0---0---0---|-0---0---0---0---0---0---0---0---|-0---0---0---0---0---0---0---0---|


G|---------------------------------|---------------------------------|---------------------------------|
D|---------------------------------|---------------------------------|---------------------------------|
A|---------------------------------|---------------------------------|---------------------------------|
D|-0---0---0---0---0---0---0---0---|-0---0---0---0---0---0---0---0---|-0---0---5---3---3---3---5---5---|


G|---------------------------------|---------------------------------|---------------------------------|
D|---------------------------------|---------------------------------|---------------------------------|
A|---------------------------------|---------------------------------|---------------------------------|
D|-0---0---0---0---0---0---0---0---|-0---0---0---0---0---0---0---0---|-0---0---0---0---0---0---0---0---|


G|---------------------------------|---------------------------------|---------------------------------|
D|---------------------------------|---------------------------------|---------------------------------|
A|---------------------------------|---------------------------------|---------------------------------|
D|-0---0---0---0---0---0---0---0---|-0---0---0---0---0---0---0---0---|-0---0---0---0---0---0---0---0---|


G|---------------------------------|---------------------------------|---------------------------------|
D|---------------------------------|---------------------------------|---------------------------------|
A|---------------------------------|-5---5---5---3---3---3-----------|---------------------------------|
D|-0---0---0---0---0---0---0---0---|-------------------------6---6---|-0---0---0---0---0---0---0---0---|


G|---------------------------------|---------------------------------|---------------------------------|
D|---------------------------------|---------------------------------|---------------------------------|
A|---------------------------------|---------------------------------|---------------------------------|
D|-0---0---0---0---0---0---0---0---|-0---0---0---0---0---0---0---0---|-0---0---0---0---0---0---0---0---|


G|---------------------------------|---------------------------------|---------------------------------|
D|---------------------------------|---------------------------------|---------------------------------|
A|---------------------------------|---------------------------------|---------------------------------|
D|-0---0---0---0---0---0---0---0---|-0---0---0---0---0---0---0---0---|-0---0---0---0---0---0---0---0---|


G|---------------------------------|---------------------------------|---------------------------------|
D|---------------------------------|---------------------------------|---------------------------------|
A|---------------------------------|---------------------------------|---------------------------------|
D|-0---0---5---3---3---3---5---5---|-0---0---0---0---0---0---0---0---|-0---0---0---0---0---0---0---0---|


G|---------------------------------|---------------------------------|---------------------------------|
D|---------------------------------|---------------------------------|---------------------------------|
A|---------------------------------|-5---5---5---3---3---3-----------|---------------------------------|
D|-0---0---0---0---0---0---0---0---|-------------------------6---6---|-0---0---0---0---0---0---0---0---|


G|---------------------------------|---------------------------------|---------------------------------|
D|---------------------------------|---------------------------------|---------------------------------|
A|---------------------------------|---------------------------------|---------------------------------|
D|-0---0---0---0---0---0---0---0---|-0---0---0---0---0---0---0---0---|-0---0---5---3---3---3---5---5---|


G|---------------------------------|---------------------------------|---------------------------------|
D|---------------------------------|---------------------------------|---------------------------------|
A|---------------------------------|---------------------------------|---------------------------------|
D|-0---0---0---0---0---0---0---0---|-0---0---0---0---0---0---0---0---|-0---0---0---0---0---0---0---0---|


G|---------------------------------|---------------------------------|---------------------------------|
D|---------------------------------|---------------------------------|---------------------------------|
A|-5---5---5---3---3---3-----------|---------------------------------|---------------------------------|
D|-------------------------6---6---|-0---0---0---0---0---0---0---0---|-0---0---0---0---0---0---0---0---|


G|---------------------------------|---------------------------------|---------------------------------|
D|---------------------------------|---------------------------------|---------------------------------|
A|---------------------------------|---------------------------------|---------------------------------|
D|-0---0---0---0---0---0---0---0---|-0---0---5---3---3---3---5---5---|-0---0---0---0---0---0---0---0---|


G|---------------------------------|---------------------------------|---------------------------------|
D|---------------------------------|---------------------------------|---------------------------------|
A|---------------------------------|---------------------------------|---------------------------------|
D|-0---0---5---3---3---3---5---5---|-0---0---0---0---0---0---0---0---|-0---0---5---3---3---3---5---5---|


G|---------------------------------|---------------------------------|---------------------------------|
D|---------------------------------|---------------------------------|---------------------------------|
A|---------------------------------|---------------------------------|---------------------------------|
D|-0---0---0---0---0---0---0---0---|-0---0---5---3---3---3---5---5---|-0---0---0---0---0---0---0---0---|


G|---------------------------------|---------------------------------|---------------------------------|
D|---------------------------------|---------------------------------|---------------------------------|
A|---------------------------------|---------------------------------|---------------------------------|
D|-0---0---5---3---3---3---5---5---|-2---2---2---2---2---2---2---2---|-2---2---3---2---2---2---3---2---|


G|---------------------------------|---------------------------------|---------------------------------|
D|---------------------------------|---------------------------------|---------------------------------|
A|---------------------------------|---------------------------------|---------5-----------5-----------|
D|-2---2---2---2---2---2---2---2---|-2---2---3---2---2---2---3---3---|-0---0-------0---0-------0---0---|


G|---------------------------------|---------------------------------|---------------------------------|
D|---------------------------------|---------------------------------|---------------------------------|
A|-5-------5-----------5-----------|-5---------------5-----------5---|---------------------------------|
D|-----0-------0---0-------0---0---|-----0---0---0-------0---0-------|-0---0---5---3---3---0---3---5---|


G|---------------------------------|---------------------------------|---------------------------------|
D|---------------------------------|---------------------------------|---------------------------------|
A|-1---1---1---1---1---1---1---1---|---------------------------------|-3---3---3---3---3---3---3---3---|
D|---------------------------------|-3---3---3---3---3---3---3---3---|---------------------------------|


G|---------------------------------|------------------------|------------------------------|
D|---------------------------------|-7--------6--------8----|-----5--------5-------10------|
A|-4---4---4---4---4---4---4-------|-5--------8--------9----|-----6--------6-------11------|
D|---------------------------------|------------------------|------------------------------|


G|------------------------|------------------------------|------------------------|
D|-7--------6--------8----|-----5--------5---6---5-------|-7--------6--------8----|
A|-5--------8--------9----|-----6--------6---7---6-------|-5--------8--------9----|
D|------------------------|------------------------------|------------------------|


G|------------------------------|---------------------------|------------------------------|
D|-----5--------5-------10------|-5---------5-------5---10--|-----5--------5-------10------|
A|-----6--------6-------11------|-6---------6-------6---11--|-----6--------6-------11------|
D|------------------------------|---------------------------|------------------------------|


G|--------|--------|---------------------------------|---------------------------------|
D|-5------|--------|---------------------------------|---------------------------------|
A|-6------|--------|---------------------------------|---------------------------------|
D|--------|--------|-0---0---0---0---0---0---0---0---|-0---0---0---0---0---0---0---0---|


G|---------------------------------|---------------------------------|---------------------------------|
D|---------------------------------|---------------------------------|---------------------------------|
A|---------------------------------|-5---5---5---3---3---3-----------|---------------------------------|
D|-0---0---0---0---0---0---0---0---|-------------------------6---6---|-0---0---0---0---0---0---0---0---|


G|---------------------------------|---------------------------------|---------------------------------|
D|---------------------------------|---------------------------------|---------------------------------|
A|---------------------------------|---------------------------------|---------------------------------|
D|-0---0---0---0---0---0---0---0---|-0---0---0---0---0---0---0---0---|-0---0---5---3---3---3---5---5---|


G|---------------------------------|---------------------------------|---------------------------------|
D|---------------------------------|---------------------------------|---------------------------------|
A|---------------------------------|---------------------------------|---------------------------------|
D|-0---0---0---0---0---0---0---0---|-0---0---0---0---0---0---0---0---|-0---0---0---0---0---0---0---0---|


G|---------------------------------|---------------------------------|---------------------------------|
D|---------------------------------|---------------------------------|---------------------------------|
A|-5---5---5---3---3---3-----------|---------------------------------|---------------------------------|
D|-------------------------6---6---|-0---0---0---0---0---0---0---0---|-0---0---0---0---0---0---0---0---|


G|---------------------------------|---------------------------------|---------------------------------|
D|---------------------------------|---------------------------------|---------------------------------|
A|---------------------------------|---------------------------------|---------------------------------|
D|-0---0---0---0---0---0---0---0---|-0---0---5---3---3---3---5---5---|-2---2---2---2---2---2---2---2---|


G|---------------------------------|---------------------------------|---------------------------------|
D|---------------------------------|---------------------------------|---------------------------------|
A|---------------------------------|---------------------------------|---------------------------------|
D|-2---2---3---2---2---2---3---2---|-2---2---2---2---2---2---2---2---|-2---2---3---2---2---2---3---3---|


G|---------------------------------|---------------------------------|---------------------------------|
D|---------------------------------|---------------------------------|---------------------------------|
A|---------5-----------5-----------|---------------------------------|-5---------------5-----------5---|
D|-0---0-------0---0-------0---0---|-0---0---0---0---0---0---0---0---|-----0---0---0-------0---0-------|


G|---------------------------------|---------------------------------|---------------------------------|
D|---------------------------------|---------------------------------|---------------------------------|
A|---------------------------------|-1---1---1---1---1---1---1---1---|---------------------------------|
D|-0---0---5---3---3---3---3---5---|---------------------------------|-3---3---3---3---3---3---3---3---|


G|---------------------------------|---------------------------------|---------------------------------|
D|---------------------------------|---------------------------------|---------------------------------|
A|-3---3---3---3---3---3---3---3---|-4---4---4---4---4---4---4---4---|-4---4---4---4---4---4---4---4---|
D|---------------------------------|---------------------------------|---------------------------------|


G|------------------------|------------------------------|------------------------|
D|-7--------6--------8----|-----5--------5-------10------|-7--------6--------8----|
A|-5--------8--------9----|-----6--------6-------11------|-5--------8--------9----|
D|------------------------|------------------------------|------------------------|


G|------------------------------|------------------------|------------------------------|
D|-----5--------5---6---5-------|-7--------6--------8----|-----5--------5-------10------|
A|-----6--------6---7---6-------|-5--------8--------9----|-----6--------6-------11------|
D|------------------------------|------------------------|------------------------------|


G|------------------------|------------------------------|------------------------|
D|-7--------6--------8----|-----5--------5---6---5-------|-7--------6--------8----|
A|-5--------8--------9----|-----6--------6---7---6-------|-5--------8--------9----|
D|------------------------|------------------------------|------------------------|


G|------------------------------|---------------------------|------------------------|
D|-----5--------5-------10------|-5---------5-------5---10--|-----5------------------|
A|-----6--------6-------11------|-6---------6-------6---11--|-----6--------15---11---|
D|------------------------------|---------------------------|------------------------|


G|---------------------------|------------------------|---------------------------|
D|-5---------5-------5---10--|-----5------------------|-5---------5-------5---10--|
A|-6---------6-------6---11--|-----6--------15---11---|-6---------6-------6---11--|
D|---------------------------|------------------------|---------------------------|


G|------------------------|--------|--------|
D|-----5------------------|--------|--------|
A|-----6--------15---11---|-6------|-6------|
D|------------------------|--------|--------|





Track 5: Untitled

G|------2------|-2-----2-----|-2------|-2-----------|-2------|-2------|-2------|-2------|
D|------0------|-0-----0-----|-0------|-0-----------|-0------|-0------|-0------|-0------|
A|-------------|-------------|--------|-------------|--------|--------|--------|--------|
D|-------------|-------------|--------|-------3-----|-3------|-0------|-0------|-0------|


G|-2------|-2------|-2------|-2------|-2------|-2------|-2------|-2------|-2------|
D|-0------|-0------|-0------|-0------|-0------|-0------|-0------|-0------|-0------|
A|--------|--------|--------|--------|--------|--------|--------|--------|--------|
D|-0------|-0------|-0------|-0------|-0------|-0------|-0------|-0------|-0------|


G|-2------|-2------|-2------|-2------|-2------|-2------|-2------|-2------|--------|
D|-0------|-0------|-0------|-0------|-0------|-0------|-0------|-0------|--------|
A|--------|--------|--------|--------|--------|--------|--------|--------|--------|
D|-0------|-0------|-0------|-0------|-0------|-0------|-0------|-0------|--------|


G|--------|--------|--------|--------|--------|--------|--------|--------|--------|
D|--------|--------|--------|--------|--------|--------|--------|--------|--------|
A|--------|--------|--------|--------|--------|--------|--------|--------|--------|
D|--------|--------|--------|--------|--------|--------|--------|--------|--------|


G|--------|--------|--------|--------|--------|--------|--------|--------|--------|
D|--------|--------|--------|--------|--------|--------|--------|--------|--------|
A|--------|--------|--------|--------|--------|--------|--------|--------|--------|
D|--------|--------|--------|--------|--------|--------|--------|--------|--------|


G|--------|--------|--------|--------|--------|--------|--------|--------|--------|
D|--------|--------|--------|--------|--------|--------|--------|--------|--------|
A|--------|--------|--------|--------|--------|--------|--------|--------|--------|
D|--------|--------|--------|--------|--------|--------|--------|--------|--------|


G|--------|--------|--------|--------|--------|--------|--------|--------|--------|
D|--------|--------|--------|--------|--------|--------|--------|--------|--------|
A|--------|--------|--------|--------|--------|--------|--------|--------|--------|
D|--------|--------|--------|--------|--------|--------|--------|--------|--------|


G|--------|--------|--------|--------|--------|--------|--------|--------|--------|
D|--------|--------|--------|--------|--------|--------|--------|--------|--------|
A|--------|--------|--------|--------|--------|--------|--------|--------|--------|
D|--------|--------|--------|--------|--------|--------|--------|--------|--------|


G|--------|--------|--------|--------|--------|--------|--------|--------|--------|
D|--------|--------|--------|--------|--------|--------|--------|--------|--------|
A|--------|--------|--------|--------|--------|--------|--------|--------|--------|
D|--------|--------|--------|--------|--------|--------|--------|--------|--------|


G|--------|--------|--------|--------|--------|--------|--------|--------|--------|
D|--------|--------|--------|--------|--------|--------|--------|--------|--------|
A|--------|--------|--------|--------|--------|--------|--------|--------|--------|
D|--------|--------|--------|--------|--------|--------|--------|--------|--------|


G|--------|--------|--------|--------|--------|--------|--------|--------|--------|
D|--------|--------|--------|--------|--------|--------|--------|--------|--------|
A|--------|--------|--------|--------|--------|--------|--------|--------|--------|
D|--------|--------|--------|--------|--------|--------|--------|--------|--------|


G|--------|--------|--------|--------|--------|--------|--------|--------|--------|
D|--------|--------|--------|--------|--------|--------|--------|--------|--------|
A|--------|--------|--------|--------|--------|--------|--------|--------|--------|
D|--------|--------|--------|--------|--------|--------|--------|--------|--------|


G|--------|--------|--------|--------|--------|--------|--------|--------|--------|
D|--------|--------|--------|--------|--------|--------|--------|--------|--------|
A|--------|--------|--------|--------|--------|--------|--------|--------|--------|
D|--------|--------|--------|--------|--------|--------|--------|--------|--------|


G|--------|--------|--------|--------|--------|--------|--------|--------|--------|
D|--------|--------|--------|--------|--------|--------|--------|--------|--------|
A|--------|--------|--------|--------|--------|--------|--------|--------|--------|
D|--------|--------|--------|--------|--------|--------|--------|--------|--------|


G|--------|--------|--------|--------|--------|--------|--------|--------|--------|
D|--------|--------|--------|--------|--------|--------|--------|--------|--------|
A|--------|--------|--------|--------|--------|--------|--------|--------|--------|
D|--------|--------|--------|--------|--------|--------|--------|--------|--------|


G|--------|--------|--------|--------|--------|--------|--------|--------|--------|
D|--------|--------|--------|--------|--------|--------|--------|--------|--------|
A|--------|--------|--------|--------|--------|--------|--------|--------|--------|
D|--------|--------|--------|--------|--------|--------|--------|--------|--------|


G|--------|--------|--------|--------|--------|--------|--------|
D|--------|--------|--------|--------|--------|--------|--------|
A|--------|--------|--------|--------|--------|--------|--------|
D|--------|--------|--------|--------|--------|--------|--------|