Site menu:

    

Browse: 0-9 A B C D E F G H I J K L N O P Q R S T U V W X Y Z

tiger army - in the orchard:



Title: In The Orchard
Artist: 
Album: II: Power Of Moonlite
Author: Nick13, Geoff Kresge


Track 1: Rhythm

E|-5---5--5---5--5---5---5--5---5--5---|-------------------------------------|-5---5--5---5--5---5---5--5---5--5---|
B|-6---6--6---6--6---6---6--6---6--6---|-6---6--6---6--6---6---6--6---6--6---|-6---6--6---6--6---6---6--6---6--6---|
G|-7---7--7---7--7---7---7--7---7--7---|-7---7--7---7--7---7---7--7---7--7---|-7---7--7---7--7---7---7--7---7--7---|
D|-7---7--7---7--7---7---7--7---7--7---|-8---8--8---8--8---8---8--8---8--8---|-7---7--7---7--7---7---7--7---7--7---|
A|-5---5--5---5--5---5---5--5---5--5---|-8---8--8---8--8---8---8--8---8--8---|-5---5--5---5--5---5---5--5---5--5---|
E|-5---5--5---5--5---5---5--5---5--5---|-6---6--6---6--6---6---6--6---6--6---|-5---5--5---5--5---5---5--5---5--5---|


E|-------------------------------------|-6---6--6---6--6---6---6--6---6--6---|-1---1--1---1--1---1---1--1---1--1---|
B|-6---6--6---6--6---6---6--6---6--6---|-8---8--8---8--8---8---8--8---8--8---|-1---1--1---1--1---1---1--1---1--1---|
G|-7---7--7---7--7---7---7--7---7--7---|-8---8--8---8--8---8---8--8---8--8---|-2---2--2---2--2---2---2--2---2--2---|
D|-8---8--8---8--8---8---8--8---8--8---|-8---8--8---8--8---8---8--8---8--8---|-3---3--3---3--3---3---3--3---3--3---|
A|-8---8--8---8--8---8---8--8---8--8---|-6---6--6---6--6---6---6--6---6--6---|-3---3--3---3--3---3---3--3---3--3---|
E|-6---6--6---6--6---6---6--6---6--6---|-6---6--6---6--6---6---6--6---6--6---|-1---1--1---1--1---1---1--1---1--1---|


E|-------------------------------------|-5---5--5---5--5---5---5--5---5--5---|--------6---6--6---6---6--6---6--6---|
B|-6---6--6---6--6---6---6--6---6--6---|-6---6--6---6--6---6---6--6---6--6---|--------6---6--6---6---6--6---6--6---|
G|-7---7--7---7--7---7---7--7---7--7---|-7---7--7---7--7---7---7--7---7--7---|-----7--7---7--7---7---7--7---7--7---|
D|-8---8--8---8--8---8---8--8---8--8---|-7---7--7---7--7---7---7--7---7--7---|-8---8--8---8--8---8---8--8---8--8---|
A|-8---8--8---8--8---8---8--8---8--8---|-5---5--5---5--5---5---5--5---5--5---|-8---8--8---8--8---8---8--8---8--8---|
E|-6---6--6---6--6---6---6--6---6--6---|-5---5--5---5--5---5---5--5---5--5---|-6---6--6---6--6---6---6--6---6--6---|


E|--------5---5--5---5---5--5---5--5---|--------6---6--6---6---6--6---6--6---|--------5---5--5---5---5--5---5--5---|
B|--------6---6--6---6---6--6---6--6---|--------6---6--6---6---6--6---6--6---|--------6---6--6---6---6--6---6--6---|
G|-----7--7---7--7---7---7--7---7--7---|-----7--7---7--7---7---7--7---7--7---|-----7--7---7--7---7---7--7---7--7---|
D|-7---7--7---7--7---7---7--7---7--7---|-8---8--8---8--8---8---8--8---8--8---|-7---7--7---7--7---7---7--7---7--7---|
A|-5---5--5---5--5---5---5--5---5--5---|-8---8--8---8--8---8---8--8---8--8---|-5---5--5---5--5---5---5--5---5--5---|
E|-5---5--5---5--5---5---5--5---5--5---|-6---6--6---6--6---6---6--6---6--6---|-5---5--5---5--5---5---5--5---5--5---|


E|-------------------------------------|--------1---1--1---1---1--1---1--1---|--------6---6--6---6---6--6---6--6---|
B|--------8---8--8---8---8--8---8--8---|--------1---1--1---1---1--1---1--1---|--------6---6--6---6---6--6---6--6---|
G|-----8--8---8--8---8---8--8---8--8---|-----2--2---2--2---2---2--2---2--2---|-----7--7---7--7---7---7--7---7--7---|
D|-----8--8---8--8---8---8--8---8--8---|-3---3--3---3--3---3---3--3---3--3---|-8---8--8---8--8---8---8--8---8--8---|
A|-6---6--6---6--6---6---6--6---6--6---|-3---3--3---3--3---3---3--3---3--3---|-8---8--8---8--8---8---8--8---8--8---|
E|-6---6--6---6--6---6---6--6---6--6---|-1---1--1---1--1---1---1--1---1--1---|-6---6--6---6--6---6---6--6---6--6---|


E|--------5---5--5---5---5--5---5--5---|--------6---6--6---6---6--6---6--6---|--------5---5--5---5---5--5---5--5---|
B|--------6---6--6---6---6--6---6--6---|--------6---6--6---6---6--6---6--6---|--------6---6--6---6---6--6---6--6---|
G|-----7--7---7--7---7---7--7---7--7---|-----7--7---7--7---7---7--7---7--7---|-----7--7---7--7---7---7--7---7--7---|
D|-7---7--7---7--7---7---7--7---7--7---|-8---8--8---8--8---8---8--8---8--8---|-7---7--7---7--7---7---7--7---7--7---|
A|-5---5--5---5--5---5---5--5---5--5---|-8---8--8---8--8---8---8--8---8--8---|-5---5--5---5--5---5---5--5---5--5---|
E|-5---5--5---5--5---5---5--5---5--5---|-6---6--6---6--6---6---6--6---6--6---|-5---5--5---5--5---5---5--5---5--5---|


E|--------6---6--6---6---6--6---6--6---|--------5---5--5---5---5--5---5--5---|-------------------------------------|
B|--------6---6--6---6---6--6---6--6---|--------6---6--6---6---6--6---6--6---|--------8---8--8---8---8--8---8--8---|
G|-----7--7---7--7---7---7--7---7--7---|-----7--7---7--7---7---7--7---7--7---|-----8--8---8--8---8---8--8---8--8---|
D|-8---8--8---8--8---8---8--8---8--8---|-7---7--7---7--7---7---7--7---7--7---|-----8--8---8--8---8---8--8---8--8---|
A|-8---8--8---8--8---8---8--8---8--8---|-5---5--5---5--5---5---5--5---5--5---|-6---6--6---6--6---6---6--6---6--6---|
E|-6---6--6---6--6---6---6--6---6--6---|-5---5--5---5--5---5---5--5---5--5---|-6---6--6---6--6---6---6--6---6--6---|


E|--------1---1--1---1---1--1---1--1---|--------6---6--6---6---6--6---6--6---|--------5---5--5---5---5--5---5--5---|
B|--------1---1--1---1---1--1---1--1---|--------6---6--6---6---6--6---6--6---|--------6---6--6---6---6--6---6--6---|
G|-----2--2---2--2---2---2--2---2--2---|-----7--7---7--7---7---7--7---7--7---|-----7--7---7--7---7---7--7---7--7---|
D|-3---3--3---3--3---3---3--3---3--3---|-8---8--8---8--8---8---8--8---8--8---|-7---7--7---7--7---7---7--7---7--7---|
A|-3---3--3---3--3---3---3--3---3--3---|-8---8--8---8--8---8---8--8---8--8---|-5---5--5---5--5---5---5--5---5--5---|
E|-1---1--1---1--1---1---1--1---1--1---|-6---6--6---6--6---6---6--6---6--6---|-5---5--5---5--5---5---5--5---5--5---|


E|--------|--------|--------|--------|--------|--------|--------|--------|-------------------------------------|
B|--------|--------|--------|--------|--------|--------|--------|--------|-6---6--6---6--6---6---6--6---6--6---|
G|--------|--------|--------|--------|--------|--------|--------|--------|-7---7--7---7--7---7---7--7---7--7---|
D|--------|--------|--------|--------|--------|--------|--------|--------|-8---8--8---8--8---8---8--8---8--8---|
A|--------|--------|--------|--------|--------|--------|--------|--------|-8---8--8---8--8---8---8--8---8--8---|
E|--------|--------|--------|--------|--------|--------|--------|--------|-6---6--6---6--6---6---6--6---6--6---|


E|-5---5--5---5--5---5---5--5---5--5---|-------------------------------------|-5---5--5---5--5---5---5--5---5--5---|
B|-6---6--6---6--6---6---6--6---6--6---|-6---6--6---6--6---6---6--6---6--6---|-6---6--6---6--6---6---6--6---6--6---|
G|-7---7--7---7--7---7---7--7---7--7---|-7---7--7---7--7---7---7--7---7--7---|-7---7--7---7--7---7---7--7---7--7---|
D|-7---7--7---7--7---7---7--7---7--7---|-8---8--8---8--8---8---8--8---8--8---|-7---7--7---7--7---7---7--7---7--7---|
A|-5---5--5---5--5---5---5--5---5--5---|-8---8--8---8--8---8---8--8---8--8---|-5---5--5---5--5---5---5--5---5--5---|
E|-5---5--5---5--5---5---5--5---5--5---|-6---6--6---6--6---6---6--6---6--6---|-5---5--5---5--5---5---5--5---5--5---|


E|--------|--------|--------|--------|--------|--------|--------|--------|--------|
B|--------|--------|--------|--------|--------|--------|--------|--------|--------|
G|--------|--------|--------|--------|--------|--------|--------|--------|--------|
D|--------|--------|--------|--------|--------|--------|--------|--------|--------|
A|--------|--------|--------|--------|--------|--------|--------|--------|--------|
E|--------|--------|--------|--------|--------|--------|--------|--------|--------|


E|--------|--------|--------|--------|--------|--------|--------|--------|--------|
B|--------|--------|--------|--------|--------|--------|--------|--------|--------|
G|--------|--------|--------|--------|--------|--------|--------|--------|--------|
D|--------|--------|--------|--------|--------|--------|--------|--------|--------|
A|--------|--------|--------|--------|--------|--------|--------|--------|--------|
E|--------|--------|--------|--------|--------|--------|--------|--------|--------|


E|--------|--------|--------|--------|--------|--------|--------|--------|--------|
B|--------|--------|--------|--------|--------|--------|--------|--------|--------|
G|--------|--------|--------|--------|--------|--------|--------|--------|--------|
D|--------|--------|--------|--------|--------|--------|--------|--------|--------|
A|--------|--------|--------|--------|--------|--------|--------|--------|--------|
E|--------|--------|--------|--------|--------|--------|--------|--------|--------|


E|--------|--------|--------|--------|--------|--------|--------|--------|--------|
B|--------|--------|--------|--------|--------|--------|--------|--------|--------|
G|--------|--------|--------|--------|--------|--------|--------|--------|--------|
D|--------|--------|--------|--------|--------|--------|--------|--------|--------|
A|--------|--------|--------|--------|--------|--------|--------|--------|--------|
E|--------|--------|--------|--------|--------|--------|--------|--------|--------|


E|--------6-----------------6----------|--------5-----------------5----------|--------6-----------------6----------|
B|--------6---6-------------6---6------|--------6---6-------------6---6------|--------6---6-------------6---6------|
G|-----7--7---7----------7--7---7------|-----7--7---7----------7--7---7------|-----7--7---7----------7--7---7------|
D|-8---8------8------8---8------8------|-7---7------7------7---7------7------|-8---8------8------8---8------8------|
A|-8-------------8---8-------------8---|-5-------------5---5-------------5---|-8-------------8---8-------------8---|
E|-6-------------6---6-------------6---|-5-------------5---5-------------5---|-6-------------6---6-------------6---|


E|--------5-----------------5----------|-------------------------------------|--------1-----------------1----------|
B|--------6---6-------------6---6------|--------8-----------------8----------|--------1---1-------------1---1------|
G|-----7--7---7----------7--7---7------|-----8--8---8----------8--8---8------|-----2--2---2----------2--2---2------|
D|-7---7------7------7---7------7------|-8---8------8------8---8------8------|-3---3------3------3---3------3------|
A|-5-------------5---5-------------5---|-6-------------6---6-------------8---|-3-------------3---3-------------3---|
E|-5-------------5---5-------------5---|-6-------------6---6-------------6---|-1-------------1---1-------------1---|


E|--------6-----------------6----------|--------5----------5-----|--------6-----------------6----------|
B|--------6---6-------------6---6------|--------6---6------6-----|--------6---6-------------6---6------|
G|-----7--7---7----------7--7---7------|-----7--7---7------7-----|-----7--7---7----------7--7---7------|
D|-8---8------8------8---8------8------|-7---7------7------7-----|-8---8------8------8---8------8------|
A|-8-------------8---8-------------8---|-5-------------5---5-----|-8-------------8---8-------------8---|
E|-6-------------6---6-------------6---|-5-------------5---5-----|-6-------------6---6-------------6---|


E|--------5-----------------5----------|--------6-----------------6----------|--------5-----------------5----------|
B|--------6---6-------------6---6------|--------6---6-------------6---6------|--------6---6-------------6---6------|
G|-----7--7---7----------7--7---7------|-----7--7---7----------7--7---7------|-----7--7---7----------7--7---7------|
D|-7---7------7------7---7------7------|-8---8------8------8---8------8------|-7---7------7------7---7------7------|
A|-5-------------5---5-------------5---|-8-------------8---8-------------8---|-5-------------5---5-------------5---|
E|-5-------------5---5-------------5---|-6-------------6---6-------------6---|-5-------------5---5-------------5---|


E|-------------------------------------|--------1-----------------1----------|--------6---6--6---6---6--6---6--6---|
B|--------8-----------------8----------|--------1---1-------------1---1------|--------6---6--6---6---6--6---6--6---|
G|-----8--8---8----------8--8---8------|-----2--2---2----------2--2---2------|-----7--7---7--7---7---7--7---7--7---|
D|-8---8------8------8---8------8------|-3---3------3------3---3------3------|-8---8--8---8--8---8---8--8---8--8---|
A|-6-------------6---6-------------8---|-3-------------3---3-------------3---|-8---8--8---8--8---8---8--8---8--8---|
E|-6-------------6---6-------------6---|-1-------------1---1-------------1---|-6---6--6---6--6---6---6--6---6--6---|


E|--------5---5--5---5-----|--------6---6--6---6---6--6---6--6---|--------3---3--3---3---3--3---3--3---|
B|--------6---6--6---6-----|--------6---6--6---6---6--6---6--6---|--------3---3--3---3---3--3---3--3---|
G|-----7--7---7--7---7-----|-----7--7---7--7---7---7--7---7--7---|-----4--4---4--4---4---4--4---4--4---|
D|-7---7--7---7--7---7-----|-8---8--8---8--8---8---8--8---8--8---|-5---5--5---5--5---5---5--5---5--5---|
A|-5---5--5---5--5---5-----|-8---8--8---8--8---8---8--8---8--8---|-5---5--5---5--5---5---5--5---5--5---|
E|-5---5--5---5--5---5-----|-6---6--6---6--6---6---6--6---6--6---|-3---3--3---3--3---3---3--3---3--3---|


E|--------6---6--6---6---6--6---6--6---|--------3---3--3---3---3--3---3--3---|-------------------------------------|
B|--------6---6--6---6---6--6---6--6---|--------3---3--3---3---3--3---3--3---|--------8---8--8---8---8--8---8--8---|
G|-----7--7---7--7---7---7--7---7--7---|-----4--4---4--4---4---4--4---4--4---|-----8--8---8--8---8---8--8---8--8---|
D|-8---8--8---8--8---8---8--8---8--8---|-5---5--5---5--5---5---5--5---5--5---|-----8--8---8--8---8---8--8---8--8---|
A|-8---8--8---8--8---8---8--8---8--8---|-5---5--5---5--5---5---5--5---5--5---|-6---6--6---6--6---6---6--6---6--6---|
E|-6---6--6---6--6---6---6--6---6--6---|-3---3--3---3--3---3---3--3---3--3---|-6---6--6---6--6---6---6--6---6--6---|


E|--------1---1--1---1---1--1---1--1---|--------6---6--6---6---6--6---6--6---|--------5---5--5---5-----|
B|--------1---1--1---1---1--1---1--1---|--------6---6--6---6---6--6---6--6---|--------6---6--6---6-----|
G|-----2--2---2--2---2---2--2---2--2---|-----7--7---7--7---7---7--7---7--7---|-----7--7---7--7---7-----|
D|-3---3--3---3--3---3---3--3---3--3---|-8---8--8---8--8---8---8--8---8--8---|-7---7--7---7--7---7-----|
A|-3---3--3---3--3---3---3--3---3--3---|-8---8--8---8--8---8---8--8---8--8---|-5---5--5---5--5---5-----|
E|-1---1--1---1--1---1---1--1---1--1---|-6---6--6---6--6---6---6--6---6--6---|-5---5--5---5--5---5-----|


E|--------6---6--6---6---6--6---6--6---|--------5---5--5---5---5--5---5--5---|--------6---6--6---6---6--6---6--6---|
B|--------6---6--6---6---6--6---6--6---|--------6---6--6---6---6--6---6--6---|--------6---6--6---6---6--6---6--6---|
G|-----7--7---7--7---7---7--7---7--7---|-----7--7---7--7---7---7--7---7--7---|-----7--7---7--7---7---7--7---7--7---|
D|-8---8--8---8--8---8---8--8---8--8---|-7---7--7---7--7---7---7--7---7--7---|-8---8--8---8--8---8---8--8---8--8---|
A|-8---8--8---8--8---8---8--8---8--8---|-5---5--5---5--5---5---5--5---5--5---|-8---8--8---8--8---8---8--8---8--8---|
E|-6---6--6---6--6---6---6--6---6--6---|-5---5--5---5--5---5---5--5---5--5---|-6---6--6---6--6---6---6--6---6--6---|


E|--------5---5--5---5---5--5---5--5---|-------------------------------------|--------1---1--1---1---1--1---1--1---|
B|--------6---6--6---6---6--6---6--6---|--------8---8--8---8---8--8---8--8---|--------1---1--1---1---1--1---1--1---|
G|-----7--7---7--7---7---7--7---7--7---|-----8--8---8--8---8---8--8---8--8---|-----2--2---2--2---2---2--2---2--2---|
D|-7---7--7---7--7---7---7--7---7--7---|-----8--8---8--8---8---8--8---8--8---|-3---3--3---3--3---3---3--3---3--3---|
A|-5---5--5---5--5---5---5--5---5--5---|-6---6--6---6--6---6---6--6---6--6---|-3---3--3---3--3---3---3--3---3--3---|
E|-5---5--5---5--5---5---5--5---5--5---|-6---6--6---6--6---6---6--6---6--6---|-1---1--1---1--1---1---1--1---1--1---|


E|--------6---6--6---6---6--6---6--6---|--------5---5--5---5---5--5---5--5---|--------6---6--6---6---6--6---6--6---|
B|--------6---6--6---6---6--6---6--6---|--------6---6--6---6---6--6---6--6---|--------6---6--6---6---6--6---6--6---|
G|-----7--7---7--7---7---7--7---7--7---|-----7--7---7--7---7---7--7---7--7---|-----7--7---7--7---7---7--7---7--7---|
D|-8---8--8---8--8---8---8--8---8--8---|-7---7--7---7--7---7---7--7---7--7---|-8---8--8---8--8---8---8--8---8--8---|
A|-8---8--8---8--8---8---8--8---8--8---|-5---5--5---5--5---5---5--5---5--5---|-8---8--8---8--8---8---8--8---8--8---|
E|-6---6--6---6--6---6---6--6---6--6---|-5---5--5---5--5---5---5--5---5--5---|-6---6--6---6--6---6---6--6---6--6---|


E|--------5---5--5---5---5--5---5--5---|--------6---6--6---6---6--6---6--6---|--------5---5--5---5---5--5---5--5---|
B|--------6---6--6---6---6--6---6--6---|--------6---6--6---6---6--6---6--6---|--------6---6--6---6---6--6---6--6---|
G|-----7--7---7--7---7---7--7---7--7---|-----7--7---7--7---7---7--7---7--7---|-----7--7---7--7---7---7--7---7--7---|
D|-7---7--7---7--7---7---7--7---7--7---|-8---8--8---8--8---8---8--8---8--8---|-7---7--7---7--7---7---7--7---7--7---|
A|-5---5--5---5--5---5---5--5---5--5---|-8---8--8---8--8---8---8--8---8--8---|-5---5--5---5--5---5---5--5---5--5---|
E|-5---5--5---5--5---5---5--5---5--5---|-6---6--6---6--6---6---6--6---6--6---|-5---5--5---5--5---5---5--5---5--5---|


E|-------------------------------------|--------1---1--1---1---1--1---1--1---|--------6---6--6---6---6--6---6--6---|
B|--------8---8--8---8---8--8---8--8---|--------1---1--1---1---1--1---1--1---|--------6---6--6---6---6--6---6--6---|
G|-----8--8---8--8---8---8--8---8--8---|-----2--2---2--2---2---2--2---2--2---|-----7--7---7--7---7---7--7---7--7---|
D|-----8--8---8--8---8---8--8---8--8---|-3---3--3---3--3---3---3--3---3--3---|-8---8--8---8--8---8---8--8---8--8---|
A|-6---6--6---6--6---6---6--6---6--6---|-3---3--3---3--3---3---3--3---3--3---|-8---8--8---8--8---8---8--8---8--8---|
E|-6---6--6---6--6---6---6--6---6--6---|-1---1--1---1--1---1---1--1---1--1---|-6---6--6---6--6---6---6--6---6--6---|


E|-3------|
B|-3------|
G|-4------|
D|-5------|
A|-5------|
E|-3------|





Track 2: Slide Guitar

E|-----------10----10--|-6-----6---6---6---6---6---|-----------10----10--|-6-----6---6---6---6---6---|
B|-----------8-----6---|---------------6-----------|-----------8-----6---|---------------6-----------|
G|-------7-------------|-7-----5---7-------7---5---|-------7-------------|-7-----5---7-------7---5---|
D|---------------------|---------------------------|---------------------|---------------------------|
A|---------------------|---------------------------|---------------------|---------------------------|
E|---------------------|---------------------------|---------------------|---------------------------|


E|-----------6---6---6----|-----------------------------|------------------------|
B|-----------6---8---6----|-6---6---6-----6---6--6--6---|------6----11---13--13--|
G|-------7----------------|-5---7---5---------------7---|-7----------------------|
D|------------------------|-------------------8--10-----|------------------------|
A|------------------------|---------------8-------------|------------------------|
E|------------------------|-----------------------------|------------------------|


E|------------------|--------|--------|--------|--------|--------|--------|--------|
B|-15----15---15----|--------|--------|--------|--------|--------|--------|--------|
G|-14----14---15----|--------|--------|--------|--------|--------|--------|--------|
D|------------------|--------|--------|--------|--------|--------|--------|--------|
A|------------------|--------|--------|--------|--------|--------|--------|--------|
E|------------------|--------|--------|--------|--------|--------|--------|--------|


E|-10--9---10---10----|-6------|-------22---20---|-18-----|-------18---17---|-15-----|
B|--------------10----|-6------|-----------------|--------|-----------------|--------|
G|-7---6---7----7-----|--------|-----------------|--------|-----------------|--------|
D|--------------------|--------|-----------------|--------|-----------------|--------|
A|--------------------|--------|-----------------|--------|-----------------|--------|
E|--------------------|--------|-----------------|--------|-----------------|--------|


E|--------|--------|-6---3---5------|-6------|-------8----6----|-6------|------18---17--------|
B|--------|--------|-3---5---6------|-6------|-----------------|--------|----------------18---|
G|--------|--------|----------------|--------|-----------------|--------|---------------------|
D|--------|--------|----------------|--------|-----------------|--------|---------------------|
A|--------|--------|----------------|--------|-----------------|--------|---------------------|
E|--------|--------|----------------|--------|-----------------|--------|---------------------|


E|-15-----|--------|-22----20---18---|-15----15--10----|-------------|-------------|
B|--------|--------|-----------------|-----------------|-3------3----|-8-----6-----|
G|--------|--------|-----------------|-----------------|-2------3----|-------7-----|
D|--------|--------|-----------------|-----------------|-------------|-------------|
A|--------|--------|-----------------|-----------------|-------------|-------------|
E|--------|--------|-----------------|-----------------|-------------|-------------|


E|-----------------|---------------------|--------|-------------13--|--------|-----------------|
B|-3-----3----6----|-8-----6-------------|--------|-----------------|-15-----|------6----15----|
G|-----------------|-----------7-----5---|--------|-----------------|--------|------7----15----|
D|-----------------|---------------------|-8------|-----------------|--------|-----------------|
A|-----------------|---------------------|--------|-----------------|--------|-----------------|
E|-----------------|---------------------|--------|-----------------|--------|-----------------|


E|--------|---------------------|--------|-------------|--------|-------------|--------|
B|-15-----|------11---10---6----|-10-----|-10-----10---|-15-----|-15-----3----|-15-----|
G|-12-----|-10------------------|-9------|-9------9----|-14-----|-14----------|-14-----|
D|--------|---------------------|--------|-------------|--------|-------------|--------|
A|--------|---------------------|--------|-------------|--------|-------------|--------|
E|--------|---------------------|--------|-------------|--------|-------------|--------|


E|--------|--------|--------|-----------------------8---|-10----5-----|-10-----|------22---20---18---|
B|-15-----|--------|--------|-------10--11--10--11------|-10----------|--------|---------------------|
G|-14-----|--------|--------|---------------------------|-------------|--------|---------------------|
D|--------|--------|--------|---------------------------|-------------|--------|---------------------|
A|--------|--------|--------|---------------------------|-------------|--------|---------------------|
E|--------|--------|--------|---------------------------|-------------|--------|---------------------|


E|--------|------22---20---18---|--------|--------|-------------|-------5-----|-----------10---8--------|
B|-18-----|---------------------|-20-----|-18-----|--------3----|-6-----6-----|---------------------11--|
G|--------|---------------------|--------|--------|--------2----|-7-----------|-------10----------------|
D|--------|---------------------|--------|--------|-------------|-------------|-------------------------|
A|--------|---------------------|--------|--------|-------------|-------------|-------------------------|
E|--------|---------------------|--------|--------|-------------|-------------|-------------------------|


E|---------------------------|---------------------|-----------------------|-----------------------|
B|-10----11-10---------------|-----------------10--|-10----11-10-----------|-----------------------|
G|-------------12---10-------|-10----10---12-------|-------------12---10---|-------------------7---|
D|-----------------------12--|---------------------|-----------------------|-10--10--8-----8-------|
A|---------------------------|---------------------|-----------------------|-----------------------|
E|---------------------------|---------------------|-----------------------|-----------------------|


E|-----------------------|-------------------------|-10----10--5-----|--------|-------15----13--|
B|-----------------------|-----------9----13---11--|-10----10--6-----|-6------|-----------------|
G|-----------------------|-------------------------|-----------------|-5------|-----------------|
D|-10----10------8---10--|-10---10-----------------|-----------------|--------|-----------------|
A|-----------8-----------|-------------------------|-----------------|--------|-----------------|
E|-----------------------|-------------------------|-----------------|--------|-----------------|


E|--------|-15----13------------|--------|--------|--------|--------|-11-----|-13-----|
B|-15-----|-----------15---13---|--------|--------|--------|--------|-11-----|-13-----|
G|--------|---------------------|--------|--------|--------|--------|--------|--------|
D|--------|---------------------|--------|--------|--------|--------|--------|--------|
A|--------|---------------------|--------|--------|--------|--------|--------|--------|
E|--------|---------------------|--------|--------|--------|--------|--------|--------|


E|--------|-------------|--------|--------|--------|-------10--8-----------|--------|
B|-15-----|-15-----15---|-11-----|-15-----|--------|---------------11--10--|-8------|
G|--------|-------------|--------|--------|--------|-----------------------|--------|
D|--------|-------------|--------|--------|--------|-----------------------|--------|
A|--------|-------------|--------|--------|--------|-----------------------|--------|
E|--------|-------------|--------|--------|--------|-----------------------|--------|


E|-10-----|--------|------5----------------|-------------|---------------------|--------|
B|--------|-11-----|----------6------10----|-6-----------|-----------10---11---|-11-----|
G|--------|--------|-------------7---10----|-7------7----|-10---12-------------|--------|
D|--------|--------|-----------------------|-------------|---------------------|--------|
A|--------|--------|-----------------------|-------------|---------------------|--------|
E|--------|--------|-----------------------|-------------|---------------------|--------|


E|-------10--8-----------|----------------|--------|---------------------------|--------------------|
B|-11------------11--10--|-8----------8---|--------|-11----10--11--10--11--13--|-15--14--15---15----|
G|-----------------------|--------10------|-10-----|---------------------------|--------------------|
D|-----------------------|----------------|--------|---------------------------|--------------15----|
A|-----------------------|----------------|--------|---------------------------|--------------15----|
E|-----------------------|----------------|--------|---------------------------|--------------------|


E|-----------10---8--------|---------------------------|---------------------|---------------------------|
B|---------------------11--|-10----11-10---------------|-----------------10--|-10----11-10---------------|
G|-------10----------------|-------------12---10-------|-10----10---12-------|-------------12------------|
D|-------------------------|-----------------------12--|---------------------|------------------12---12--|
A|-------------------------|---------------------------|---------------------|---------------------------|
E|-------------------------|---------------------------|---------------------|---------------------------|


E|-----------------|-----------------------|-----------10------------|-10----------------------|
B|-----------------|-----------------------|----------------13-------|------13---11------------|
G|-12--------------|-------10----------7---|-------10----------------|---------------12----10--|
D|-13----15----12--|-10--------8---10------|-10------------------12--|-------------------------|
A|-----------------|-----------------------|-------------------------|-------------------------|
E|-----------------|-----------------------|-------------------------|-------------------------|


E|-------------|-13-----13---|-------------|-13-----|-11-----18---|-17----17--------------|
B|-6------6----|-10-----10---|-6------6----|-10-----|-------------|-----------------------|
G|-7-----------|-10-----10---|-7------7----|-10-----|-12----------|-----------14--15--17--|
D|-------------|-------------|-------------|--------|--------13---|-15----15--------------|
A|-------------|-------------|-------------|--------|-------------|-----------------------|
E|-------------|-------------|-------------|--------|-------------|-----------------------|


E|-18--17--15----------------------|--------|
B|-------------18--16--15--13------|--------|
G|-----------------------------10--|-12-----|
D|---------------------------------|--------|
A|---------------------------------|--------|
E|---------------------------------|--------|





Track 3: Lead

E|--------|--------|--------|--------|--------|--------|--------|--------|--------|
B|--------|--------|--------|--------|--------|--------|--------|--------|--------|
G|--------|--------|--------|--------|--------|--------|--------|--------|--------|
D|--------|--------|--------|--------|--------|--------|--------|--------|--------|
A|--------|--------|--------|--------|--------|--------|--------|--------|--------|
E|--------|--------|--------|--------|--------|--------|--------|--------|--------|


E|--------|--------|--------|--------|--------|--------|--------|--------|--------|
B|--------|--------|--------|--------|--------|--------|--------|--------|--------|
G|--------|--------|--------|--------|--------|--------|--------|--------|--------|
D|--------|--------|--------|--------|--------|--------|--------|--------|--------|
A|--------|--------|--------|--------|--------|--------|--------|--------|--------|
E|--------|--------|--------|--------|--------|--------|--------|--------|--------|


E|--------|--------|--------|--------|--------|--------|---------------------------------------|
B|--------|--------|--------|--------|--------|--------|---------------------------------------|
G|--------|--------|--------|--------|--------|--------|---------------------------------------|
D|--------|--------|--------|--------|--------|--------|---------------------------------------|
A|--------|--------|--------|--------|--------|--------|-1---1--1--1---1--1--1---1--1--1---3---|
E|--------|--------|--------|--------|--------|--------|---------------------------------------|


E|--------|-----------------------------------------|------------|---------------------------------------|
B|--------|-----------------------------------------|------------|---------------------------------------|
G|--------|-----------------------------------------|------------|---------------------------------------|
D|--------|---------------------------3-------------|------------|---------------------------------------|
A|--------|-1---1--1--1---1--1--3--5------5--3--1---|-----1------|-6---6--6--6---6--6--6--8--8---8---6---|
E|-3------|-----------------------------------------|-3----------|---------------------------------------|


E|-------------------------------------|---------------------------------------|------------|
B|-------------------------------------|---------------------------------------|------------|
G|-------------------------------------|---------------------------------------|-----7------|
D|-----------------7---8---7---5---7---|-8---8--8--8--8--10--12--12--12-10-8---|-----8------|
A|-8---8--8--8--10---------------------|---------------------------------------|-10---------|
E|-------------------------------------|---------------------------------------|------------|


E|--------|--------|--------|--------|--------|--------|--------|--------|--------|
B|--------|--------|--------|--------|--------|--------|--------|--------|--------|
G|--------|--------|--------|--------|--------|--------|--------|--------|--------|
D|--------|--------|--------|--------|--------|--------|--------|--------|--------|
A|--------|--------|--------|--------|--------|--------|--------|--------|--------|
E|--------|--------|--------|--------|--------|--------|--------|--------|--------|


E|--------|--------|--------|--------|--------|--------|--------|--------|--------|
B|--------|--------|--------|--------|--------|--------|--------|--------|--------|
G|--------|--------|--------|--------|--------|--------|--------|--------|--------|
D|--------|--------|--------|--------|--------|--------|--------|--------|--------|
A|--------|--------|--------|--------|--------|--------|--------|--------|--------|
E|--------|--------|--------|--------|--------|--------|--------|--------|--------|


E|--------|--------|--------|--------|--------|--------|--------|--------|--------|
B|--------|--------|--------|--------|--------|--------|--------|--------|--------|
G|--------|--------|--------|--------|--------|--------|--------|--------|--------|
D|--------|--------|--------|--------|--------|--------|--------|--------|--------|
A|--------|--------|--------|--------|--------|--------|--------|--------|--------|
E|--------|--------|--------|--------|--------|--------|--------|--------|--------|


E|--------|--------|--------|--------|--------|--------|--------|--------|--------|
B|--------|--------|--------|--------|--------|--------|--------|--------|--------|
G|--------|--------|--------|--------|--------|--------|--------|--------|--------|
D|--------|--------|--------|--------|--------|--------|--------|--------|--------|
A|--------|--------|--------|--------|--------|--------|--------|--------|--------|
E|--------|--------|--------|--------|--------|--------|--------|--------|--------|


E|-----------------------------------------|------------|---------------------------------------|
B|-----------------------------------------|------------|---------------------------------------|
G|-----------------------------------------|------------|---------------------------------------|
D|-----------------------------------------|-----3------|---------------------------------------|
A|-1---1--1--1---1--1--1---1--1--1--1--3---|-5----------|-1---1--1--1---1--1--1---1--1--1---3---|
E|-----------------------------------------|------------|---------------------------------------|


E|--------|--------|--------|--------|--------|--------|--------|--------|--------|
B|--------|--------|--------|--------|--------|--------|--------|--------|--------|
G|--------|--------|--------|--------|--------|--------|--------|--------|--------|
D|--------|--------|--------|--------|--------|--------|--------|--------|--------|
A|-5------|--------|--------|--------|--------|--------|--------|--------|--------|
E|--------|--------|--------|--------|--------|--------|--------|--------|--------|


E|--------|--------|--------|--------|--------|--------|--------|--------|--------|
B|--------|--------|--------|--------|--------|--------|--------|--------|--------|
G|--------|--------|--------|--------|--------|--------|--------|--------|--------|
D|--------|--------|--------|--------|--------|--------|--------|--------|--------|
A|--------|--------|--------|--------|--------|--------|--------|--------|--------|
E|--------|--------|--------|--------|--------|--------|--------|--------|--------|


E|--------|--------|--------|--------|--------|--------|--------|--------|--------|
B|--------|--------|--------|--------|--------|--------|--------|--------|--------|
G|--------|--------|--------|--------|--------|--------|--------|--------|--------|
D|--------|--------|--------|--------|--------|--------|--------|--------|--------|
A|--------|--------|--------|--------|--------|--------|--------|--------|--------|
E|--------|--------|--------|--------|--------|--------|--------|--------|--------|


E|--------|--------|--------|--------|--------|--------|--------|--------|--------|
B|--------|--------|--------|--------|--------|--------|--------|--------|--------|
G|--------|--------|--------|--------|--------|--------|--------|--------|--------|
D|--------|--------|--------|--------|--------|--------|--------|--------|--------|
A|--------|--------|--------|--------|--------|--------|--------|--------|--------|
E|--------|--------|--------|--------|--------|--------|--------|--------|--------|


E|--------|--------|--------|--------|--------|
B|--------|--------|--------|--------|--------|
G|--------|--------|--------|--------|--------|
D|--------|--------|--------|--------|--------|
A|--------|--------|--------|--------|--------|
E|--------|--------|--------|--------|--------|





Track 4: Rhythm

E|--------|--------|--------|--------|--------|--------|--------|--------|--------|
B|--------|--------|--------|--------|--------|--------|--------|--------|--------|
G|--------|--------|--------|--------|--------|--------|--------|--------|--------|
D|--------|--------|--------|--------|--------|--------|--------|--------|--------|
A|--------|--------|--------|--------|--------|--------|--------|--------|--------|
E|--------|--------|--------|--------|--------|--------|--------|--------|--------|


E|--------|--------|--------|--------|--------|--------|--------|--------|--------|
B|--------|--------|--------|--------|--------|--------|--------|--------|--------|
G|--------|--------|--------|--------|--------|--------|--------|--------|--------|
D|--------|--------|--------|--------|--------|--------|--------|--------|--------|
A|--------|--------|--------|--------|--------|--------|--------|--------|--------|
E|--------|--------|--------|--------|--------|--------|--------|--------|--------|


E|--------|--------|--------|--------|--------|--------|--------|--------|--------|
B|--------|--------|--------|--------|--------|--------|--------|--------|--------|
G|--------|--------|--------|--------|--------|--------|--------|--------|--------|
D|--------|--------|--------|--------|--------|--------|--------|--------|--------|
A|--------|--------|--------|--------|--------|--------|--------|--------|--------|
E|--------|--------|--------|--------|--------|--------|--------|--------|--------|


E|--------|--------|--------|--------|--------|--------|--------|--------|--------|
B|--------|--------|--------|--------|--------|--------|--------|--------|--------|
G|--------|--------|--------|--------|--------|--------|--------|--------|--------|
D|--------|--------|--------|--------|--------|--------|--------|--------|--------|
A|--------|--------|--------|--------|--------|--------|--------|--------|--------|
E|--------|--------|--------|--------|--------|--------|--------|--------|--------|


E|--------|--------|--------|--------|--------|--------|--------|--------|--------|
B|--------|--------|--------|--------|--------|--------|--------|--------|--------|
G|--------|--------|--------|--------|--------|--------|--------|--------|--------|
D|--------|--------|--------|--------|--------|--------|--------|--------|--------|
A|--------|--------|--------|--------|--------|--------|--------|--------|--------|
E|--------|--------|--------|--------|--------|--------|--------|--------|--------|


E|--------|--------|--------|--------|--------|--------|--------|--------|--------|
B|--------|--------|--------|--------|--------|--------|--------|--------|--------|
G|--------|--------|--------|--------|--------|--------|--------|--------|--------|
D|--------|--------|--------|--------|--------|--------|--------|--------|--------|
A|--------|--------|--------|--------|--------|--------|--------|--------|--------|
E|--------|--------|--------|--------|--------|--------|--------|--------|--------|


E|--------|--------|--------|--------|--------|--------|--------|--------|--------|
B|--------|--------|--------|--------|--------|--------|--------|--------|--------|
G|--------|--------|--------|--------|--------|--------|--------|--------|--------|
D|--------|--------|--------|--------|--------|--------|--------|--------|--------|
A|--------|--------|--------|--------|--------|--------|--------|--------|--------|
E|--------|--------|--------|--------|--------|--------|--------|--------|--------|


E|--------|--------|--------|--------|--------|--------|--------|--------|--------|
B|--------|--------|--------|--------|--------|--------|--------|--------|--------|
G|--------|--------|--------|--------|--------|--------|--------|--------|--------|
D|--------|--------|--------|--------|--------|--------|--------|--------|--------|
A|--------|--------|--------|--------|--------|--------|--------|--------|--------|
E|--------|--------|--------|--------|--------|--------|--------|--------|--------|


E|--------|--------|--------|--------|--------|--------|--------|--------|--------|
B|-11-----|--------|--------|--------|--------|--------|--------|--------|--------|
G|--------|--------|--------|--------|--------|--------|--------|--------|--------|
D|--------|--------|--------|--------|--------|--------|--------|--------|--------|
A|--------|--------|--------|--------|--------|--------|--------|--------|--------|
E|--------|--------|--------|--------|--------|--------|--------|--------|--------|


E|--------|--------|--------|--------|--------|--------|--------|--------|--------|
B|--------|--------|--------|--------|--------|--------|--------|--------|--------|
G|--------|--------|--------|--------|--------|--------|--------|--------|--------|
D|--------|--------|--------|--------|--------|--------|--------|--------|--------|
A|--------|--------|--------|--------|--------|--------|--------|--------|--------|
E|--------|--------|--------|--------|--------|--------|--------|--------|--------|


E|--------|--------|--------|--------|--------|--------|--------|--------|--------|
B|--------|--------|--------|--------|--------|--------|--------|--------|--------|
G|--------|--------|--------|--------|--------|--------|--------|--------|--------|
D|--------|--------|--------|--------|--------|--------|--------|--------|--------|
A|--------|--------|--------|--------|--------|--------|--------|--------|--------|
E|--------|--------|--------|--------|--------|--------|--------|--------|--------|


E|--------|--------|--------|--------|--------|--------|--------|--------|--------|
B|--------|--------|--------|--------|--------|--------|--------|--------|--------|
G|--------|--------|--------|--------|--------|--------|--------|--------|--------|
D|--------|--------|--------|--------|--------|--------|--------|--------|--------|
A|--------|--------|--------|--------|--------|--------|--------|--------|--------|
E|--------|--------|--------|--------|--------|--------|--------|--------|--------|


E|--------|--------|--------|--------|
B|--------|--------|--------|--------|
G|--------|--------|--------|--------|
D|--------|--------|--------|--------|
A|--------|--------|--------|--------|
E|--------|--------|--------|--------|





Track 5: Untitled

G|---------------------------------|---------------------------------|---------------------------------|
D|---------------------------------|---------------------------------|---------------------------------|
A|-5---5-----------5---5-----------|-1---1-----------1---1-----------|-5---5-----------5---5-----------|
E|---------5---5-----------5---5---|---------1---1-----------1---1---|---------5---5-----------5---5---|


G|---------------------------------|---------------------------------|---------------------------------|
D|---------------------------------|-1---1-----------1---1-----------|---------------------------------|
A|-1---1-----------1---1-----------|---------1---1-----------1---1---|---------3---3-----------3---3---|
E|---------1---1-----------1---1---|---------------------------------|-1---1-----------1---1-----------|


G|---------------------------------|---------------------------------|---------------------------------|
D|---------------------------------|---------------------------------|---------------------------------|
A|-1---1-----------1---1-----------|-5---5-----------5---5-----------|-1---1-----------1---1-----------|
E|---------1---1-----------1---1---|---------5---5-----------5---5---|---------1---1-----------1---1---|


G|---------------------------------|---------------------------------|---------------------------------|
D|---------------------------------|---------------------------------|---------------------------------|
A|-5---5-----------5---5-----------|-1---1-----------1---1-----------|-5---5-----------5---5-----------|
E|---------5---5-----------5---5---|---------1---1-----------1---1---|---------5---5-----------5---5---|


G|---------------------------------|---------------------------------|---------------------------------|
D|-1---1-----------1---1-----------|---------------------------------|---------------------------------|
A|---------1---1-----------1---1---|---------3---3-----------3---3---|-1---1-----------1---1-----------|
E|---------------------------------|-1---1-----------1---1-----------|---------1---1-----------1---1---|


G|---------------------------------|---------------------------------|---------------------------------|
D|---------------------------------|---------------------------------|---------------------------------|
A|-5---5-----------5---5-----------|-1---1-----------1---1-----------|-5---5-----------5---5-----------|
E|---------5---5-----------5---5---|---------1---1-----------1---1---|---------5---5-----------5---5---|


G|---------------------------------|---------------------------------|---------------------------------|
D|---------------------------------|---------------------------------|-1---1-----------1---1-----------|
A|-1---1-----------1---1-----------|-5---5-----------5---5-----------|---------1---1-----------1---1---|
E|---------1---1-----------1---1---|---------5---5-----------5---5---|---------------------------------|


G|---------------------------------|---------------------------------|---------------------------------|
D|---------------------------------|---------------------------------|---------------------------------|
A|---------3---3-----------3---3---|-1---1-----------1---1-----------|-5---5-----------5---5-----------|
E|-1---1-----------1---1-----------|---------1---1-----------1---1---|---------5---5-----------5---5---|


G|---------------------------------|---------------------------------|---------------------------------|
D|---------------------------------|---------------------------------|---------------------------------|
A|-1---1-----------1---1-----------|---------5---5-----------5---5---|-1---1-----------1---1-----------|
E|---------1---1-----------1---1---|-3---3-----------3---3-----------|---------1---1-----------1---1---|


G|---------------------------------|---------------------------------|---------------------------------|
D|---------------------------------|-1---1-----------1---1-----------|---------------------------------|
A|---------5---5-----------5---5---|---------1---1-----------1---1---|---------3---3-----------3---3---|
E|-3---3-----------3---3-----------|---------------------------------|-1---1-----------1---1-----------|


G|---------------------------------|---------------------------------|---------------------------------|
D|---------------------------------|---------------------------------|---------------------------------|
A|-1---1-----------1---1-----------|---------5---5-----------5---5---|-1---1-----------1---1-----------|
E|---------1---1-----------1---1---|-3---3-----------3---3-----------|---------1---1-----------1---1---|


G|---------------------------------|---------------------------------|---------------------------------|
D|---------------------------------|---------------------------------|---------------------------------|
A|---------5---5-----------5---5---|-1---1-----------1---1-----------|---------5---5-----------5---5---|
E|-3---3-----------3---3-----------|---------1---1-----------1---1---|-3---3-----------3---3-----------|


G|---------------------------------|---------------------------------|---------------------------------|
D|---------------------------------|---------------------------------|---------------------------------|
A|-1---1-----------1---1-----------|-5---5-----------5---5-----------|-1---1-----------1---1-----------|
E|---------1---1-----------1---1---|---------5---5-----------5---5---|---------1---1-----------1---1---|


G|---------------------------------|---------------------------------|---------------------------------|
D|---------------------------------|-1---1-----------1---1-----------|---------------------------------|
A|-5---5-----------5---5-----------|---------1---1-----------1---1---|---------3---3-----------3---3---|
E|---------5---5-----------5---5---|---------------------------------|-1---1-----------1---1-----------|


G|---------------------------------|---------------------------------|---------------------------------|
D|---------------------------------|---------------------------------|---------------------------------|
A|-1---1-----------1---1-----------|---------5---5-----------5---5---|-1---1-----------1---1-----------|
E|---------1---1-----------1---1---|-3---3-----------3---3-----------|---------1---1-----------1---1---|


G|---------------------------------|---------------------------------|---------------------------------|
D|---------------------------------|---------------------------------|---------------------------------|
A|-5---5-----------5---5-----------|-1---1-----------1---1-----------|-5---5-----------5---5-----------|
E|---------5---5-----------5---5---|---------1---1-----------1---1---|---------5---5-----------5---5---|


G|---------------------------------|---------------------------------|---------------------------------|
D|-1---1-----------1---1-----------|---------------------------------|---------------------------------|
A|---------1---1-----------1---1---|---------3---3-----------3---3---|-1---1-----------1---1-----------|
E|---------------------------------|-1---1-----------1---1-----------|---------1---1-----------1---1---|


G|---------------------------------|---------------------------------|---------------------------------|
D|---------------------------------|---------------------------------|---------------------------------|
A|-5---5-----------5---5-----------|-1---1-----------1---1-----------|---------5---5-----------5---5---|
E|---------5---5-----------5---5---|---------1---1-----------1---1---|-3---3-----------3---3-----------|


G|---------------------------------|---------------------------------|---------------------------------|
D|---------------------------------|-5---5-----------5---5-----------|-1---1-----------1---1-----------|
A|-1---1-----------1---1-----------|---------5---5-----------5---5---|---------1---1-----------1---1---|
E|---------1---1-----------1---1---|---------------------------------|---------------------------------|


G|---------------------------------|---------------------------------|---------------------------------|
D|---------------------------------|---------------------------------|---------------------------------|
A|---------3---3-----------3---3---|-1---1-----------1---1-----------|-5---5-----------5---5-----------|
E|-1---1-----------1---1-----------|---------1---1-----------1---1---|---------5---5-----------5---5---|


G|---------------------------------|---------------------------------|---------------------------------|
D|---------------------------------|---------------------------------|---------------------------------|
A|-1---1-----------1---1-----------|-5---5-----------5---5-----------|-1---1-----------1---1-----------|
E|---------1---1-----------1---1---|---------5---5-----------5---5---|---------1---1-----------1---1---|


G|---------------------------------|---------------------------------|---------------------------------|
D|---------------------------------|-1---1-----------1---1-----------|---------------------------------|
A|-5---5-----------5---5-----------|---------1---1-----------1---1---|---------3---3-----------3---3---|
E|---------5---5-----------5---5---|---------------------------------|-1---1-----------1---1-----------|


G|---------------------------------|---------------------------------|---------------------------------|
D|---------------------------------|---------------------------------|---------------------------------|
A|-1---1-----------1---1-----------|-5---5-----------5---5-----------|-1---1-----------1---1-----------|
E|---------1---1-----------1---1---|---------5---5-----------5---5---|---------1---1-----------1---1---|


G|---------------------------------|---------------------------------|---------------------------------|
D|---------------------------------|---------------------------------|---------------------------------|
A|---------5---5-----------5---5---|-1---1-----------1---1-----------|---------5---5-----------5---5---|
E|-3---3-----------3---3-----------|---------1---1-----------1---1---|-3---3-----------3---3-----------|


G|---------------------------------|---------------------------------|---------------------------------|
D|---------------------------------|---------------------------------|---------------------------------|
A|-1---1-----------1---1-----------|-5---5-----------5---5-----------|-1---1-----------1---1-----------|
E|---------1---1-----------1---1---|---------5---5-----------5---5---|---------1---1-----------1---1---|


G|---------------------------------|---------------------------------|---------------------------------|
D|---------------------------------|-1---1-----------1---1-----------|---------------------------------|
A|-5---5-----------5---5-----------|---------1---1-----------1---1---|---------3---3-----------3---3---|
E|---------5---5-----------5---5---|---------------------------------|-1---1-----------1---1-----------|


G|---------------------------------|---------------------------------|---------------------------------|
D|---------------------------------|---------------------------------|---------------------------------|
A|-1---1-----------1---1-----------|-5---5-----------5---5-----------|-1---1-----------1---1-----------|
E|---------1---1-----------1---1---|---------5---5-----------5---5---|---------1---1-----------1---1---|


G|---------------------------------|---------------------------------|---------------------------------|
D|---------------------------------|---------------------------------|---------------------------------|
A|-5---5-----------5---5-----------|-1---1-----------1---1-----------|-5---5-----------5---5-----------|
E|---------5---5-----------5---5---|---------1---1-----------1---1---|---------5---5-----------5---5---|


G|---------------------------------|---------------------------------|---------------------------------|
D|-1---1-----------1---1-----------|---------------------------------|---------------------------------|
A|---------1---1-----------1---1---|---------3---3-----------3---3---|-1---1-----------1---1-----------|
E|---------------------------------|-1---1-----------1---1-----------|---------1---1-----------1---1---|


G|---------------------------------|---------------------------------|---------------------------------|
D|---------------------------------|---------------------------------|---------------------------------|
A|-5---5-----------5---5-----------|-1---1-----------1---1-----------|---------5---5-----------5---5---|
E|---------5---5-----------5---5---|---------1---1-----------1---1---|-3---3-----------3---3-----------|


G|---------------------------------|---------------------------------|---------------------------------|
D|---------------------------------|-5---5-----------5---5-----------|-1---1-----------1---1-----------|
A|-1---1-----------1---1-----------|---------5---5-----------5---5---|---------1---1-----------1---1---|
E|---------1---1-----------1---1---|---------------------------------|---------------------------------|


G|---------------------------------|---------------------------------|---------------------------------|
D|---------------------------------|---------------------------------|---------------------------------|
A|---------3---3-----------3---3---|-1---1-----------1---1-----------|---------5---5-----------5---5---|
E|-1---1-----------1---1-----------|---------1---1-----------1---1---|-3---3-----------3---3-----------|


G|---------------------------------|---------------------------------|---------------------------------|
D|---------------------------------|---------------------------------|---------------------------------|
A|-1---1-----------1---1-----------|-5---5-----------5---5-----------|-1---1-----------1---1-----------|
E|---------1---1-----------1---1---|---------5---5-----------5---5---|---------1---1-----------1---1---|


G|---------------------------------|---------------------------------|---------------------------------|
D|---------------------------------|-1---1-----------1---1-----------|---------------------------------|
A|-5---5-----------5---5-----------|---------1---1-----------1---1---|---------3---3-----------3---3---|
E|---------5---5-----------5---5---|---------------------------------|-1---1-----------1---1-----------|


G|---------------------------------|---------------------------------|---------------------------------|
D|---------------------------------|---------------------------------|---------------------------------|
A|-1---1-----------1---1-----------|-5---5-----------5---5-----------|-1---1-----------1---1-----------|
E|---------1---1-----------1---1---|---------5---5-----------5---5---|---------1---1-----------1---1---|


G|---------------------------------|---------------------------------|---------------------------------|
D|---------------------------------|---------------------------------|---------------------------------|
A|-5---5-----------5---5-----------|-1---1-----------1---1-----------|-5---5-----------5---5-----------|
E|---------5---5-----------5---5---|---------1---1-----------1---1---|---------5---5-----------5---5---|


G|---------------------------------|---------------------------------|---------------------------------|
D|-1---1-----------1---1-----------|---------------------------------|---------------------------------|
A|---------1---1-----------1---1---|---------3---3-----------3---3---|-1---1-----------1---1-----------|
E|---------------------------------|-1---1-----------1---1-----------|---------1---1-----------1---1---|


G|--------|
D|--------|
A|--------|
E|-3------|