Site menu:

    

Browse: 0-9 A B C D E F G H I J K L N O P Q R S T U V W X Y Z

tierra santa - septima estrella:



Title: Septima Estrella 
Artist: 
Album: "Legendario"
Author: Tierra Santa


Track 1: Guitarra 1

E|--------|-----------------------------------------------|-----------------------------------------------|
B|--------|-----------------------------------------------|-----------------------------------------------|
G|--------|-----------------------------------------------|-----------------------------------------------|
D|--------|--------7--5--7--8--7--5--7--5-----5-----------|--------7--5--7--8--7--5--7--5-----5-----------|
A|--------|-5---5--------------------------8-----8--7-----|-5---5--------------------------8-----8--7-----|
E|--------|--------------------------------------------8--|--------------------------------------------8--|


E|-----------------------------------------------|-----------------------------------------------|
B|-----------------------------------------------|-----------------------------------------------|
G|-----------------------------------------------|-----------------------------------------------|
D|-----------------5-----------------------------|-----------------5-----------------------------|
A|--------8--7--8-----8--7--8--7--5--7--5--------|--------5--7--8-----8--7--5-----------5--7-----|
E|-6---6-----------------------------------8--6--|-8---8-----------------------8--6--8--------8--|


E|-----------------------------------------------|-----------------------------------------------|
B|-----------------------------------------------|-----------------------------------------------|
G|-----------------------------------------------|-----------------------------------------------|
D|--------7--5--7--8--7--5--7--5-----5-----------|--------7--5--7--8--7--5--7--5-----5-----------|
A|-5---5--------------------------8-----8--7-----|-5---5--------------------------8-----8--7-----|
E|--------------------------------------------8--|--------------------------------------------8--|


E|-----------------------------------------------|-----------------------------------------------|
B|-----------------------------------------------|-----------------------------------------------|
G|-----------------------------------------------|-----------------------------------------------|
D|-----------------5-----------------------------|-----------------5-----------------------------|
A|--------8--7--8-----8--7--8--7--5--7--5--------|--------5--7--8-----8--7--5-----------5--7-----|
E|-6---6-----------------------------------8--6--|-8---8-----------------------8--6--8--------8--|


E|-------------------------------------------|---------------------------------------------|
B|-------------------------------------------|---------------------------------------------|
G|-------------------------------------------|---------------------------------------------|
D|-------------------------------------------|---------------------------------------------|
A|-5---5--7--8--7--5-----5---5--7--8--5------|-5---5--7--8--7--5---------------5--7--5-----|
E|--------------------8----------------------|--------------------8--6---6--8-----------8--|


E|-------------------------------------------|---------------------------------------------|
B|-------------------------------------------|---------------------------------------------|
G|-------------------------------------------|---------------------------------------------|
D|-------------------------------------------|---------------------------------------------|
A|-5---5--7--8--7--5-----5---5--7--8--5------|-5---5--7--8--7--5---------------5--7--5-----|
E|--------------------8----------------------|--------------------8--6---6--8-----------8--|


E|-----------------------------------------------|---------------------------------------------|
B|-----------------------------------------------|---------------------------------------------|
G|-----------------------------------------------|---------------------------------------------|
D|-2---------------------------------------------|-5-------------------------------------------|
A|-0---0--0--0--0--0--0--0--0--0--0--0--0--0--0--|-3---3--3--3--3--3--3--5---------------------|
E|-----------------------------------------------|-----------------------3---3--3--3--3--3--3--|


E|-----------------------------------------------|---------------------------------------------|
B|-----------------------------------------------|---------------------------------------------|
G|-----------------------------------------------|---------------------------------------------|
D|-2---------------------------------------------|-5-------------------------------------------|
A|-0---0--0--0--0--0--0--0--0--0--0--0--0--0--0--|-3---3--3--3--3--3--3--5---0--2--3--2--0-----|
E|-----------------------------------------------|-----------------------3------------------3--|


E|-----------------------------------------------|-----------------------------------------------|
B|-----------------------------------------------|-----------------------------------------------|
G|-----------------------------------------------|-----------------------------------------------|
D|-----------------------------------------------|-----------------------------------------------|
A|-3---------------------------------------------|-2---------------------------------------------|
E|-1---1--1--1--1--1--1--1--1--1--1--1--1--1--1--|-0---0--0--0--0--0--0--0--0--0--0--0--0--0--0--|


E|-----------------------------------------------|---------------------------------------------|
B|-----------------------------------------------|---------------------------------------------|
G|-----------------------------------------------|---------------------------------------------|
D|-----------------------------------------------|---------------------------------------------|
A|-3---------------------------------------------|-5---------------------2---------------------|
E|-1---1--1--1--1--1--1--1--1--1--1--1--1--1--1--|-3---3--3--3--3--3--3--0---0--0--0--0--0--0--|


E|-----------------------------------------------|---------------------------------------------|
B|-----------------------------------------------|---------------------------------------------|
G|-----------------------------------------------|---------------------------------------------|
D|-2---------------------------------------------|---------------------------------------------|
A|-0---0--0--0--0--0--0--0--0--0--0--0--0--0--0--|-5---------------------3---0--2--3--2--0-----|
E|-----------------------------------------------|-3---3--3--3--3--3--3--1------------------3--|


E|-----------------------------------------------|---------------------------------------|
B|-----------------------------------------------|---------------------------------------|
G|-----------------------------------------------|---------------------------------------|
D|-2---------------------------------------------|-----------------------5---5-----------|
A|-0---0--0--0--0--0--0--0--0--0--0--0--0--0--0--|-3---------------------3---3---5---5---|
E|-----------------------------------------------|-1---1--1--1--1--1--1----------3---3---|


E|-----------------------------------------------|---------------------------------------------|
B|-----------------------------------------------|---------------------------------------------|
G|-----------------------------------------------|---------------------------------------------|
D|-2---------------------------------------------|---------------------------------------------|
A|-0---0--0--0--0--0--0--0--0--0--0--0--0--0--0--|-5---------------------3---0--2--3--2--0-----|
E|-----------------------------------------------|-3---3--3--3--3--3--3--1------------------3--|


E|-----------------------------------------------|---------------------------------------------|
B|-----------------------------------------------|---------------------------------------------|
G|-----------------------------------------------|---------------------------------------------|
D|-5---------------------------------------------|-7---7--7--7--7--7--7--9---9--9--9--9--9--9--|
A|-3---3--3--3--3--3--3--3--3--3--3--3--3--3--3--|-5---5--5--5--5--5--5--7---7--7--7--7--7--7--|
E|-----------------------------------------------|---------------------------------------------|


E|-------------------------------------------------|-----------------------------------------------|
B|-------------------------------------------------|-----------------------------------------------|
G|-------------------------------------------------|-----------------------------------------------|
D|-9--9--9--9--9--9--9--9--9--9--9--9--9--9--9--9--|-2---------------------------------------------|
A|-7--7--7--7--7--7--7--7--7--7--7--7--7--7--7--7--|-0---0--0--0--0--0--0--0--0--0--0--0--0--0--0--|
E|-------------------------------------------------|-----------------------------------------------|


E|---------------------------------------------|-----------------------------------------------|
B|---------------------------------------------|-----------------------------------------------|
G|---------------------------------------------|-----------------------------------------------|
D|----------------------------------------2----|-2---------------------------------------------|
A|-0--0--0--0--0--0--0--0--0--0--0--0--0--0----|-0---0--0--0--0--0--0--0--0--0--0--0--0--0--0--|
E|---------------------------------------------|-----------------------------------------------|


E|-------------------------------------------|-----------------------------------------------|
B|-------------------------------------------|-----------------------------------------------|
G|-------------------------------------------|-----------------------------------------------|
D|-5-----------------------------------------|-2---------------------------------------------|
A|-3---3--3--3--3--3--3--5-------------------|-0---0--0--0--0--0--0--0--0--0--0--0--0--0--0--|
E|-----------------------3---3--3--3--3------|-----------------------------------------------|


E|---------------------------------------------|-----------------------------------------------|
B|---------------------------------------------|-----------------------------------------------|
G|---------------------------------------------|-----------------------------------------------|
D|----------------------------------------2----|-2---------------------------------------------|
A|-0--0--0--0--0--0--0--0--0--0--0--0--0--0----|-0---0--0--0--0--0--0--0--0--0--0--0--0--0--0--|
E|---------------------------------------------|-----------------------------------------------|


E|-------------------------------------------|-----------------------------------------------|
B|-------------------------------------------|-----------------------------------------------|
G|-------------------------------------------|-----------------------------------------------|
D|-5-----------------------------------------|-2---------------------------------------------|
A|-3---3--3--3--3--3--3--5-------------------|-0---0--0--0--0--0--0--0--0--0--0--0--0--0--0--|
E|-----------------------3---3--3--3--3------|-----------------------------------------------|


E|---------------------------------------------|-----------------------------------------------|
B|---------------------------------------------|-----------------------------------------------|
G|---------------------------------------------|-----------------------------------------------|
D|-5-------------------------------------------|-2---------------------------------------------|
A|-3---3--3--3--3--3--3--5---------------------|-0---0--0--0--0--0--0--0--0--0--0--0--0--0--0--|
E|-----------------------3---3--3--3--3--3--3--|-----------------------------------------------|


E|---------------------------------------------|-----------------------------------------------|
B|---------------------------------------------|-----------------------------------------------|
G|---------------------------------------------|-----------------------------------------------|
D|-5-------------------------------------------|-----------------------------------------------|
A|-3---3--3--3--3--3--3--5---------------------|-3---------------------------------------------|
E|-----------------------3---3--3--3--3--3--3--|-1---1--1--1--1--1--1--1--1--1--1--1--1--1--1--|


E|-----------------------------------------------|-----------------------------------------------|
B|-----------------------------------------------|-----------------------------------------------|
G|-----------------------------------------------|-----------------------------------------------|
D|-----------------------------------------------|-----------------------------------------------|
A|-2---------------------------------------------|-3---------------------------------------------|
E|-0---0--0--0--0--0--0--0--0--0--0--0--0--0--0--|-1---1--1--1--1--1--1--1--1--1--1--1--1--1--1--|


E|---------------------------------------------|--------|--------|--------|-----------------|
B|---------------------------------------------|--------|--------|--------|-----------------|
G|---------------------------------------------|--------|--------|--------|-----------------|
D|---------------------------------------------|--------|--------|--------|-----------------|
A|-5---------------------2---------------------|-12-----|-8------|-10-----|-7-----8----10---|
E|-3---3--3--3--3--3--3--0---0--0--0--0--0--0--|-10-----|-6------|-8------|-5-----6----8----|


E|--------|--------|--------|-----------------|--------|--------|--------|-----------------|
B|--------|--------|--------|-----------------|--------|--------|--------|-----------------|
G|--------|--------|--------|-----------------|--------|--------|--------|-----------------|
D|-7------|--------|--------|-----------------|--------|--------|--------|-----------------|
A|-5------|-8------|-10-----|-7-----8----10---|-12-----|-8------|-10-----|-7-----8----10---|
E|--------|-6------|-8------|-5-----6----8----|-10-----|-6------|-8------|-5-----6----8----|


E|--------|--------|--------|-----------------|--------|--------|--------|-----------------|
B|--------|--------|--------|-----------------|--------|--------|--------|-----------------|
G|--------|--------|--------|-----------------|--------|--------|--------|-----------------|
D|--------|--------|--------|-----------------|--------|--------|--------|-----------------|
A|-12-----|-8------|-10-----|-7-----8----10---|-12-----|-8------|-10-----|-7-----8----10---|
E|-10-----|-6------|-8------|-5-----6----8----|-10-----|-6------|-8------|-5-----6----8----|


E|-----------------------------------------------|-----------------------------------------------|
B|-----------------------------------------------|-----------------------------------------------|
G|-----------------------------------------------|-----------------------------------------------|
D|-7---------------------------------------------|-3---------------------------------------------|
A|-5---5--5--5--5--5--5--5--5--5--5--5--5--5--5--|-1---1--1--1--1--1--1--1--1--1--1--1--1--1--1--|
E|-----------------------------------------------|-----------------------------------------------|


E|-----------------------------------------------|--------------------------|-----------------------------------------------|
B|-----------------------------------------------|--------------------------|-----------------------------------------------|
G|-----------------------------------------------|--------------------------|-----------------------------------------------|
D|-5---------------------------------------------|--------------------------|-7---------------------------------------------|
A|-3---3--3--3--3--3--3--3--3--3--3--3--3--3--3--|-7---------8----10---8----|-5---5--5--5--5--5--5--5--5--5--5--5--5--5--5--|
E|-----------------------------------------------|-5---5--5--6----8----6----|-----------------------------------------------|


E|-----------------------------------------------|-----------------------------------------------|
B|-----------------------------------------------|-----------------------------------------------|
G|-----------------------------------------------|-----------------------------------------------|
D|-3---------------------------------------------|-5---------------------------------------------|
A|-1---1--1--1--1--1--1--1--1--1--1--1--1--1--1--|-3---3--3--3--3--3--3--3--3--3--3--3--3--3--3--|
E|-----------------------------------------------|-----------------------------------------------|


E|---------------------------|-----------------------------------------------|---------------------------------------------|
B|---------------------------|-----------------------------------------------|---------------------------------------------|
G|---------------------------|-----------------------------------------------|---------------------------------------------|
D|---------------------------|-2---------------------------------------------|-5-------------------------------------------|
A|-7----8-------10------8----|-0---0--0--0--0--0--0--0--0--0--0--0--0--0--0--|-3---3--3--3--3--3--3--5---------------------|
E|-5----6-------8-------6----|-----------------------------------------------|-----------------------3---3--3--3--3--3--3--|


E|-----------------------------------------------|---------------------------------------------|
B|-----------------------------------------------|---------------------------------------------|
G|-----------------------------------------------|---------------------------------------------|
D|-----------------------------------------------|-5-------------------------------------------|
A|-7---------------------------------------------|-3---3--3--3--3--3--3--5---0--2--3--2--0-----|
E|-5---5--5--5--5--5--5--5--5--5--5--5--5--5--5--|-----------------------3------------------3--|


E|-----------------------------------------------|-----------------------------------------------|
B|-----------------------------------------------|-----------------------------------------------|
G|-----------------------------------------------|-----------------------------------------------|
D|-----------------------------------------------|-----------------------------------------------|
A|-3---------------------------------------------|-2---------------------------------------------|
E|-1---1--1--1--1--1--1--1--1--1--1--1--1--1--1--|-0---0--0--0--0--0--0--0--0--0--0--0--0--0--0--|


E|-----------------------------------------------|---------------------------------------------|
B|-----------------------------------------------|---------------------------------------------|
G|-----------------------------------------------|---------------------------------------------|
D|-----------------------------------------------|---------------------------------------------|
A|-3---------------------------------------------|-5---------------------2---------------------|
E|-1---1--1--1--1--1--1--1--1--1--1--1--1--1--1--|-3---3--3--3--3--3--3--0---0--0--0--0--0--0--|


E|-----------------------------------------------|---------------------------------------------|
B|-----------------------------------------------|---------------------------------------------|
G|-----------------------------------------------|---------------------------------------------|
D|-2---------------------------------------------|---------------------------------------------|
A|-0---0--0--0--0--0--0--0--0--0--0--0--0--0--0--|-5---------------------3---0--2--3--2--0-----|
E|-----------------------------------------------|-3---3--3--3--3--3--3--1------------------3--|


E|-----------------------------------------------|---------------------------------------|
B|-----------------------------------------------|---------------------------------------|
G|-----------------------------------------------|---------------------------------------|
D|-2---------------------------------------------|-----------------------5---5-----------|
A|-0---0--0--0--0--0--0--0--0--0--0--0--0--0--0--|-3---------------------3---3---5---5---|
E|-----------------------------------------------|-1---1--1--1--1--1--1----------3---3---|


E|-----------------------------------------------|---------------------------------------------|
B|-----------------------------------------------|---------------------------------------------|
G|-----------------------------------------------|---------------------------------------------|
D|-2---------------------------------------------|---------------------------------------------|
A|-0---0--0--0--0--0--0--0--0--0--0--0--0--0--0--|-5---------------------3---0--2--3--2--0-----|
E|-----------------------------------------------|-3---3--3--3--3--3--3--1------------------3--|


E|-----------------------------------------------|---------------------------------------------|
B|-----------------------------------------------|---------------------------------------------|
G|-----------------------------------------------|---------------------------------------------|
D|-5---------------------------------------------|-7---------------------9---------------------|
A|-3---3--3--3--3--3--3--3--3--3--3--3--3--3--3--|-5---5--5--5--5--5--5--7---7--7--7--7--7--7--|
E|-----------------------------------------------|---------------------------------------------|


E|-------------------------------------------------|-----------------------------------------------|
B|-------------------------------------------------|-----------------------------------------------|
G|-------------------------------------------------|-----------------------------------------------|
D|-9-----------------------------------------------|-2---------------------------------------------|
A|-7--7--7--7--7--7--7--7--7--7--7--7--7--7--7--7--|-0---0--0--0--0--0--0--0--0--0--0--0--0--0--0--|
E|-------------------------------------------------|-----------------------------------------------|


E|---------------------------------------------|-----------------------------------------------|
B|---------------------------------------------|-----------------------------------------------|
G|---------------------------------------------|-----------------------------------------------|
D|---------------------------------------------|-2---------------------------------------------|
A|-5---------------------3---0--2--3--2--0-----|-0---0--0--0--0--0--0--0--0--0--0--0--0--0--0--|
E|-3---3--3--3--3--3--3--1------------------3--|-----------------------------------------------|


E|---------------------------------------|-----------------------------------------------|
B|---------------------------------------|-----------------------------------------------|
G|---------------------------------------|-----------------------------------------------|
D|-----------------------5---5-----------|-2---------------------------------------------|
A|-3---------------------3---3---5---5---|-0---0--0--0--0--0--0--0--0--0--0--0--0--0--0--|
E|-1---1--1--1--1--1--1----------3---3---|-----------------------------------------------|


E|---------------------------------------------|-----------------------------------------------|
B|---------------------------------------------|-----------------------------------------------|
G|---------------------------------------------|-----------------------------------------------|
D|---------------------------------------------|-5---------------------------------------------|
A|-5---------------------3---0--2--3--2--0-----|-3---3--3--3--3--3--3--3--3--3--3--3--3--3--3--|
E|-3---3--3--3--3--3--3--1------------------3--|-----------------------------------------------|


E|---------------------------------------------|-------------------------------------------------|
B|---------------------------------------------|-------------------------------------------------|
G|---------------------------------------------|-------------------------------------------------|
D|-7---------------------9---------------------|-9-----------------------------------------------|
A|-5---5--5--5--5--5--5--7---7--7--7--7--7--7--|-7--7--7--7--7--7--7--7--7--7--7--7--7--7--7--7--|
E|---------------------------------------------|-------------------------------------------------|


E|-------------------------------------------------|-----------------------------------------------|
B|-------------------------------------------------|-----------------------------------------------|
G|-------------------------------------------------|-----------------------------------------------|
D|-------------------------------------------------|-2---------------------------------------------|
A|-7--7--7--7--7--7--7--7--7--7--7--7--7--7--7--7--|-0---0--0--0--0--0--0--0--0--0--0--0--0--0--0--|
E|-------------------------------------------------|-----------------------------------------------|


E|---------------------------------------------|-----------------------------------------------|
B|---------------------------------------------|-----------------------------------------------|
G|---------------------------------------------|-----------------------------------------------|
D|----------------------------------------2----|-2---------------------------------------------|
A|-0--0--0--0--0--0--0--0--0--0--0--0--0--0----|-0---0--0--0--0--0--0--0--0--0--0--0--0--0--0--|
E|---------------------------------------------|-----------------------------------------------|


E|-------------------------------------------|-----------------------------------------------|
B|-------------------------------------------|-----------------------------------------------|
G|-------------------------------------------|-----------------------------------------------|
D|-5-----------------------------------------|-2---------------------------------------------|
A|-3---3--3--3--3--3--3--5-------------------|-0---0--0--0--0--0--0--0--0--0--0--0--0--0--0--|
E|-----------------------3---3--3--3--3------|-----------------------------------------------|


E|---------------------------------------------|-----------------------------------------------|
B|---------------------------------------------|-----------------------------------------------|
G|---------------------------------------------|-----------------------------------------------|
D|----------------------------------------2----|-2---------------------------------------------|
A|-0--0--0--0--0--0--0--0--0--0--0--0--0--0----|-0---0--0--0--0--0--0--0--0--0--0--0--0--0--0--|
E|---------------------------------------------|-----------------------------------------------|


E|-------------------------------------------|-----------------------------------------------|
B|-------------------------------------------|-----------------------------------------------|
G|-------------------------------------------|-----------------------------------------------|
D|-5-----------------------------------------|--------7--5--7--8--7--5--7--5-----5-----------|
A|-3---3--3--3--3--3--3--5-------------------|-5---5--------------------------8-----8--7-----|
E|-----------------------3---3--3--3--3------|--------------------------------------------8--|


E|-----------------------------------------------|-----------------------------------------------|
B|-----------------------------------------------|-----------------------------------------------|
G|-----------------------------------------------|-----------------------------------------------|
D|-----------------5-----------------------------|-----------------5-----------------------------|
A|--------8--7--8-----8--7--8--7--5--7--5--------|--------5--7--8-----8--7--5-----------5--7-----|
E|-6---6-----------------------------------8--6--|-8---8-----------------------8--6--8--------8--|


E|-----------------------------------------------|-----------------------------------------------|
B|-----------------------------------------------|-----------------------------------------------|
G|-----------------------------------------------|-----------------------------------------------|
D|-----------------------------------------------|--------7--5--7--8--7--5--7--5-----5-----------|
A|--------7--5--7--8--7--5--7--5-----5-----------|-5---5--------------------------8-----8--7-----|
E|-5---5--------------------------8-----8--6--8--|--------------------------------------------8--|


E|-----------------------------------------------|-----------------------------------------------|
B|-----------------------------------------------|-----------------------------------------------|
G|-----------------------------------------------|-----------------------------------------------|
D|-----------------5-----------------------------|-----------------5-----------------------------|
A|--------8--7--8-----8--7--8--7--5--7--5--------|--------5--7--8-----8--7--5-----------5--7-----|
E|-6---6-----------------------------------8--6--|-8---8-----------------------8--6--8--------8--|


E|-----------------------------------------------|-------------------------------------------|
B|-----------------------------------------------|-------------------------------------------|
G|-----------------------------------------------|-------------------------------------------|
D|-----------------------------------------------|-------------------------------------------|
A|--------7--5--7--8--7--5--7--5-----5-----------|-5---5--7--8--7--5-----5---5--7--8--5------|
E|-5---5--------------------------8-----8--6--8--|--------------------8----------------------|


E|---------------------------------------------|-------------------------------------------|
B|---------------------------------------------|-------------------------------------------|
G|---------------------------------------------|-------------------------------------------|
D|---------------------------------------------|-------------------------------------------|
A|-5---5--7--8--7--5---------------5--7--5-----|-5---5--7--8--7--5-----5---5--7--8--5------|
E|--------------------8--6---6--8-----------8--|--------------------8----------------------|


E|---------------------------------------------|-------------|
B|---------------------------------------------|-------------|
G|---------------------------------------------|-------------|
D|---------------------------------------------|-7-----------|
A|-5---5--7--8--7--5---------------5--7--5-----|-5-----------|
E|--------------------8--6---6--8-----------8--|-------------|





Track 2: Guitarra 2

E|--------|--------|--------|--------|--------|--------|--------|--------|--------|
B|--------|--------|--------|--------|--------|--------|--------|--------|--------|
G|--------|--------|--------|--------|--------|--------|--------|--------|--------|
D|--------|--------|--------|--------|--------|--------|--------|--------|--------|
A|--------|--------|--------|--------|--------|--------|--------|--------|--------|
E|--------|--------|--------|--------|--------|--------|--------|--------|--------|


E|-------------------------------------------|---------------------------------------------|
B|-------------------------------------------|---------------------------------------------|
G|-------------------------------------------|---------------------------------------------|
D|-------------------------------------------|---------------------------------------------|
A|-5---5--7--8--7--5-----5---5--7--8--5------|-5---5--7--8--7--5---------------5--7--5-----|
E|--------------------8----------------------|--------------------8--6---6--8-----------8--|


E|-------------------------------------------|---------------------------------------------|
B|-------------------------------------------|---------------------------------------------|
G|-7---7--9--10-9--7-----7---7--9--10-7------|-7---7--9--10-9--7---------------7--9--7-----|
D|--------------------10---------------------|--------------------10-8---8--10----------10-|
A|-------------------------------------------|---------------------------------------------|
E|-------------------------------------------|---------------------------------------------|


E|-----------------------------------------------|---------------------------------------------|
B|-----------------------------------------------|---------------------------------------------|
G|-----------------------------------------------|---------------------------------------------|
D|-2---------------------------------------------|-5-------------------------------------------|
A|-0---0--0--0--0--0--0--0--0--0--0--0--0--0--0--|-3---3--3--3--3--3--3--5---------------------|
E|-----------------------------------------------|-----------------------3---3--3--3--3--3--3--|


E|-----------------------------------------------|--------|--------|--------|--------|
B|-----------------------------------------------|--------|--------|--------|--------|
G|-----------------------------------------------|--------|--------|--------|--------|
D|-2---------------------------------------------|--------|--------|--------|--------|
A|-0---0--0--0--0--0--0--0--0--0--0--0--0--0--0--|--------|--------|--------|--------|
E|-----------------------------------------------|--------|--------|--------|--------|


E|--------|--------|--------|--------|--------|--------|--------|--------|--------|
B|--------|--------|--------|--------|--------|--------|--------|--------|--------|
G|--------|--------|--------|--------|--------|--------|--------|--------|--------|
D|--------|--------|--------|--------|--------|--------|--------|--------|--------|
A|--------|--------|--------|--------|--------|--------|--------|--------|--------|
E|--------|--------|--------|--------|--------|--------|--------|--------|--------|


E|--------|-----------------------------------------------|---------------------------------------------|
B|--------|-----------------------------------------------|---------------------------------------------|
G|--------|--------------------------7--------7--9--7-----|----------------------------7--------7--9----|
D|--------|-7------7--9--10-7--9--10----9--10----------10-|-9--7-----7--9--10-7--9--10----9--10---------|
A|--------|-----10----------------------------------------|-------10------------------------------------|
E|--------|-----------------------------------------------|---------------------------------------------|


E|-----------------------------------------------|-----------------------------------------------|
B|-----------------------------------------------|-----------------------------------------------|
G|--------------------------7--------7--9--7-----|----10-9--7-----9--7--------7------------------|
D|-7------7--9--10-7--9--10----9--10----------10-|-9-----------10-------10-9-----10-9-----7------|
A|-----10----------------------------------------|-------------------------------------10--------|
E|-----------------------------------------------|-----------------------------------------------|


E|-----------------------------------------------|---------------------------------------------|
B|-----------------------------------------------|---------------------------------------------|
G|--------------------------7--------7--9--7-----|----------------------------7--------7--9----|
D|-7------7--9--10-7--9--10----9--10----------10-|-9--7-----7--9--10-7--9--10----9--10---------|
A|-----10----------------------------------------|-------10------------------------------------|
E|-----------------------------------------------|---------------------------------------------|


E|-----------------------------------------------|-----------------------------------------------|
B|-----------------------------------------------|-----------------------------------------------|
G|--------------------------7--------7--9--7-----|----10-9--7-----9--7--------7------------------|
D|-7------7--9--10-7--9--10----9--10----------10-|-9-----------10-------10-9-----10-9-----7------|
A|-----10----------------------------------------|-------------------------------------10--------|
E|-----------------------------------------------|-----------------------------------------------|


E|-7----8---7----------------------|-10--8--7-----8--7------------------|-15-15-15-13-13-13-12-12-12----------------------------------------------|
B|--------------10--10-8---8--10---|-----------10-------10-8--10---10---|----------------------------15-15-15-13-13-13-12-12-12-------------------|
G|---------------------------------|------------------------------------|-------------------------------------------------------14-14-14-12-12-12-|
D|---------------------------------|------------------------------------|-------------------------------------------------------------------------|
A|---------------------------------|------------------------------------|-------------------------------------------------------------------------|
E|---------------------------------|------------------------------------|-------------------------------------------------------------------------|


E|-------------------------------------------|-----------------------------------------------|
B|-------------------------------------------|--------------------------------------------10-|
G|-------------------------------------------|-----------------------9--10-9-----9--10-12----|
D|-15-15-15-14-14-14-12-12-12----------------|-12--9--10----9--10-12----------12-------------|
A|----------------------------15-15-15-14----|-----------12----------------------------------|
E|-------------------------------------------|-----------------------------------------------|


E|-----------------------------------------------|-------------------------------------10-10-10-12-12-12-10-10-10-12-12-12-|
B|-12-10-----------------------------------------|-10-10-10-13-13-13-12-12-12-13-13-13-------------------------------------|
G|-------12-11-12-11-9--11-9--7--9--7--7----7----|-------------------------------------------------------------------------|
D|-----------------------------------------------|-------------------------------------------------------------------------|
A|-----------------------------------------------|-------------------------------------------------------------------------|
E|-----------------------------------------------|-------------------------------------------------------------------------|


E|-13-13-13-12-12-12-13-13-13-15-15-15-15----|-----------------------------------------------|
B|-------------------------------------------|-----------------------8-----------------------|
G|-------------------------------------------|-----------7--9--10-9-----10-9--7--9--7--------|
D|-------------------------------------------|-7---7--10-------------------------------10-8--|
A|-------------------------------------------|-----------------------------------------------|
E|-------------------------------------------|-----------------------------------------------|


E|-----------------------------------------------|-----------------------------------------------|
B|-----------------------8-----------------------|-----------------------8-----------------------|
G|-----------7--9--10-9-----10-9--7--9--7--------|-----------7--9--10-9-----10-9--7--9--7--------|
D|-7---7--10-------------------------------10-8--|-7---7--10-------------------------------10-8--|
A|-----------------------------------------------|-----------------------------------------------|
E|-----------------------------------------------|-----------------------------------------------|


E|-----------------------------------------------|-----------------------------------------------|
B|-----------------------8-----------------------|-----------------------8-----------------------|
G|-----------7--9--10-9-----10-9--7--9--7--------|-----------7--9--10-9-----10-9--7--9--7--------|
D|-7---7--10-------------------------------10-8--|-7---7--10-------------------------------10-8--|
A|-----------------------------------------------|-----------------------------------------------|
E|-----------------------------------------------|-----------------------------------------------|


E|-----------------------------------------------|-----------------------------------------------|
B|-----------------------8-----------------------|-----------------------8-----------------------|
G|-----------7--9--10-9-----10-9--7--9--7--------|-----------7--9--10-9-----10-9--7--9--7--------|
D|-7---7--10-------------------------------10-8--|-7---7--10-------------------------------10-8--|
A|-----------------------------------------------|-----------------------------------------------|
E|-----------------------------------------------|-----------------------------------------------|


E|-----------------------------------------------|--------|--------|--------|--------|
B|-----------------------8-----------------------|--------|--------|--------|--------|
G|-----------7--9--10-9-----10-9--7--9--7--------|--------|--------|--------|--------|
D|-7---7--10-------------------------------10-8--|--------|--------|--------|--------|
A|-----------------------------------------------|--------|--------|--------|--------|
E|-----------------------------------------------|--------|--------|--------|--------|


E|--------|--------|--------|--------|--------|--------|--------|--------|-10---12---13---15---|
B|--------|--------|--------|--------|--------|--------|--------|--------|-13---15---16---18---|
G|--------|--------|--------|--------|--------|--------|--------|--------|---------------------|
D|--------|--------|--------|--------|--------|--------|--------|--------|---------------------|
A|--------|--------|--------|--------|--------|--------|--------|--------|---------------------|
E|--------|--------|--------|--------|--------|--------|--------|--------|---------------------|


E|-17----17----|-151715----15-------------------------------------|-------------------------------------------------|
B|-------------|--------18----18-17-15-18-17-15-------------------|-------------------------------------------------|
G|-------------|--------------------------------17-15-14-17-15-14-|----------------------14-15-14-------------------|
D|-------------|--------------------------------------------------|-17-15-14----14-15-17----------17-15-17-15-14----|
A|-------------|--------------------------------------------------|----------17----------------------------------17-|
E|-------------|--------------------------------------------------|-------------------------------------------------|


E|------------------------|-------------|-------------------------------------12----------|
B|------------------------|-------------|-9---10-10-1310---10-1310---10-13-15----15-13-15-|
G|------------------------|-14----12----|---------------12--------12----------------------|
D|-------14--15---14--12--|-------------|-------------------------------------------------|
A|-17---------------------|-------------|-------------------------------------------------|
E|------------------------|-------------|-------------------------------------------------|


E|-----10--------------------------------------|----------------|--------|--------|
B|-13-----13-10-13-10--------------------------|----------------|--------|--------|
G|--------------------12-10-12--10----12-10----|-10-9-----------|--------|--------|
D|---------------------------------12-------12-|----------------|--------|--------|
A|---------------------------------------------|----------------|--------|--------|
E|---------------------------------------------|----------------|--------|--------|


E|--------|--------|--------|--------|--------|--------|--------|--------|--------|
B|--------|--------|--------|--------|--------|--------|--------|--------|--------|
G|--------|--------|--------|--------|--------|--------|--------|--------|--------|
D|--------|--------|--------|--------|--------|--------|--------|--------|--------|
A|--------|--------|--------|--------|--------|--------|--------|--------|--------|
E|--------|--------|--------|--------|--------|--------|--------|--------|--------|


E|--------|--------|--------|--------|--------|--------|--------|--------|--------|
B|--------|--------|--------|--------|--------|--------|--------|--------|--------|
G|--------|--------|--------|--------|--------|--------|--------|--------|--------|
D|--------|--------|--------|--------|--------|--------|--------|--------|--------|
A|--------|--------|--------|--------|--------|--------|--------|--------|--------|
E|--------|--------|--------|--------|--------|--------|--------|--------|--------|


E|--------|--------|--------|--------|--------|--------|-----------------------------------------------|
B|--------|--------|--------|--------|--------|--------|-----------------------------------------------|
G|--------|--------|--------|--------|--------|--------|--------------------------7--------7--9--7-----|
D|--------|--------|--------|--------|--------|--------|-7------7--9--10-7--9--10----9--10----------10-|
A|--------|--------|--------|--------|--------|--------|-----10----------------------------------------|
E|--------|--------|--------|--------|--------|--------|-----------------------------------------------|


E|---------------------------------------------|-----------------------------------------------|
B|---------------------------------------------|-----------------------------------------------|
G|----------------------------7--------7--9----|--------------------------7--------7--9--7-----|
D|-9--7-----7--9--10-7--9--10----9--10---------|-7------7--9--10-7--9--10----9--10----------10-|
A|-------10------------------------------------|-----10----------------------------------------|
E|---------------------------------------------|-----------------------------------------------|


E|-----------------------------------------------|-----------------------------------------------|
B|-----------------------------------------------|-----------------------------------------------|
G|----10-9--7-----9--7--------7------------------|--------------------------7--------7--9--7-----|
D|-9-----------10-------10-9-----10-9-----7------|-7------7--9--10-7--9--10----9--10----------10-|
A|-------------------------------------10--------|-----10----------------------------------------|
E|-----------------------------------------------|-----------------------------------------------|


E|---------------------------------------------|-----------------------------------------------|
B|---------------------------------------------|-----------------------------------------------|
G|----------------------------7--------7--9----|--------------------------7--------7--9--7-----|
D|-9--7-----7--9--10-7--9--10----9--10---------|-7------7--9--10-7--9--10----9--10----------10-|
A|-------10------------------------------------|-----10----------------------------------------|
E|---------------------------------------------|-----------------------------------------------|


E|-----------------------------------------------|--------|--------|--------|--------|
B|-----------------------------------------------|--------|--------|--------|--------|
G|----10-9--7-----9--7--------7------------------|--------|--------|--------|--------|
D|-9-----------10-------10-9-----10-9-----7------|--------|--------|--------|--------|
A|-------------------------------------10--------|--------|--------|--------|--------|
E|-----------------------------------------------|--------|--------|--------|--------|


E|--------|--------|--------|--------|-------------------------------------------|
B|--------|--------|--------|--------|-------------------------------------------|
G|--------|--------|--------|--------|-------------------------------------------|
D|--------|--------|--------|--------|-------------------------------------------|
A|--------|--------|--------|--------|-5---5--7--8--7--5-----5---5--7--8--5------|
E|--------|--------|--------|--------|--------------------8----------------------|


E|---------------------------------------------|-------------------------------------------|
B|---------------------------------------------|-------------------------------------------|
G|---------------------------------------------|-7---7--9--10-9--7-----7---7--9--10-7------|
D|---------------------------------------------|--------------------10---------------------|
A|-5---5--7--8--7--5---------------5--7--5-----|-------------------------------------------|
E|--------------------8--6---6--8-----------8--|-------------------------------------------|


E|---------------------------------------------|-------------|
B|---------------------------------------------|-------------|
G|-7---7--9--10-9--7---------------7--9--7-----|-------------|
D|--------------------10-8---8--10----------10-|-7-----------|
A|---------------------------------------------|-5-----------|
E|---------------------------------------------|-------------|





Track 3: Bajo

G|--------|---------------------------------|---------------------------------|---------------------------------|
D|--------|-0---0---0---0---0---0---0---0---|-0---0---0---0---0---0---0---0---|---------------------------------|
A|--------|---------------------------------|---------------------------------|-1---1---1---1---1---1---1---1---|
E|--------|---------------------------------|---------------------------------|---------------------------------|


G|---------------------------------|---------------------------------|---------------------------------|
D|---------------------------------|---------------------------------|---------------------------------|
A|-3---3---3---3---3---3---3---3---|-5---5---5---5---5---5---5---5---|-5---5---5---5---5---5---5---5---|
E|---------------------------------|---------------------------------|---------------------------------|


G|---------------------------------|---------------------------------|---------------------------------|
D|---------------------------------|---------------------------------|---------------------------------|
A|---------------------------------|---------------------------------|---------------------------------|
E|-6---6---6---6---6---6---6---6---|-8---8---8---8---8---8---8---8---|-10--10--10--10--10--10--10------|


G|---------------------------------|---------------------------------|---------------------------------|
D|---------------------------------|---------------------------------|---------------------------------|
A|---------------------------------|---------------------------------|---------------------------------|
E|-10--10--10--10--6---6---8---8---|-10--10--10--10--10--10--10------|-10--10--10--10--6---6---8---8---|


G|---------------------------------|---------------------------------|---------------------------------|
D|---------------------------------|---------------------------------|---------------------------------|
A|---------------------------------|-3---3---3---3-------------------|-0---0---0---0---0---0---0---0---|
E|-5---5---5---5---5---5---5---5---|-----------------3---3---3---3---|---------------------------------|


G|---------------------------------|---------------------------------|---------------------------------|
D|---------------------------------|---------------------------------|---------------------------------|
A|-3---3---3---3-------------------|---------------------------------|---------------------------------|
E|-----------------3---3---3---3---|-1---1---1---1---1---1---1---1---|-0---0---0---0---0---0---0---0---|


G|---------------------------------|---------------------------------|---------------------------------|
D|---------------------------------|---------------------------------|---------------------------------|
A|---------------------------------|---------------------------------|-0---0---0---0---0---0---0---0---|
E|-1---1---1---1---1---1---1---1---|-3---3---3---3---3---3---3---3---|---------------------------------|


G|---------------------------------|---------------------------------|---------------------------------|
D|---------------------------------|---------------------------------|---------------------------------|
A|---------------------------------|-0---0---0---0---0---0---0---0---|-----------------3---3-----------|
E|-3---3---3---3---1---1---1---1---|---------------------------------|-1---1---1---1-----------3---3---|


G|---------------------------------|---------------------------------|---------------------------------|
D|---------------------------------|---------------------------------|---------------------------------|
A|-0---0---0---0---0---0---0---0---|---------------------------------|-3---3---3---3---3---3---3---3---|
E|---------------------------------|-3---3---3---3---1---1---1---1---|---------------------------------|


G|---------------------------------|---------------------------------|---------------------------------|
D|---------------------------------|---------------------------------|---------------------------------|
A|-5---5---5---5---7---7---7---7---|-7---7---7---7---7---7---7---7---|---------------------------------|
E|---------------------------------|---------------------------------|-5---5---5---5---5---5---5---5---|


G|------------------------------|---------------------------------|---------------------------------|
D|------------------------------|---------------------------------|---------------------------------|
A|------------------------------|---------------------------------|-3---3---3---3-------------------|
E|-5---5---5---5---5---5---5----|-5---5---5---5---5---5---5---5---|-----------------3---3---3-------|


G|---------------------------------|------------------------------|---------------------------------|
D|---------------------------------|------------------------------|---------------------------------|
A|-0---0---0---0---0---0---0---0---|-0---0---0---0---0---0---0----|-0---0---0---0---0---0---0---0---|
E|---------------------------------|------------------------------|---------------------------------|


G|---------------------------------|---------------------------------|---------------------------------|
D|---------------------------------|---------------------------------|---------------------------------|
A|-3---3---3---3-------------------|-0---0---0---0---0---0---0---0---|-3---3---3---3-------------------|
E|-----------------3---3---3-------|---------------------------------|-----------------3---3---3---3---|


G|---------------------------------|---------------------------------|---------------------------------|
D|---------------------------------|---------------------------------|---------------------------------|
A|-0---0---0---0---0---0---0---0---|-3---3---3---3-------------------|---------------------------------|
E|---------------------------------|-----------------3---3---3---3---|-1---1---1---1---1---1---1---1---|


G|---------------------------------|---------------------------------|---------------------------------|
D|---------------------------------|---------------------------------|---------------------------------|
A|---------------------------------|---------------------------------|---------------------------------|
E|-0---0---0---0---0---0---0---0---|-1---1---1---1---1---1---1---1---|-3---3---3---3---0---0---0---0---|


G|---------------------------------|---------------------------------|---------------------------------|
D|---------------------------------|---------------------------------|---------------------------------|
A|-5---5---5---5---5---5---5---5---|---------------------------------|---------------------------------|
E|---------------------------------|-6---6---6---6---6---6---6---6---|-8---8---8---8---8---8---8---8---|


G|---------------------------------|---------------------------------|---------------------------------|
D|---------------------------------|---------------------------------|---------------------------------|
A|---------------------------------|---------------------------------|---------------------------------|
E|-5---5---5---5---6---6---8---8---|-10--10--10--10--10--10--10--10--|-6---6---6---6---6---6---6---6---|


G|---------------------------------|---------------------------------|---------------------------------|
D|---------------------------------|---------------------------------|---------------------------------|
A|---------------------------------|---------------------------------|---------------------------------|
E|-8---8---8---8---8---8---8---8---|-5---5---5---5---6---6---8---8---|-10--10--10--10--10--10--10--10--|


G|---------------------------------|---------------------------------|---------------------------------|
D|---------------------------------|---------------------------------|---------------------------------|
A|---------------------------------|---------------------------------|---------------------------------|
E|-6---6---6---6---6---6---6---6---|-8---8---8---8---8---8---8---8---|-5---5---5---5---6---6---8---8---|


G|---------------------------------|---------------------------------|---------------------------------|
D|---------------------------------|---------------------------------|---------------------------------|
A|---------------------------------|---------------------------------|---------------------------------|
E|-10--10--10--10--10--10--10--10--|-6---6---6---6---6---6---6---6---|-8---8---8---8---8---8---8---8---|


G|---------------------------------|---------------------------------|---------------------------------|
D|---------------------------------|---------------------------------|---------------------------------|
A|---------------------------------|---------------------------------|---------------------------------|
E|-5---5---5---5---6---6---8---8---|-10--10--10--10--10--10--10--10--|-6---6---6---6---6---6---6---6---|


G|---------------------------------|---------------------------------|---------------------------------|
D|---------------------------------|---------------------------------|---------------------------------|
A|---------------------------------|---------------------------------|---------------------------------|
E|-8---8---8---8---8---8---8---8---|-5---5---5---5---6---6---8---8---|-10--10--10--10--10--10--10--10--|


G|---------------------------------|---------------------------------|---------------------------------|
D|---------------------------------|---------------------------------|---------------------------------|
A|---------------------------------|---------------------------------|---------------------------------|
E|-6---6---6---6---6---6---6---6---|-8---8---8---8---8---8---8---8---|-5---5---6---6---8---8---6---6---|


G|---------------------------------|---------------------------------|---------------------------------|
D|---------------------------------|---------------------------------|---------------------------------|
A|-5---5---5---5---5---5---5---5---|---------------------------------|---------------------------------|
E|---------------------------------|-6---6---6---6---6---6---6---6---|-8---8---8---8---8---8---8---8---|


G|---------------------------------|---------------------------------|---------------------------------|
D|---------------------------------|---------------------------------|---------------------------------|
A|---------------------------------|---------------------------------|-3---3---3---3-------------------|
E|-5---5---6---6---8---8---6---6---|-5---5---5---5---5---5---5---5---|-----------------3---3---3---3---|


G|---------------------------------|---------------------------------|---------------------------------|
D|---------------------------------|---------------------------------|---------------------------------|
A|-0---0---0---0---0---0---0---0---|-3---3---3---3-------------------|---------------------------------|
E|---------------------------------|-----------------3---3---3---3---|-1---1---1---1---1---1---1---1---|


G|---------------------------------|---------------------------------|---------------------------------|
D|---------------------------------|---------------------------------|---------------------------------|
A|---------------------------------|---------------------------------|---------------------------------|
E|-0---0---0---0---0---0---0---0---|-1---1---1---1---1---1---1---1---|-3---3---3---3---0---0---0---0---|


G|---------------------------------|---------------------------------|---------------------------------|
D|---------------------------------|---------------------------------|---------------------------------|
A|-0---0---0---0---0---0---0---0---|---------------------------------|-0---0---0---0---0---0---0---0---|
E|---------------------------------|-3---3---3---3---1---1---1---1---|---------------------------------|


G|---------------------------------|---------------------------------|---------------------------------|
D|---------------------------------|---------------------------------|---------------------------------|
A|-----------------3---3-----------|-0---0---0---0---0---0---0---0---|---------------------------------|
E|-1---1---1---1-----------3---3---|---------------------------------|-3---3---3---3---1---1---1---1---|


G|---------------------------------|---------------------------------|---------------------------------|
D|---------------------------------|---------------------------------|---------------------------------|
A|-3---3---3---3---3---3---3---3---|-5---5---5---5---7---7---7---7---|-7---7---7---7---7---7---7---7---|
E|---------------------------------|---------------------------------|---------------------------------|


G|---------------------------------|---------------------------------|---------------------------------|
D|---------------------------------|---------------------------------|---------------------------------|
A|---------------------------------|---------------------------------|-0---0---0---0---0---0---0---0---|
E|-5---5---5---5---5---5---5---5---|-3---3---3---3---1---1---1---1---|---------------------------------|


G|---------------------------------|---------------------------------|---------------------------------|
D|---------------------------------|---------------------------------|---------------------------------|
A|-----------------3---3-----------|-0---0---0---0---0---0---0---0---|---------------------------------|
E|-1---1---1---1-----------3---3---|---------------------------------|-3---3---3---3---1---1---1---1---|


G|---------------------------------|---------------------------------|---------------------------------|
D|---------------------------------|---------------------------------|---------------------------------|
A|-3---3---3---3---3---3---3---3---|-5---5---5---5---7---7---7---7---|-7---7---7---7---7---7---7---7---|
E|---------------------------------|---------------------------------|---------------------------------|


G|---------------------------------|---------------------------------|------------------------------|
D|---------------------------------|---------------------------------|------------------------------|
A|-7---7---7---7---7---7---7---7---|---------------------------------|------------------------------|
E|---------------------------------|-5---5---5---5---5---5---5---5---|-5---5---5---5---5---5---5----|


G|---------------------------------|---------------------------------|---------------------------------|
D|---------------------------------|---------------------------------|---------------------------------|
A|---------------------------------|-3---3---3---3-------------------|-0---0---0---0---0---0---0---0---|
E|-5---5---5---5---5---5---5---5---|-----------------3---3---3-------|---------------------------------|


G|------------------------------|---------------------------------|---------------------------------|
D|------------------------------|---------------------------------|---------------------------------|
A|-0---0---0---0---0---0---0----|-0---0---0---0---0---0---0---0---|-3---3---3---3-------------------|
E|------------------------------|---------------------------------|-----------------3---3---3-------|


G|---------------------------------|---------------------------------|---------------------------------|
D|---------------------------------|---------------------------------|---------------------------------|
A|-5---5---5---5---5---5---5---5---|---------------------------------|---------------------------------|
E|---------------------------------|-6---6---6---6---6---6---6---6---|-8---8---8---8---8---8---8---8---|


G|---------------------------------|---------------------------------|---------------------------------|
D|---------------------------------|---------------------------------|---------------------------------|
A|---------------------------------|---------------------------------|---------------------------------|
E|-5---5---5---5---6---6---8---8---|-10--10--10--10--10--10--10--10--|-6---6---6---6---6---6---6---6---|


G|---------------------------------|---------------------------------|---------------------------------|
D|---------------------------------|---------------------------------|---------------------------------|
A|---------------------------------|---------------------------------|---------------------------------|
E|-8---8---8---8---8---8---8---8---|-5---5---5---5---6---6---8---8---|-10--10--10--10--10--10--10------|


G|---------------------------------|---------------------------------|---------------------------------|
D|---------------------------------|---------------------------------|---------------------------------|
A|---------------------------------|---------------------------------|---------------------------------|
E|-10--10--10--10--6---6---8---8---|-10--10--10--10--10--10--10------|-10--10--10--10--6---6---8---8---|


G|-------------|
D|-------------|
A|-------------|
E|-10----------|