Site menu:

    

Browse: 0-9 A B C D E F G H I J K L N O P Q R S T U V W X Y Z

tierra santa - la canción del pirata:



Title: La Cancin del Pirata
Artist: 
Album: Tierras de Leyenda
Author: Tierra Santa


Track 1: Lead Guitar

E|-------------------------------------------------|-------------------------------------------------|
B|-------------------------------------------------|-------------------------------------------------|
G|-------------------------------------------------|-------------------------------------------------|
D|-------------------------------------------------|-------------------------------------------------|
A|-0--0--0--0--0--0--0--0--0--0--0--0--0--0--0--0--|-0--0--0--0--0--0--0--0--0--0--0--0--0--0--0--0--|
E|-------------------------------------------------|-------------------------------------------------|


E|-------------------------------------------------|-------------------------------------------------|
B|-------------------------------------------------|-------------------------------------------------|
G|-------------------------------------------------|-------------------------------------------------|
D|-------------------------------------------------|-------------------------------------------------|
A|-0--0--0--0--0--0--0--0--0--0--0--0--0--0--0--0--|-0--0--0--0--0--0--0--0--0--0--0--0--0--0--0--0--|
E|-------------------------------------------------|-------------------------------------------------|


E|-------------------------------------------------|-------------------------------------------------|
B|-------------------------------------------------|-------------------------------------------------|
G|-------------------------------------------------|-------------------------------------------------|
D|-------------------------------------------------|-------------------------------------------------|
A|-0--0--0--0--0--0--0--0--0--0--0--0--0--0--0--0--|-0--0--0--0--0--0--0--0--0--0--0--0--0--0--0--0--|
E|-------------------------------------------------|-------------------------------------------------|


E|-------------------------------------------------|-------------------------------------------------|
B|-------------------------------------------------|-------------------------------------------------|
G|-------------------------------------------------|-------------------------------------------------|
D|-------------------------------------------------|-------------------------------------------------|
A|-0--0--0--0--0--0--------------------------------|-------------0--0--0--0--0--0--0--0--0--0--0--0--|
E|-------------------1--1--1--1--1--1--1--3--3--3--|-3--3--3--3--------------------------------------|


E|-------------------------------------------------|-------------------------------------------------|
B|-------------------------------------------------|-------------------------------------------------|
G|-------------------------------------------------|-------------------------------------------------|
D|-------------------------------------------------|-------------------------------------------------|
A|-0--0--0--0--0--0--0--0--0--0--0--0--0--0--0--0--|-0--0--0--0--0--0--0--0--0--0--0--0--0--0--0--0--|
E|-------------------------------------------------|-------------------------------------------------|


E|-------------------------------------------------|-------------------------------------------------|
B|-------------------------------------------------|-------------------------------------------------|
G|-------------------------------------------------|-------------------------------------------------|
D|-------------------------------------------------|-------------------------------------------------|
A|-0--0--0--0--0--0--0--0--0--0--0--0--0--0--0--0--|-0--0--0--0--0--0--0--0--0--0--0--0--0--0--0--0--|
E|-------------------------------------------------|-------------------------------------------------|


E|-------------------------------------------------|-------------------------------------------------|
B|-------------------------------------------------|-------------------------------------------------|
G|-------------------------------------------------|-------------------------------------------------|
D|-------------------------------------------------|-------------------------------------------------|
A|-0--0--0--0--0--0--------------------------------|-------------0--0--0--0--0--0--0--0--0--0--0--0--|
E|-------------------1--1--1--1--1--1--1--3--3--3--|-3--3--3--3--------------------------------------|


E|--------------------|-------------|-------------|-------------|-------------|-------------|
B|--------------------|-------------|-------------|-------------|-------------|-------------|
G|--------------------|-------------|-------------|-------------|--------5----|-------------|
D|-------------7------|-7------7----|-------7-----|------3------|-5------5----|-------5-----|
A|-0--0--0--0--7------|-7------7----|-------7-----|------3------|-5------3----|-------5-----|
E|-------------5------|-5------5----|-------5-----|------1------|-3-----------|-------3-----|


E|------------------------------------------|-------------------------------------------------|
B|------------------------------------------|-------------------------------------------------|
G|------------------------------------------|-------------------------------------------------|
D|------7--7--7--7--7--7--7--7--7--7--7--7--|-7--7--7--7--7--7--7--7--7--7--7--7--7--7--7--7--|
A|------7--7--7--7--7--7--7--7--7--7--7--7--|-7--7--7--7--7--7--7--7--7--7--7--7--7--7--7--7--|
E|------5--5--5--5--5--5--5--5--5--5--5--5--|-5--5--5--5--5--5--5--5--5--5--5--5--5--5--5--5--|


E|-------------------------------------------------|--------------------|-------------|
B|-------------------------------------------------|--------------------|-------------|
G|-------------------------------------------------|--------------------|--------5----|
D|-7--7--7--7--7--7--7--7--7--7--7--7--7--7--7--7--|-7--7--7--7--3------|-5------5----|
A|-7--7--7--7--7--7--7--7--7--7--7--7--7--7--7--7--|-7--7--7--7--3------|-5------3----|
E|-5--5--5--5--5--5--5--5--5--5--5--5--5--5--5--5--|-5--5--5--5--1------|-3-----------|


E|-------------|-----------------------------------------------|-------------------------------------------------|
B|-------------|-----------------------------------------------|-------------------------------------------------|
G|-------------|-----------------------------------------------|-------------------------------------------------|
D|-------5-----|-5---------------------------------------------|-------------------------------------------------|
A|-------5-----|-5---0--0--0--0--0--0--0--0--0--0--0--0--0--0--|-0--0--0--0--0--0--0--0--0--0--0--0--0--0--0--0--|
E|-------3-----|-3---------------------------------------------|-------------------------------------------------|


E|-------------------------------------------------|-------------------------------------------------|
B|-------------------------------------------------|-------------------------------------------------|
G|-------------------------------------------------|-------------------------------------------------|
D|-------------------------------------------------|-------------------------------------------------|
A|-0--0--0--0--0--0--0--0--0--0--0--0--0--0--0--0--|-0--0--0--0--0--0--0--0--0--0--0--0--0--0--0--0--|
E|-------------------------------------------------|-------------------------------------------------|


E|-------------------------------------------------|-------------------------------------------------|
B|-------------------------------------------------|-------------------------------------------------|
G|-------------------------------------------------|-------------------------------------------------|
D|-------------------------------------------------|-------------------------------------------------|
A|-0--0--0--0--0--0--0--0--0--0--0--0--------------|-------------------------------0--0--0--0--0--0--|
E|-------------------------------------1--1--1--1--|-1--1--1--3--3--3--3--3--3--3--------------------|


E|-------------------------------|-------------|-------------|-------------|-------------|
B|-------------------------------|-------------|-------------|-------------|-------------|
G|-------------------------------|-------------|-------------|-------------|-------------|
D|-------------------------7-----|------7------|-7------7----|-------3-----|------5------|
A|-0--0--0--0--0--0--0--0--7-----|------7------|-7------7----|-------3-----|------5------|
E|-------------------------5-----|------5------|-5------5----|-------1-----|------3------|


E|-------------|-------------------------------|-------------------------------------------------|
B|-------------|-------------------------------|-------------------------------------------------|
G|-5-----------|-------------------------------|-------------------------------------------------|
D|-5------5----|-------7--7--7--7--7--7--7--7--|-7--7--7--7--7--7--7--7--7--7--7--7--7--7--7--7--|
A|-3------5----|-------7--7--7--7--7--7--7--7--|-7--7--7--7--7--7--7--7--7--7--7--7--7--7--7--7--|
E|--------3----|-------5--5--5--5--5--5--5--5--|-5--5--5--5--5--5--5--5--5--5--5--5--5--5--5--5--|


E|-------------------------------------------------|-------------------------------|
B|-------------------------------------------------|-------------------------------|
G|-------------------------------------------------|-------------------------------|
D|-7--7--7--7--7--7--7--7--7--7--7--7--7--7--7--7--|-7--7--7--7--7--7--7--7--3-----|
A|-7--7--7--7--7--7--7--7--7--7--7--7--7--7--7--7--|-7--7--7--7--7--7--7--7--3-----|
E|-5--5--5--5--5--5--5--5--5--5--5--5--5--5--5--5--|-5--5--5--5--5--5--5--5--1-----|


E|-------------|-------------|----------------------------------------|-------------------------------------------------|
B|-------------|-------------|----------------------------------------|-------------------------------------------------|
G|-------------|-5-----------|----------------------------------------|-------------------------------------------------|
D|------5------|-5------5----|------5---------------------------------|-------------------------------------------------|
A|------5------|-3------5----|------5---0--0--0--0--0--0--0--0--0--0--|-0--0--0--0--0--0--0--0--0--0--0--0--0--0--0--0--|
E|------3------|--------3----|------3---------------------------------|-------------------------------------------------|


E|-------------------------------------------------|-------------------------------------------------|
B|-------------------------------------------------|-------------------------------------------------|
G|-------------------------------------------------|-------------------------------------------------|
D|-------------------------------------------------|-------------------------------------------------|
A|-0--0--0--0--0--0--0--0--0--0--0--0--0--0--0--0--|-0--0--0--0--0--0--0--0--0--0--0--0--0--0--0--0--|
E|-------------------------------------------------|-------------------------------------------------|


E|-------------------------------------------------|-------------------------------------------------|
B|-------------------------------------------------|-------------------------------------------------|
G|-------------------------------------------------|-------------------------------------------------|
D|-------------------------------------------------|-------------------------------------------------|
A|-0--0--0--0--0--0--0--0--0--0--0--0--0--0--0--0--|-------------------------------------------0--0--|
E|-------------------------------------------------|-1--1--1--1--1--1--1--3--3--3--3--3--3--3--------|


E|------------------------------------------|-------------|-------------|-------------|
B|------------------------------------------|-------------|-------------|-------------|
G|------------------------------------------|-------------|------5------|-------------|
D|-------------------------------------3----|-------5-----|------5------|-5------3----|
A|-0--0--0--0--0--0--0--0--0--0--0--0--3----|-------5-----|------3------|-5------3----|
E|-------------------------------------1----|-------3-----|-------------|-3------1----|


E|-------------|-------------|-------------|-------------|-------------|----------------------|
B|-------------|-------------|-------------|-------------|-------------|----------------------|
G|-------------|-------------|--------7----|-------5-----|------3------|-2-----3----5----7----|
D|-------5-----|------3------|-5------7----|-------5-----|------3------|-2-----3----5----7----|
A|-------5-----|------3------|-5------5----|-------3-----|------1------|-0-----1----3----5----|
E|-------3-----|------1------|-3-----------|-------------|-------------|----------------------|


E|-------------|-------------|-----------------------------|-------------------------------------------------|
B|-------------|-------------|-----------------------------|-------------------------------------------------|
G|-------5-----|------3------|-2-----3----5----7--7--7--7--|-7--7--7--7--7--7--7--7--5--5--5--5--5--5--5--5--|
D|-------5-----|------3------|-2-----3----5----7--7--7--7--|-7--7--7--7--7--7--7--7--5--5--5--5--5--5--5--5--|
A|-------3-----|------1------|-0-----1----3----5--5--5--5--|-5--5--5--5--5--5--5--5--3--3--3--3--3--3--3--3--|
E|-------------|-------------|-----------------------------|-------------------------------------------------|


E|-------------------------------------------------|-----------------------------------------|
B|-------------------------------------------------|-----------------------------------------|
G|-5--5--5--5--3--3--3--3--3--3--3--3--3--3--3--3--|-2--2--2--2--2--2--3----5----7--7--7--7--|
D|-5--5--5--5--3--3--3--3--3--3--3--3--3--3--3--3--|-2--2--2--2--2--2--3----5----7--7--7--7--|
A|-3--3--3--3--1--1--1--1--1--1--1--1--1--1--1--1--|-0--0--0--0--0--0--1----3----5--5--5--5--|
E|-------------------------------------------------|-----------------------------------------|


E|-------------------------------------------------|-------------------------------------------------|
B|-------------------------------------------------|-------------------------------------------------|
G|-7--7--7--7--7--7--7--7--5--5--5--5--5--5--5--5--|-5--5--5--5--3--3--3--3--3--3--3--3--3--3--3--3--|
D|-7--7--7--7--7--7--7--7--5--5--5--5--5--5--5--5--|-5--5--5--5--3--3--3--3--3--3--3--3--3--3--3--3--|
A|-5--5--5--5--5--5--5--5--3--3--3--3--3--3--3--3--|-3--3--3--3--1--1--1--1--1--1--1--1--1--1--1--1--|
E|-------------------------------------------------|-------------------------------------------------|


E|-------------|-------------------------------|-------------------------------------------------|
B|-------------|-------------------------------|-------------------------------------------------|
G|-2------2----|-------7--7--7--7--7--7--7--7--|-7--7--7--7--7--7--7--7--7--7--7--7--7--7--7--7--|
D|-2------2----|-------7--7--7--7--7--7--7--7--|-7--7--7--7--7--7--7--7--7--7--7--7--7--7--7--7--|
A|-0------0----|-------5--5--5--5--5--5--5--5--|-5--5--5--5--5--5--5--5--5--5--5--5--5--5--5--5--|
E|-------------|-------------------------------|-------------------------------------------------|


E|-------------------------------------------------|-------------------------------------------------|
B|-------------------------------------------------|-------------------------------------------------|
G|-3--3--3--3--3--3--3--3--3--3--3--3--5--5--5--5--|-5--5--2--2--2--2--2--2--7--7--7--7--7--7--7--7--|
D|-3--3--3--3--3--3--3--3--3--3--3--3--5--5--5--5--|-5--5--2--2--2--2--2--2--7--7--7--7--7--7--7--7--|
A|-1--1--1--1--1--1--1--1--1--1--1--1--3--3--3--3--|-3--3--0--0--0--0--0--0--5--5--5--5--5--5--5--5--|
E|-------------------------------------------------|-------------------------------------------------|


E|-------------------------------------------------|-------------------------------------------------|
B|-------------------------------------------------|-------------------------------------------------|
G|-7--7--7--7--7--7--7--7--7--7--7--7--7--7--7--7--|-3--3--3--3--3--3--3--3--3--3--3--3--5--5--5--5--|
D|-7--7--7--7--7--7--7--7--7--7--7--7--7--7--7--7--|-3--3--3--3--3--3--3--3--3--3--3--3--5--5--5--5--|
A|-5--5--5--5--5--5--5--5--5--5--5--5--5--5--5--5--|-1--1--1--1--1--1--1--1--1--1--1--1--3--3--3--3--|
E|-------------------------------------------------|-------------------------------------------------|


E|-----------------------------------------------|------------------------------|-------------------------------------|
B|-----------------------------------------------|------------------------------|-------------------------------------|
G|-5--5--2--2--2--2--2--2--7--7--7--7--7--7--7---|------7--7--7--7--7--7--7-----|-3--3--3--3--3--3--3-----5--5--5--5--|
D|-5--5--2--2--2--2--2--2--7--7--7--7--7--7--7---|------7--7--7--7--7--7--7-----|-3--3--3--3--3--3--3-----5--5--5--5--|
A|-3--3--0--0--0--0--0--0--5--5--5--5--5--5--5---|------5--5--5--5--5--5--5-----|-1--1--1--1--1--1--1-----3--3--3--3--|
E|-----------------------------------------------|------------------------------|-------------------------------------|


E|-----------------------------------------------|------------------------------|-------------------------------------|
B|-----------------------------------------------|------------------------------|-------------------------------------|
G|-5--5--2--2--2--2--2--2--7--7--7--7--7--7--7---|------7--7--7--7--7--7--7-----|-3--3--3--3--3--3--3-----5--5--5--5--|
D|-5--5--2--2--2--2--2--2--7--7--7--7--7--7--7---|------7--7--7--7--7--7--7-----|-3--3--3--3--3--3--3-----5--5--5--5--|
A|-3--3--0--0--0--0--0--0--5--5--5--5--5--5--5---|------5--5--5--5--5--5--5-----|-1--1--1--1--1--1--1-----3--3--3--3--|
E|-----------------------------------------------|------------------------------|-------------------------------------|


E|-------------------------------|-------------|---------------------------------------------|
B|-------------------------------|-------------|---------------------------------------------|
G|-5--5--2--2--2--2--2--2--3-----|------5------|-7--7--7--7--7--7--7---7---7--7--7--7--7--7--|
D|-5--5--2--2--2--2--2--2--3-----|------5------|-7--7--7--7--7--7--7---7---7--7--7--7--7--7--|
A|-3--3--0--0--0--0--0--0--1-----|------3------|-5--5--5--5--5--5--5---5---5--5--5--5--5--5--|
E|-------------------------------|-------------|---------------------------------------------|


E|---------------------------|-------------|-------------|-------------|-------------|
B|---------------------------|-------------|-------------|-------------|-------------|
G|-7--7--7---7---7--7--3-----|------5------|-2------2----|-------7-----|------3------|
D|-7--7--7---7---7--7--3-----|------5------|-2------2----|-------7-----|------3------|
A|-5--5--5---5---5--5--1-----|------3------|-0------0----|-------5-----|------1------|
E|---------------------------|-------------|-------------|-------------|-------------|


E|-------------|---------------------|-------------|-------------|---------------------|
B|-------------|---------------------|-------------|-------------|---------------------|
G|-5------2----|-----3----5----7-----|------3------|-5------2----|-----3----5----7-----|
D|-5------2----|-----3----5----7-----|------3------|-5------2----|-----3----5----7-----|
A|-3------0----|-----1----3----5-----|------1------|-3------0----|-----1----3----5-----|
E|-------------|---------------------|-------------|-------------|---------------------|


E|-------------|-------------|---------------------|-------------|-------------|---------------------------------------|
B|-------------|-------------|---------------------|-------------|-------------|---------------------------------------|
G|------5------|-3------2----|-----3----5----7-----|------5------|-3------2----|-----3----5----7--7--7--7--7--7--7--7--|
D|------5------|-3------2----|-----3----5----7-----|------5------|-3------2----|-----3----5----7--7--7--7--7--7--7--7--|
A|------3------|-1------0----|-----1----3----5-----|------3------|-1------0----|-----1----3----5--5--5--5--5--5--5--5--|
E|-------------|-------------|---------------------|-------------|-------------|---------------------------------------|


E|-------------------------------------------------|-------------------------------------------------|
B|-------------------------------------------------|-------------------------------------------------|
G|-7--7--7--7--5--5--5--5--5--5--5--5--5--5--5--5--|-3--3--3--3--3--3--3--3--3--3--3--3--2--2--2--2--|
D|-7--7--7--7--5--5--5--5--5--5--5--5--5--5--5--5--|-3--3--3--3--3--3--3--3--3--3--3--3--2--2--2--2--|
A|-5--5--5--5--3--3--3--3--3--3--3--3--3--3--3--3--|-1--1--1--1--1--1--1--1--1--1--1--1--0--0--0--0--|
E|-------------------------------------------------|-------------------------------------------------|


E|-----------------------------------------|-------------------------------------------------|
B|-----------------------------------------|-------------------------------------------------|
G|-2--2--3----5----7--7--7--7--7--7--7--7--|-7--7--7--7--5--5--5--5--5--5--5--5--5--5--5--5--|
D|-2--2--3----5----7--7--7--7--7--7--7--7--|-7--7--7--7--5--5--5--5--5--5--5--5--5--5--5--5--|
A|-0--0--1----3----5--5--5--5--5--5--5--5--|-5--5--5--5--3--3--3--3--3--3--3--3--3--3--3--3--|
E|-----------------------------------------|-------------------------------------------------|


E|------------------------------------------|-------------|-----------------------------------------------|
B|------------------------------------------|-------------|-----------------------------------------------|
G|-3--3--3--3--3--3--3--3--3--3--3--3--2----|-------2-----|-2---------------------------------------------|
D|-3--3--3--3--3--3--3--3--3--3--3--3--2----|-------2-----|-2---------------------------------------------|
A|-1--1--1--1--1--1--1--1--1--1--1--1--0----|-------0-----|-0---5--5--5--5--5--5--5--5--5--5--5--5--5--5--|
E|------------------------------------------|-------------|-----------------------------------------------|


E|-------------------------------------------------|-------------------------------------------------|
B|-------------------------------------------------|-------------------------------------------------|
G|-------------------------------------------------|-------------------------------------------------|
D|-------------------------------------------------|-------------------------------------------------|
A|-5--5--5--5--5--5--5--5--5--5--5--5--5--5--5--5--|-5--5--5--5--5--5--5--5--5--5--5--5--5--5--5--5--|
E|-------------------------------------------------|-------------------------------------------------|


E|-------------------------------------------------|-------------------------------------------------|
B|-------------------------------------------------|-------------------------------------------------|
G|-------------------------------------------------|-------------------------------------------------|
D|-------------------------------------------------|-------------------------------------------------|
A|-5--5--5--5--5--5--5--5--5--5--5--5--5--5--5--5--|-5--5--5--5--5--5--5--5--5--5--5--5--5--5--1--1--|
E|-------------------------------------------------|-------------------------------------------------|


E|-------------------------------------------------|--------------------|----------------------|
B|-------------------------------------------------|--------------------|----------------------|
G|-------------------------------------------------|-------------3------|-5---------------7----|
D|-------------------------------------------------|-------------3------|-5-----3----2----7----|
A|-1--1--1--1--3--3--3--3--3--3--5--5--5--5--5--5--|-5--5--5--5--1------|-3---------------5----|
E|-------------------------------------------------|--------------------|----------------------|


E|-------------|-------------|-------------|--------|--------|--------|--------|--------|
B|-------------|-------------|-------------|--------|--------|--------|--------|--------|
G|-------7-----|------7------|-7-----------|--------|--------|--------|--------|--------|
D|-------7-----|------7------|-7-----------|--------|--------|--------|--------|--------|
A|-------5-----|------5------|-5-----------|--------|--------|--------|--------|--------|
E|-------------|-------------|-------------|--------|--------|--------|--------|--------|


E|--------|--------|--------|--------|--------|--------|--------|--------|--------|
B|--------|--------|--------|--------|--------|--------|--------|--------|--------|
G|--------|--------|--------|--------|--------|--------|--------|--------|--------|
D|--------|--------|--------|--------|--------|--------|--------|--------|--------|
A|--------|--------|--------|--------|--------|--------|--------|--------|--------|
E|--------|--------|--------|--------|--------|--------|--------|--------|--------|


E|--------|--------|--------|--------|--------|--------|--------|--------|--------|
B|--------|--------|--------|--------|--------|--------|--------|--------|--------|
G|--------|--------|--------|--------|--------|--------|--------|--------|--------|
D|--------|--------|--------|--------|--------|--------|--------|--------|--------|
A|--------|--------|--------|--------|--------|--------|--------|--------|--------|
E|--------|--------|--------|--------|--------|--------|--------|--------|--------|


E|--------|--------|--------|--------|--------|--------|--------|--------|--------|
B|--------|--------|--------|--------|--------|--------|--------|--------|--------|
G|--------|--------|--------|--------|--------|--------|--------|--------|--------|
D|--------|--------|--------|--------|--------|--------|--------|--------|--------|
A|--------|--------|--------|--------|--------|--------|--------|--------|--------|
E|--------|--------|--------|--------|--------|--------|--------|--------|--------|


E|--------|--------|--------|--------|--------|--------|--------|--------|--------|
B|--------|--------|--------|--------|--------|--------|--------|--------|--------|
G|--------|--------|--------|--------|--------|--------|--------|--------|--------|
D|--------|--------|--------|--------|--------|--------|--------|--------|--------|
A|--------|--------|--------|--------|--------|--------|--------|--------|--------|
E|--------|--------|--------|--------|--------|--------|--------|--------|--------|


E|--------|--------|--------|--------|--------|--------|--------|--------|--------|
B|--------|--------|--------|--------|--------|--------|--------|--------|--------|
G|--------|--------|--------|--------|--------|--------|--------|--------|--------|
D|--------|--------|--------|--------|--------|--------|--------|--------|--------|
A|--------|--------|--------|--------|--------|--------|--------|--------|--------|
E|--------|--------|--------|--------|--------|--------|--------|--------|--------|


E|--------|--------|--------|--------|--------|--------|--------|--------|--------|
B|--------|--------|--------|--------|--------|--------|--------|--------|--------|
G|--------|--------|--------|--------|--------|--------|--------|--------|--------|
D|--------|--------|--------|--------|--------|--------|--------|--------|--------|
A|--------|--------|--------|--------|--------|--------|--------|--------|--------|
E|--------|--------|--------|--------|--------|--------|--------|--------|--------|


E|--------|--------|--------|--------|--------|--------|--------|--------|----------------|
B|--------|--------|--------|--------|--------|--------|--------|--------|----------------|
G|--------|--------|--------|--------|--------|--------|--------|--------|--------7---7---|
D|--------|--------|--------|--------|--------|--------|--------|--------|--------7---7---|
A|--------|--------|--------|--------|--------|--------|--------|--------|--------5---5---|
E|--------|--------|--------|--------|--------|--------|--------|--------|----------------|


E|-----------------------|-----------------------|-----------------------|------------------------|
B|-----------------------|-----------------------|-----------------------|------------------------|
G|-7---7---7-----5---5---|-5---5---5-----3---3---|-3---3---3-----2---2---|-2----3----5----7---7---|
D|-7---7---7-----5---5---|-5---5---5-----3---3---|-3---3---3-----2---2---|-2----3----5----7---7---|
A|-5---5---5-----3---3---|-3---3---3-----1---1---|-1---1---1-----0---0---|-0----1----3----5---5---|
E|-----------------------|-----------------------|-----------------------|------------------------|


E|-----------------------|-----------------------|-----------------------|------------------------|
B|-----------------------|-----------------------|-----------------------|------------------------|
G|-7---7---7-----5---5---|-5---5---5-----3---3---|-3---3---3-----2---2---|-2----3----5----7---7---|
D|-7---7---7-----5---5---|-5---5---5-----3---3---|-3---3---3-----2---2---|-2----3----5----7---7---|
A|-5---5---5-----3---3---|-3---3---3-----1---1---|-1---1---1-----0---0---|-0----1----3----5---5---|
E|-----------------------|-----------------------|-----------------------|------------------------|


E|-----------------------|-----------------------|-----------------------|------------------------|
B|-----------------------|-----------------------|-----------------------|------------------------|
G|-7---7---7-----5---5---|-5---5---5-----3---3---|-3---3---3-----2---2---|-2----3----5----7---7---|
D|-7---7---7-----5---5---|-5---5---5-----3---3---|-3---3---3-----2---2---|-2----3----5----7---7---|
A|-5---5---5-----3---3---|-3---3---3-----1---1---|-1---1---1-----0---0---|-0----1----3----5---5---|
E|-----------------------|-----------------------|-----------------------|------------------------|


E|-----------------------|-----------------------|--------------------|-------------|
B|-----------------------|-----------------------|--------------------|-------------|
G|-7---7---7-----5---5---|-5---5---5-----3---3---|-3---3---3-----2----|-------2-----|
D|-7---7---7-----5---5---|-5---5---5-----3---3---|-3---3---3-----2----|-------2-----|
A|-5---5---5-----3---3---|-3---3---3-----1---1---|-1---1---1-----0----|-------0-----|
E|-----------------------|-----------------------|--------------------|-------------|


E|-------------|-------------|-----------------|-------------|-------------|-------------|
B|-------------|-------------|-----------------|-------------|-------------|-------------|
G|------2------|-2------7----|------5-----3----|--------2----|--------7----|--------7----|
D|------2------|-2------7----|------5-----3----|--------2----|--------7----|--------7----|
A|------0------|-0------5----|------3-----1----|--------0----|--------5----|--------5----|
E|-------------|-------------|-----------------|-------------|-------------|-------------|





Track 2: Lead Guitar

E|-------------|--------|--------|--------|--------|--------|--------|--------|--------|
B|-------------|--------|--------|--------|--------|--------|--------|--------|--------|
G|-------------|--------|--------|--------|--------|--------|--------|--------|--------|
D|-------------|--------|--------|--------|--------|--------|--------|--------|--------|
A|-------------|--------|--------|--------|--------|--------|--------|--------|--------|
E|-------------|--------|--------|--------|--------|--------|--------|--------|--------|


E|--------|--------|--------|--------|--------|--------|--------|--------|--------|
B|--------|--------|--------|--------|--------|--------|--------|--------|--------|
G|--------|--------|--------|--------|--------|--------|--------|--------|--------|
D|--------|--------|--------|--------|--------|--------|--------|--------|--------|
A|--------|--------|--------|--------|--------|--------|--------|--------|--------|
E|--------|--------|--------|--------|--------|--------|--------|--------|--------|


E|--------|--------|--------|--------|--------|--------|--------|--------|--------|
B|--------|--------|--------|--------|--------|--------|--------|--------|--------|
G|--------|--------|--------|--------|--------|--------|--------|--------|--------|
D|--------|--------|--------|--------|--------|--------|--------|--------|--------|
A|--------|--------|--------|--------|--------|--------|--------|--------|--------|
E|--------|--------|--------|--------|--------|--------|--------|--------|--------|


E|--------|--------|--------|--------|--------|--------|--------|--------|--------|
B|--------|--------|--------|--------|--------|--------|--------|--------|--------|
G|--------|--------|--------|--------|--------|--------|--------|--------|--------|
D|--------|--------|--------|--------|--------|--------|--------|--------|--------|
A|--------|--------|--------|--------|--------|--------|--------|--------|--------|
E|--------|--------|--------|--------|--------|--------|--------|--------|--------|


E|--------|--------|--------|--------|--------|--------|--------|--------|--------|
B|--------|--------|--------|--------|--------|--------|--------|--------|--------|
G|--------|--------|--------|--------|--------|--------|--------|--------|--------|
D|--------|--------|--------|--------|--------|--------|--------|--------|--------|
A|--------|--------|--------|--------|--------|--------|--------|--------|--------|
E|--------|--------|--------|--------|--------|--------|--------|--------|--------|


E|--------|--------|--------|--------|--------|--------|--------|--------|--------|
B|--------|--------|--------|--------|--------|--------|--------|--------|--------|
G|--------|--------|--------|--------|--------|--------|--------|--------|--------|
D|--------|--------|--------|--------|--------|--------|--------|--------|--------|
A|--------|--------|--------|--------|--------|--------|--------|--------|--------|
E|--------|--------|--------|--------|--------|--------|--------|--------|--------|


E|--------|--------|--------|--------|--------|--------|--------|--------|--------|
B|--------|--------|--------|--------|--------|--------|--------|--------|--------|
G|--------|--------|--------|--------|--------|--------|--------|--------|--------|
D|--------|--------|--------|--------|--------|--------|--------|--------|--------|
A|--------|--------|--------|--------|--------|--------|--------|--------|--------|
E|--------|--------|--------|--------|--------|--------|--------|--------|--------|


E|--------|--------|--------|--------|--------|--------|--------|--------|--------|
B|--------|--------|--------|--------|--------|--------|--------|--------|--------|
G|--------|--------|--------|--------|--------|--------|--------|--------|--------|
D|--------|--------|--------|--------|--------|--------|--------|--------|--------|
A|--------|--------|--------|--------|--------|--------|--------|--------|--------|
E|--------|--------|--------|--------|--------|--------|--------|--------|--------|


E|--------|--------|--------|--------|--------|--------|--------|--------|--------|
B|--------|--------|--------|--------|--------|--------|--------|--------|--------|
G|--------|--------|--------|--------|--------|--------|--------|--------|--------|
D|--------|--------|--------|--------|--------|--------|--------|--------|--------|
A|--------|--------|--------|--------|--------|--------|--------|--------|--------|
E|--------|--------|--------|--------|--------|--------|--------|--------|--------|


E|--------|--------|--------|--------|--------|--------|--------|--------|--------|
B|--------|--------|--------|--------|--------|--------|--------|--------|--------|
G|--------|--------|--------|--------|--------|--------|--------|--------|--------|
D|--------|--------|--------|--------|--------|--------|--------|--------|--------|
A|--------|--------|--------|--------|--------|--------|--------|--------|--------|
E|--------|--------|--------|--------|--------|--------|--------|--------|--------|


E|--------|--------|--------|--------|--------|--------|--------|--------|--------|
B|--------|--------|--------|--------|--------|--------|--------|--------|--------|
G|--------|--------|--------|--------|--------|--------|--------|--------|--------|
D|--------|--------|--------|--------|--------|--------|--------|--------|--------|
A|--------|--------|--------|--------|--------|--------|--------|--------|--------|
E|--------|--------|--------|--------|--------|--------|--------|--------|--------|


E|--------|--------|--------|--------|--------|--------|--------|--------|--------|
B|--------|--------|--------|--------|--------|--------|--------|--------|--------|
G|--------|--------|--------|--------|--------|--------|--------|--------|--------|
D|--------|--------|--------|--------|--------|--------|--------|--------|--------|
A|--------|--------|--------|--------|--------|--------|--------|--------|--------|
E|--------|--------|--------|--------|--------|--------|--------|--------|--------|


E|--------|--------|--------|--------|--------|--------|--------|--------|--------|
B|--------|--------|--------|--------|--------|--------|--------|--------|--------|
G|--------|--------|--------|--------|--------|--------|--------|--------|--------|
D|--------|--------|--------|--------|--------|--------|--------|--------|--------|
A|--------|--------|--------|--------|--------|--------|--------|--------|--------|
E|--------|--------|--------|--------|--------|--------|--------|--------|--------|


E|--------|--------|--------|--------|--------|--------|--------|--------|--------|
B|--------|--------|--------|--------|--------|--------|--------|--------|--------|
G|--------|--------|--------|--------|--------|--------|--------|--------|--------|
D|--------|--------|--------|--------|--------|--------|--------|--------|--------|
A|--------|--------|--------|--------|--------|--------|--------|--------|--------|
E|--------|--------|--------|--------|--------|--------|--------|--------|--------|


E|--------|--------|--------|--------|--------|--------|--------|--------|--------|
B|--------|--------|--------|--------|--------|--------|--------|--------|--------|
G|--------|--------|--------|--------|--------|--------|--------|--------|--------|
D|--------|--------|--------|--------|--------|--------|--------|--------|--------|
A|--------|--------|--------|--------|--------|--------|--------|--------|--------|
E|--------|--------|--------|--------|--------|--------|--------|--------|--------|


E|--------|--------|--------|--------|--------|--------|--------|--------|--------|
B|--------|--------|--------|--------|--------|--------|--------|--------|--------|
G|--------|--------|--------|--------|--------|--------|--------|--------|--------|
D|--------|--------|--------|--------|--------|--------|--------|--------|--------|
A|--------|--------|--------|--------|--------|--------|--------|--------|--------|
E|--------|--------|--------|--------|--------|--------|--------|--------|--------|


E|--------|--------|--------|--------|--------|--------|--------|--------|--------|
B|--------|--------|--------|--------|--------|--------|--------|--------|--------|
G|--------|--------|--------|--------|--------|--------|--------|--------|--------|
D|--------|--------|--------|--------|--------|--------|--------|--------|--------|
A|--------|--------|--------|--------|--------|--------|--------|--------|--------|
E|--------|--------|--------|--------|--------|--------|--------|--------|--------|


E|--------|--------|--------|--------|--------|--------|--------|--------|--------|
B|--------|--------|--------|--------|--------|--------|--------|--------|--------|
G|--------|--------|--------|--------|--------|--------|--------|--------|--------|
D|--------|--------|--------|--------|--------|--------|--------|--------|--------|
A|--------|--------|--------|--------|--------|--------|--------|--------|--------|
E|--------|--------|--------|--------|--------|--------|--------|--------|--------|


E|--------|--------|--------|--------|--------|--------|--------|--------|--------|
B|--------|--------|--------|--------|--------|--------|--------|--------|--------|
G|--------|--------|--------|--------|--------|--------|--------|--------|--------|
D|--------|--------|--------|--------|--------|--------|--------|--------|--------|
A|--------|--------|--------|--------|--------|--------|--------|--------|--------|
E|--------|--------|--------|--------|--------|--------|--------|--------|--------|


E|--------|--------|--------|--------|--------|--------|--------|--------|--------|
B|--------|--------|--------|--------|--------|--------|--------|--------|--------|
G|--------|--------|--------|--------|--------|--------|--------|--------|--------|
D|--------|--------|--------|--------|--------|--------|--------|--------|--------|
A|--------|--------|--------|--------|--------|--------|--------|--------|--------|
E|--------|--------|--------|--------|--------|--------|--------|--------|--------|


E|--------|--------|--------|--------|--------|--------|--------|--------|--------|
B|--------|--------|--------|--------|--------|--------|--------|--------|--------|
G|--------|--------|--------|--------|--------|--------|--------|--------|--------|
D|--------|--------|--------|--------|--------|--------|--------|--------|--------|
A|--------|--------|--------|--------|--------|--------|--------|--------|--------|
E|--------|--------|--------|--------|--------|--------|--------|--------|--------|


E|--------|--------|--------|--------|--------|--------|--------|--------|--------|
B|--------|--------|--------|--------|--------|--------|--------|--------|--------|
G|--------|--------|--------|--------|--------|--------|--------|--------|--------|
D|--------|--------|--------|--------|--------|--------|--------|--------|--------|
A|--------|--------|--------|--------|--------|--------|--------|--------|--------|
E|--------|--------|--------|--------|--------|--------|--------|--------|--------|


E|--------|--------|--------|--------|--------|--------|--------|--------|--------|
B|--------|--------|--------|--------|--------|--------|--------|--------|--------|
G|--------|--------|--------|--------|--------|--------|--------|--------|--------|
D|--------|--------|--------|--------|--------|--------|--------|--------|--------|
A|--------|--------|--------|--------|--------|--------|--------|--------|--------|
E|--------|--------|--------|--------|--------|--------|--------|--------|--------|





Track 3: Solo guitar

E|-------------|-------------------|--------------------------------|--------------------------------|
B|-------------|-------------------|--------------------------------|--------------------------------|
G|-------------|-------------------|-9---7-------7----------9---7---|-----7----------9---7-----------|
D|-------------|-------------7--10-|---------10-------7--10---------|-10-------7--10---------10--9---|
A|-------------|-------------------|--------------------------------|--------------------------------|
E|-------------|-------------------|--------------------------------|--------------------------------|


E|--------------------------|--------------------------------|--------------------------------|
B|--------------------------|--------------------------------|--------------------------------|
G|-----7---9----9-----------|-9---7-------7----------9---7---|-----7--------------7-----------|
D|-10-----------------7--10-|---------10-------7--10---------|-10-------7--9--10------10--9---|
A|--------------------------|--------------------------------|--------------------------------|
E|--------------------------|--------------------------------|--------------------------------|


E|--------------------------|--------------------------------|--------------------------------|
B|--------------------------|--------------------------------|--------------------------------|
G|--------------------------|-9---7-------7----------9---7---|-----7----------9---7-----------|
D|-10--9---7----------7--10-|---------10-------7--10---------|-10-------7--10---------10--9---|
A|--------------------------|--------------------------------|--------------------------------|
E|--------------------------|--------------------------------|--------------------------------|


E|--------------------------|--------------------------------|--------------------------------|
B|--------------------------|--------------------------------|--------------------------------|
G|-----7---9----9-----------|-9---7-------7----------9---7---|-----7--------------7-----------|
D|-10-----------------7--10-|---------10-------7--10---------|-10-------7--9--10------10--9---|
A|--------------------------|--------------------------------|--------------------------------|
E|--------------------------|--------------------------------|--------------------------------|


E|--------------------|-------------|-------------|-------------|-------------|-------------|
B|--------------------|-------------|-------------|-------------|-------------|-------------|
G|--------------------|-------------|-------------|-------------|-------------|--------5----|
D|-10--9---7----7-----|------7------|-7------7----|-------7-----|------3------|-5------5----|
A|--------------------|------7------|-7------7----|-------7-----|------3------|-5------3----|
E|--------------------|------5------|-5------5----|-------5-----|------1------|-3-----------|


E|-------------|------------------------------------------|-------------------------------------------------|
B|-------------|------------------------------------------|-------------------------------------------------|
G|-------------|------------------------------------------|-------------------------------------------------|
D|-------5-----|------7--7--7--7--7--7--7--7--7--7--7--7--|-7--7--7--7--7--7--7--7--7--7--7--7--7--7--7--7--|
A|-------5-----|------7--7--7--7--7--7--7--7--7--7--7--7--|-7--7--7--7--7--7--7--7--7--7--7--7--7--7--7--7--|
E|-------3-----|------5--5--5--5--5--5--5--5--5--5--5--5--|-5--5--5--5--5--5--5--5--5--5--5--5--5--5--5--5--|


E|-------------------------------------------------|--------------------|-------------|
B|-------------------------------------------------|--------------------|-------------|
G|-------------------------------------------------|--------------------|--------5----|
D|-7--7--7--7--7--7--7--7--7--7--7--7--7--7--7--7--|-7--7--7--7--3------|-5------5----|
A|-7--7--7--7--7--7--7--7--7--7--7--7--7--7--7--7--|-7--7--7--7--3------|-5------3----|
E|-5--5--5--5--5--5--5--5--5--5--5--5--5--5--5--5--|-5--5--5--5--1------|-3-----------|


E|-------------|-----------------------------|----------------------------------|------------------------------|
B|-------------|-----------------------------|----------------------------------|------------------------------|
G|-------------|------------9---7-------7----|-------9---7-------7----------9---|-7---------------7---9----9---|
D|-------5-----|------7--10---------10-------|-7--10---------10-------7--10-----|-----10--9---10---------------|
A|-------5-----|-----------------------------|----------------------------------|------------------------------|
E|-------3-----|-----------------------------|----------------------------------|------------------------------|


E|-----------------------------|----------------------------------|---------------------------|
B|-----------------------------|----------------------------------|---------------------------|
G|------------9---7-------7----|-------9---7-------7--------------|-7-------------------------|
D|------7--10---------10-------|-7--10---------10-------7--9--10--|-----10--9---10--9---7-----|
A|-----------------------------|----------------------------------|---------------------------|
E|-----------------------------|----------------------------------|---------------------------|


E|-------------|-------------|-------------|-------------|-------------|-------------|
B|-------------|-------------|-------------|-------------|-------------|-------------|
G|-------------|-------------|-------------|-------------|-------------|-5-----------|
D|-------7-----|------7------|-7------7----|-------3-----|------5------|-5------5----|
A|-------7-----|------7------|-7------7----|-------3-----|------5------|-3------5----|
E|-------5-----|------5------|-5------5----|-------1-----|------3------|--------3----|


E|-------------------------------|-------------------------------------------------|
B|-------------------------------|-------------------------------------------------|
G|-------------------------------|-------------------------------------------------|
D|-------7--7--7--7--7--7--7--7--|-7--7--7--7--7--7--7--7--7--7--7--7--7--7--7--7--|
A|-------7--7--7--7--7--7--7--7--|-7--7--7--7--7--7--7--7--7--7--7--7--7--7--7--7--|
E|-------5--5--5--5--5--5--5--5--|-5--5--5--5--5--5--5--5--5--5--5--5--5--5--5--5--|


E|-------------------------------------------------|-------------------------------|
B|-------------------------------------------------|-------------------------------|
G|-------------------------------------------------|-------------------------------|
D|-7--7--7--7--7--7--7--7--7--7--7--7--7--7--7--7--|-7--7--7--7--7--7--7--7--3-----|
A|-7--7--7--7--7--7--7--7--7--7--7--7--7--7--7--7--|-7--7--7--7--7--7--7--7--3-----|
E|-5--5--5--5--5--5--5--5--5--5--5--5--5--5--5--5--|-5--5--5--5--5--5--5--5--1-----|


E|-------------|-------------|-------------------------|-----------------------------|
B|-------------|-------------|-------------------------|-----------------------------|
G|-------------|-5-----------|-------------9---7-------|-7----------9---7-------7----|
D|------5------|-5------5----|-------7--10---------10--|------7--10---------10-------|
A|------5------|-3------5----|-------------------------|-----------------------------|
E|------3------|--------3----|-------------------------|-----------------------------|


E|-----------------------------------|-----------------------------|-----------------------------|
B|-----------------------------------|-----------------------------|-----------------------------|
G|-------9---7---------------7---9---|-----9-----------9---7-------|-7----------9---7-------7----|
D|-7--10---------10--9---10----------|-----------7--10---------10--|------7--10---------10-------|
A|-----------------------------------|-----------------------------|-----------------------------|
E|-----------------------------------|-----------------------------|-----------------------------|


E|-----------------------------------|-------------|-------------|-------------|-------------|
B|-----------------------------------|-------------|-------------|-------------|-------------|
G|-----------7-----------------------|-------------|-------------|------5------|-------------|
D|-7--9--10------10--9---10--9---7---|--------3----|-------5-----|------5------|-5------3----|
A|-----------------------------------|--------3----|-------5-----|------3------|-5------3----|
E|-----------------------------------|--------1----|-------3-----|-------------|-3------1----|


E|-------------|-------------|-------------|-------------|-------------|----------------------|
B|-------------|-------------|-------------|-------------|-------------|----------------------|
G|-------------|-------------|--------7----|-------5-----|------3------|-2-----3----5----7----|
D|-------5-----|------3------|-5------7----|-------5-----|------3------|-2-----3----5----7----|
A|-------5-----|------3------|-5------5----|-------3-----|------1------|-0-----1----3----5----|
E|-------3-----|------1------|-3-----------|-------------|-------------|----------------------|


E|-------------|-------------|-----------------------------|-------------------------------------------------|
B|-------------|-------------|-----------------------------|-------------------------------------------------|
G|-------5-----|------3------|-2-----3----5----7--7--7--7--|-7--7--7--7--7--7--7--7--5--5--5--5--5--5--5--5--|
D|-------5-----|------3------|-2-----3----5----7--7--7--7--|-7--7--7--7--7--7--7--7--5--5--5--5--5--5--5--5--|
A|-------3-----|------1------|-0-----1----3----5--5--5--5--|-5--5--5--5--5--5--5--5--3--3--3--3--3--3--3--3--|
E|-------------|-------------|-----------------------------|-------------------------------------------------|


E|-------------------------------------------------|-----------------------------------------|
B|-------------------------------------------------|-----------------------------------------|
G|-5--5--5--5--3--3--3--3--3--3--3--3--3--3--3--3--|-2--2--2--2--2--2--3----5----7--7--7--7--|
D|-5--5--5--5--3--3--3--3--3--3--3--3--3--3--3--3--|-2--2--2--2--2--2--3----5----7--7--7--7--|
A|-3--3--3--3--1--1--1--1--1--1--1--1--1--1--1--1--|-0--0--0--0--0--0--1----3----5--5--5--5--|
E|-------------------------------------------------|-----------------------------------------|


E|-------------------------------------------------|-------------------------------------------------|
B|-------------------------------------------------|-------------------------------------------------|
G|-7--7--7--7--7--7--7--7--5--5--5--5--5--5--5--5--|-5--5--5--5--3--3--3--3--3--3--3--3--3--3--3--3--|
D|-7--7--7--7--7--7--7--7--5--5--5--5--5--5--5--5--|-5--5--5--5--3--3--3--3--3--3--3--3--3--3--3--3--|
A|-5--5--5--5--5--5--5--5--3--3--3--3--3--3--3--3--|-3--3--3--3--1--1--1--1--1--1--1--1--1--1--1--1--|
E|-------------------------------------------------|-------------------------------------------------|


E|-------------|---------------------------|-----------------------------------------|
B|-------------|---------------------------|------------------------------------8----|
G|-2------2----|-------7----9--7--9--10-9--|-7--9--7-----7----9--7--9--10-9--10------|
D|-2------2----|---------------------------|----------10-----------------------------|
A|-0------0----|---------------------------|-----------------------------------------|
E|-------------|---------------------------|-----------------------------------------|


E|---------------------------------------------|---------------------------------------------|
B|-10---11-10-8--10-8-----8--------------8-----|-------------8-----8--10---------------------|
G|---------------------10----10-9--10-9-----10-|-9--7--10-9-----10-------7----9--7--9--10-9--|
D|---------------------------------------------|---------------------------------------------|
A|---------------------------------------------|---------------------------------------------|
E|---------------------------------------------|---------------------------------------------|


E|-----------------------------------------|---------------------------------------------|
B|------------------------------------8----|-10---11-10-8--10-8-----8--------------8-----|
G|-7--9--7-----7----9--7--9--10-9--10------|---------------------10----10-9--10-9-----10-|
D|----------10-----------------------------|---------------------------------------------|
A|-----------------------------------------|---------------------------------------------|
E|-----------------------------------------|---------------------------------------------|


E|-------------------------------|------------------------|-------------|-----------------------------|
B|-------------8-----8--10-------|---------------8-----8--|-8------8----|-------------------------8---|
G|-9--7--10-9-----10-------7-----|------7-----10----10----|-------------|-------7-----7--10-9--10-----|
D|-------------------------------|------------------------|-------------|----------10-----------------|
A|-------------------------------|------------------------|-------------|-----------------------------|
E|-------------------------------|------------------------|-------------|-----------------------------|


E|-----------------8---------------8--|----8----8--8----8--8----------|------------------------|
B|----8-----8--8-------6---6----10----|-10--------------------10-8----|----8--6--8----8--------|
G|-------10---------------------------|-------------------------------|------------------10----|
D|------------------------------------|-------------------------------|------------------------|
A|------------------------------------|-------------------------------|------------------------|
E|------------------------------------|-------------------------------|------------------------|


E|-------------------------|--------------------|-----------------------------|-----------------------|
B|-------------------------|--------10-8--------|-----------------------------|---------8-----10--11--|
G|-9---10--9-----7---------|-7------------10-9--|-7-----9--10--9--7-----------|-9---10----------------|
D|--------------------10---|--------------------|----10--------------10-8-----|-----------------------|
A|-------------------------|--------------------|-----------------------------|-----------------------|
E|-------------------------|--------------------|-----------------------------|-----------------------|


E|-------------|-------------|-------------|-------------|-------------|-------------|
B|-10-----10---|-10----------|-------------|-------------|-------------|-------------|
G|-------------|-------7-----|------3------|-5------2----|-------7-----|------3------|
D|-------------|-------7-----|------3------|-5------2----|-------7-----|------3------|
A|-------------|-------5-----|------1------|-3------0----|-------5-----|------1------|
E|-------------|-------------|-------------|-------------|-------------|-------------|


E|-------------|-------------|-------------|-------------|---------------------|-------------|
B|-------------|-------------|-------------|-------------|---------------------|-------------|
G|-5------2----|-------7-----|------5------|-3------2----|-----3----5----7-----|------5------|
D|-5------2----|-------7-----|------5------|-3------2----|-----3----5----7-----|------5------|
A|-3------0----|-------5-----|------3------|-1------0----|-----1----3----5-----|------3------|
E|-------------|-------------|-------------|-------------|---------------------|-------------|


E|-------------|---------------------------------------|-------------------------------------------------|
B|-------------|---------------------------------------|-------------------------------------------------|
G|-3------2----|-----3----5----7--7--7--7--7--7--7--7--|-7--7--7--7--5--5--5--5--5--5--5--5--5--5--5--5--|
D|-3------2----|-----3----5----7--7--7--7--7--7--7--7--|-7--7--7--7--5--5--5--5--5--5--5--5--5--5--5--5--|
A|-1------0----|-----1----3----5--5--5--5--5--5--5--5--|-5--5--5--5--3--3--3--3--3--3--3--3--3--3--3--3--|
E|-------------|---------------------------------------|-------------------------------------------------|


E|-------------------------------------------------|-----------------------------------------|
B|-------------------------------------------------|-----------------------------------------|
G|-3--3--3--3--3--3--3--3--3--3--3--3--2--2--2--2--|-2--2--3----5----7--7--7--7--7--7--7--7--|
D|-3--3--3--3--3--3--3--3--3--3--3--3--2--2--2--2--|-2--2--3----5----7--7--7--7--7--7--7--7--|
A|-1--1--1--1--1--1--1--1--1--1--1--1--0--0--0--0--|-0--0--1----3----5--5--5--5--5--5--5--5--|
E|-------------------------------------------------|-----------------------------------------|


E|-------------------------------------------------|------------------------------------------|
B|-------------------------------------------------|------------------------------------------|
G|-7--7--7--7--5--5--5--5--5--5--5--5--5--5--5--5--|-3--3--3--3--3--3--3--3--3--3--3--3--2----|
D|-7--7--7--7--5--5--5--5--5--5--5--5--5--5--5--5--|-3--3--3--3--3--3--3--3--3--3--3--3--2----|
A|-5--5--5--5--3--3--3--3--3--3--3--3--3--3--3--3--|-1--1--1--1--1--1--1--1--1--1--1--1--0----|
E|-------------------------------------------------|------------------------------------------|


E|-------------|-----------------------------|----------------------------------|------------------------------|
B|-------------|------------10--8-------8----|-------10--8-------8----------10--|-8---------------8---10---10--|
G|-------2-----|------7--10---------10-------|-7--10---------10-------7--10-----|-----10--9---10---------------|
D|-------2-----|-----------------------------|----------------------------------|------------------------------|
A|-------0-----|-----------------------------|----------------------------------|------------------------------|
E|-------------|-----------------------------|----------------------------------|------------------------------|


E|-----------------------------|----------------------------------|---------------------------|
B|------------10--8-------8----|-------10--8-------8--------------|-8-------------------------|
G|------7--10---------10-------|-7--10---------10-------7--9--10--|-----10--9---10--9---7-----|
D|-----------------------------|----------------------------------|---------------------------|
A|-----------------------------|----------------------------------|---------------------------|
E|-----------------------------|----------------------------------|---------------------------|


E|---------------------------|-------------------------|-------------|-------------|
B|-----------------8---------|-------------------------|-------------|-------------|
G|-----7--9--10---------10---|-9-----10---9---9---7----|-------7-----|------7------|
D|---------------------------|-------------------------|-------------|-------------|
A|---------------------------|-------------------------|-------------|-------------|
E|---------------------------|-------------------------|-------------|-------------|


E|-------------|--------|--------|--------|--------|--------|--------|--------|--------|
B|-------------|--------|--------|--------|--------|--------|--------|--------|--------|
G|-7-----------|--------|--------|--------|--------|--------|--------|--------|--------|
D|-------------|--------|--------|--------|--------|--------|--------|--------|--------|
A|-------------|--------|--------|--------|--------|--------|--------|--------|--------|
E|-------------|--------|--------|--------|--------|--------|--------|--------|--------|


E|--------|--------|--------|--------|--------|--------|--------|--------|--------|
B|--------|--------|--------|--------|--------|--------|--------|--------|--------|
G|--------|--------|--------|--------|--------|--------|--------|--------|--------|
D|--------|--------|--------|--------|--------|--------|--------|--------|--------|
A|--------|--------|--------|--------|--------|--------|--------|--------|--------|
E|--------|--------|--------|--------|--------|--------|--------|--------|--------|


E|--------|--------|--------|--------|--------|--------|--------|--------|--------|
B|--------|--------|--------|--------|--------|--------|--------|--------|--------|
G|--------|--------|--------|--------|--------|--------|--------|--------|--------|
D|--------|--------|--------|--------|--------|--------|--------|--------|--------|
A|--------|--------|--------|--------|--------|--------|--------|--------|--------|
E|--------|--------|--------|--------|--------|--------|--------|--------|--------|


E|--------|--------|--------|--------|--------|--------|--------|--------|--------|
B|--------|--------|--------|--------|--------|--------|--------|--------|--------|
G|--------|--------|--------|--------|--------|--------|--------|--------|--------|
D|--------|--------|--------|--------|--------|--------|--------|--------|--------|
A|--------|--------|--------|--------|--------|--------|--------|--------|--------|
E|--------|--------|--------|--------|--------|--------|--------|--------|--------|


E|--------|--------|--------|--------|--------|--------|--------|--------|--------|
B|--------|--------|--------|--------|--------|--------|--------|--------|--------|
G|--------|--------|--------|--------|--------|--------|--------|--------|--------|
D|--------|--------|--------|--------|--------|--------|--------|--------|--------|
A|--------|--------|--------|--------|--------|--------|--------|--------|--------|
E|--------|--------|--------|--------|--------|--------|--------|--------|--------|


E|--------|--------|--------|--------|--------|--------|--------|--------|--------|
B|--------|--------|--------|--------|--------|--------|--------|--------|--------|
G|--------|--------|--------|--------|--------|--------|--------|--------|--------|
D|--------|--------|--------|--------|--------|--------|--------|--------|--------|
A|--------|--------|--------|--------|--------|--------|--------|--------|--------|
E|--------|--------|--------|--------|--------|--------|--------|--------|--------|


E|--------|--------|--------|--------|--------|--------|--------|--------|--------|
B|--------|--------|--------|--------|--------|--------|--------|--------|--------|
G|--------|--------|--------|--------|--------|--------|--------|--------|--------|
D|--------|--------|--------|--------|--------|--------|--------|--------|--------|
A|--------|--------|--------|--------|--------|--------|--------|--------|--------|
E|--------|--------|--------|--------|--------|--------|--------|--------|--------|


E|--------|--------|--------|--------|--------|----------------|-----------------------|
B|--------|--------|--------|--------|--------|----------------|-----------------------|
G|--------|--------|--------|--------|--------|--------7---7---|-7---7---7-----5---5---|
D|--------|--------|--------|--------|--------|--------7---7---|-7---7---7-----5---5---|
A|--------|--------|--------|--------|--------|--------5---5---|-5---5---5-----3---3---|
E|--------|--------|--------|--------|--------|----------------|-----------------------|


E|-----------------------|-----------------------|------------------------|-----------------------|
B|-----------------------|-----------------------|------------------------|-----------------------|
G|-5---5---5-----3---3---|-3---3---3-----2---2---|-2----3----5----7---7---|-7---7---7-----5---5---|
D|-5---5---5-----3---3---|-3---3---3-----2---2---|-2----3----5----7---7---|-7---7---7-----5---5---|
A|-3---3---3-----1---1---|-1---1---1-----0---0---|-0----1----3----5---5---|-5---5---5-----3---3---|
E|-----------------------|-----------------------|------------------------|-----------------------|


E|-----------------------|-----------------------|------------------------|-----------------------|
B|-----------------------|-----------------------|------------------------|-----------------------|
G|-5---5---5-----3---3---|-3---3---3-----2---2---|-2----3----5----7---7---|-7---7---7-----5---5---|
D|-5---5---5-----3---3---|-3---3---3-----2---2---|-2----3----5----7---7---|-7---7---7-----5---5---|
A|-3---3---3-----1---1---|-1---1---1-----0---0---|-0----1----3----5---5---|-5---5---5-----3---3---|
E|-----------------------|-----------------------|------------------------|-----------------------|


E|-----------------------|-----------------------|------------------------|-----------------------|
B|-----------------------|-----------------------|------------------------|-----------------------|
G|-5---5---5-----3---3---|-3---3---3-----2---2---|-2----3----5----7---7---|-7---7---7-----5---5---|
D|-5---5---5-----3---3---|-3---3---3-----2---2---|-2----3----5----7---7---|-7---7---7-----5---5---|
A|-3---3---3-----1---1---|-1---1---1-----0---0---|-0----1----3----5---5---|-5---5---5-----3---3---|
E|-----------------------|-----------------------|------------------------|-----------------------|


E|-----------------------|--------------------|-------------|---------------------|
B|-----------------------|--------------------|-------------|------3----5----6----|
G|-5---5---5-----3---3---|-3---3---3-----2----|-------2-----|-2-------------------|
D|-5---5---5-----3---3---|-3---3---3-----2----|-------2-----|---------------------|
A|-3---3---3-----1---1---|-1---1---1-----0----|-------0-----|---------------------|
E|-----------------------|--------------------|-------------|---------------------|


E|---------------------|-----------------|-------------|-------------|-------------|
B|-5----3---------3----|------1----------|-------------|--------3----|--------3----|
G|-----------5---------|------------3----|--------2----|-------------|-------------|
D|---------------------|-----------------|-------------|-------------|-------------|
A|---------------------|-----------------|-------------|-------------|-------------|
E|---------------------|-----------------|-------------|-------------|-------------|





Track 4: Lead Acoustic

E|--------|--------|--------|--------|--------|--------|--------|--------|--------|
B|--------|--------|--------|--------|--------|--------|--------|--------|--------|
G|--------|--------|--------|--------|--------|--------|--------|--------|--------|
D|--------|--------|--------|--------|--------|--------|--------|--------|--------|
A|--------|--------|--------|--------|--------|--------|--------|--------|--------|
E|--------|--------|--------|--------|--------|--------|--------|--------|--------|


E|--------|--------|--------|--------|--------|--------|--------|--------|--------|
B|--------|--------|--------|--------|--------|--------|--------|--------|--------|
G|--------|--------|--------|--------|--------|--------|--------|--------|--------|
D|--------|--------|--------|--------|--------|--------|--------|--------|--------|
A|--------|--------|--------|--------|--------|--------|--------|--------|--------|
E|--------|--------|--------|--------|--------|--------|--------|--------|--------|


E|--------|--------|--------|--------|--------|--------|--------|--------|--------|
B|--------|--------|--------|--------|--------|--------|--------|--------|--------|
G|--------|--------|--------|--------|--------|--------|--------|--------|--------|
D|--------|--------|--------|--------|--------|--------|--------|--------|--------|
A|--------|--------|--------|--------|--------|--------|--------|--------|--------|
E|--------|--------|--------|--------|--------|--------|--------|--------|--------|


E|--------|--------|--------|--------|--------|--------|--------|--------|--------|
B|--------|--------|--------|--------|--------|--------|--------|--------|--------|
G|--------|--------|--------|--------|--------|--------|--------|--------|--------|
D|--------|--------|--------|--------|--------|--------|--------|--------|--------|
A|--------|--------|--------|--------|--------|--------|--------|--------|--------|
E|--------|--------|--------|--------|--------|--------|--------|--------|--------|


E|--------|--------|--------|--------|--------|--------|--------|--------|--------|
B|--------|--------|--------|--------|--------|--------|--------|--------|--------|
G|--------|--------|--------|--------|--------|--------|--------|--------|--------|
D|--------|--------|--------|--------|--------|--------|--------|--------|--------|
A|--------|--------|--------|--------|--------|--------|--------|--------|--------|
E|--------|--------|--------|--------|--------|--------|--------|--------|--------|


E|--------|--------|--------|--------|--------|--------|--------|--------|--------|
B|--------|--------|--------|--------|--------|--------|--------|--------|--------|
G|--------|--------|--------|--------|--------|--------|--------|--------|--------|
D|--------|--------|--------|--------|--------|--------|--------|--------|--------|
A|--------|--------|--------|--------|--------|--------|--------|--------|--------|
E|--------|--------|--------|--------|--------|--------|--------|--------|--------|


E|--------|--------|--------|--------|--------|--------|--------|--------|--------|
B|--------|--------|--------|--------|--------|--------|--------|--------|--------|
G|--------|--------|--------|--------|--------|--------|--------|--------|--------|
D|--------|--------|--------|--------|--------|--------|--------|--------|--------|
A|--------|--------|--------|--------|--------|--------|--------|--------|--------|
E|--------|--------|--------|--------|--------|--------|--------|--------|--------|


E|--------|--------|--------|--------|--------|--------|--------|--------|--------|
B|--------|--------|--------|--------|--------|--------|--------|--------|--------|
G|--------|--------|--------|--------|--------|--------|--------|--------|--------|
D|--------|--------|--------|--------|--------|--------|--------|--------|--------|
A|--------|--------|--------|--------|--------|--------|--------|--------|--------|
E|--------|--------|--------|--------|--------|--------|--------|--------|--------|


E|--------|--------|--------|--------|--------|--------|--------|--------|--------|
B|--------|--------|--------|--------|--------|--------|--------|--------|--------|
G|--------|--------|--------|--------|--------|--------|--------|--------|--------|
D|--------|--------|--------|--------|--------|--------|--------|--------|--------|
A|--------|--------|--------|--------|--------|--------|--------|--------|--------|
E|--------|--------|--------|--------|--------|--------|--------|--------|--------|


E|--------|--------|--------|--------|--------|--------|--------|--------|--------|
B|--------|--------|--------|--------|--------|--------|--------|--------|--------|
G|--------|--------|--------|--------|--------|--------|--------|--------|--------|
D|--------|--------|--------|--------|--------|--------|--------|--------|--------|
A|--------|--------|--------|--------|--------|--------|--------|--------|--------|
E|--------|--------|--------|--------|--------|--------|--------|--------|--------|


E|--------|--------|--------|--------|--------|--------|--------|--------|--------|
B|--------|--------|--------|--------|--------|--------|--------|--------|--------|
G|--------|--------|--------|--------|--------|--------|--------|--------|--------|
D|--------|--------|--------|--------|--------|--------|--------|--------|--------|
A|--------|--------|--------|--------|--------|--------|--------|--------|--------|
E|--------|--------|--------|--------|--------|--------|--------|--------|--------|


E|--------|--------|--------|--------|--------|--------|--------|--------|--------|
B|--------|--------|--------|--------|--------|--------|--------|--------|--------|
G|--------|--------|--------|--------|--------|--------|--------|--------|--------|
D|--------|--------|--------|--------|--------|--------|--------|--------|--------|
A|--------|--------|--------|--------|--------|--------|--------|--------|--------|
E|--------|--------|--------|--------|--------|--------|--------|--------|--------|


E|--------|--------|--------|--------|--------|--------|--------|--------|----------------|
B|--------|--------|--------|--------|--------|--------|--------|--------|----------------|
G|--------|--------|--------|--------|--------|--------|--------|--------|----------------|
D|--------|--------|--------|--------|--------|--------|--------|--------|------------7---|
A|--------|--------|--------|--------|--------|--------|--------|--------|--------5-------|
E|--------|--------|--------|--------|--------|--------|--------|--------|----------------|


E|---------------------------------|---------------------------------|---------------------------------|
B|---------6-----------------------|---------6-----------------------|---------6-----------------------|
G|-7-----------7-------7-----------|-7-----------7-------7-----------|-7-----------7-------7-----------|
D|-----7-----------7-----------7---|-----7-----------7-----------7---|-----7-----------7-----------7---|
A|-------------------------5-------|-------------------------5-------|-------------------------5-------|
E|---------------------------------|---------------------------------|---------------------------------|


E|---------------------------------|---------------------------------|---------------------------------|
B|---------6-----------------------|---------6-----------------------|---------3-----------------------|
G|-7-----------7-------7-----------|-7-----------7-------7-----------|-3-----------3-------3-----------|
D|-----7-----------7-----------7---|-----7-----------7-----------3---|-----3-----------3-----------5---|
A|-------------------------5-------|-------------------------1-------|-------------------------3-------|
E|---------------------------------|---------------------------------|---------------------------------|


E|---------------------------------|---------------------------------|---------------------------------|
B|---------5-----------------------|---------2-----------------------|---------6-----------------------|
G|-5-----------5-------5-----------|-2-----------2-------2-----------|-7-----------7-------7-----------|
D|-----5-----------5-----------2---|-----2-----------2-----------7---|-----7-----------7-----------3---|
A|-------------------------0-------|-------------------------5-------|-------------------------1-------|
E|---------------------------------|---------------------------------|---------------------------------|


E|---------------------------------|---------------------------------|---------------------------------|
B|---------3-----------------------|---------5-----------------------|---------2-----------------------|
G|-3-----------3-------3-----------|-5-----------5-------5-----------|-2-----------2-------2-----------|
D|-----3-----------3-----------5---|-----5-----------5-----------2---|-----2-----------2-----------3---|
A|-------------------------3-------|-------------------------0-------|-------------------------1-------|
E|---------------------------------|---------------------------------|---------------------------------|


E|---------------------------------|---------------------------------|---------------------------------|
B|---------3-----------------------|---------5-----------------------|---------6-----------------------|
G|-3-----------3-------3-----------|-5-----------5-------5-----------|-7-----------7-------7-----------|
D|-----3-----------3-----------5---|-----5-----------5-----------7---|-----7-----------7-----------7---|
A|-------------------------3-------|-------------------------5-------|-------------------------5-------|
E|---------------------------------|---------------------------------|---------------------------------|


E|---------------------------------|---------------------------------|---------------------------------|
B|---------6-----------------------|---------3-----------------------|---------5-----------------------|
G|-7-----------7-------7-----------|-3-----------3-------3-----------|-5-----------5-------5-----------|
D|-----7-----------7-----------3---|-----3-----------3-----------5---|-----5-----------5-----------7---|
A|-------------------------1-------|-------------------------3-------|---------------------------------|
E|---------------------------------|---------------------------------|-------------------------5-------|


E|---------5-----------------|----------------|---------------------------------|---------------------------------|
B|---------------------------|----------------|---------6-----------------------|---------3-----------------------|
G|-6-----------6-------------|----------------|-7-----------7-------7-----------|-3-----------3-------3-----------|
D|-----7-----------7---------|------------7---|-----7-----------7-----------3---|-----3-----------3-----------5---|
A|---------------------------|--------5-------|-------------------------1-------|-------------------------3-------|
E|----------------------5----|----------------|---------------------------------|---------------------------------|


E|---------------------------------|---------------------------------|---------------------------------|
B|---------5-----------------------|---------2-----------------------|---------6-----------------------|
G|-5-----------5-------5-----------|-2-----------2-------2-----------|-7-----------7-------7-----------|
D|-----5-----------5-----------2---|-----2-----------2-----------7---|-----7-----------7-----------3---|
A|-------------------------0-------|-------------------------5-------|-------------------------1-------|
E|---------------------------------|---------------------------------|---------------------------------|


E|---------------------------------|---------------------------------|---------------------------------|
B|---------3-----------------------|---------5-----------------------|---------2-----------------------|
G|-3-----------3-------3-----------|-5-----------5-------5-----------|-2-----------2-------2-----------|
D|-----3-----------3-----------5---|-----5-----------5-----------2---|-----2-----------2-----------7---|
A|-------------------------3-------|-------------------------0-------|-------------------------5-------|
E|---------------------------------|---------------------------------|---------------------------------|


E|---------------------------------|---------------------------------|---------------------------------|
B|---------6-----------------------|---------3-----------------------|---------5-----------------------|
G|-7-----------7-------7-----------|-3-----------3-------3-----------|-5-----------5-------5-----------|
D|-----7-----------7-----------3---|-----3-----------3-----------5---|-----5-----------5-----------2---|
A|-------------------------1-------|-------------------------3-------|-------------------------0-------|
E|---------------------------------|---------------------------------|---------------------------------|


E|---------------------------------|---------------------------------|---------------------------------|
B|---------2-----------------------|---------6-----------------------|---------3-----------------------|
G|-2-----------2-------2-----------|-7-----------7-------7-----------|-3-----------3-------3-----------|
D|-----2-----------2-----------7---|-----7-----------7-----------3---|-----3-----------3-----------5---|
A|-------------------------5-------|-------------------------1-------|-------------------------3-------|
E|---------------------------------|---------------------------------|---------------------------------|


E|---------------------------------|---------------------------------|---------------------------------|
B|---------5-----------------------|---------2-----------------------|---------6-----------------------|
G|-5-----------5-------5-----------|-2-----------2-------2-----------|-7-----------7-------7-----------|
D|-----5-----------5-----------2---|-----2-----------2-----------7---|-----7-----------7-----------3---|
A|-------------------------0-------|-------------------------5-------|-------------------------1-------|
E|---------------------------------|---------------------------------|---------------------------------|


E|---------------------------------|---------------------------------|---------------------------------|
B|---------3-----------------------|---------5-----------------------|---------2-----------------------|
G|-3-----------3-------3-----------|-5-----------5-------5-----------|-2-----------2-------2-----------|
D|-----3-----------3-----------5---|-----5-----------5-----------2---|-----2-----------2-----------7---|
A|-------------------------3-------|-------------------------0-------|-------------------------5-------|
E|---------------------------------|---------------------------------|---------------------------------|


E|---------------------------------|---------------------------------|---------------------------------|
B|---------6-----------------------|---------3-----------------------|---------5-----------------------|
G|-7-----------7-------7-----------|-3-----------3-------3-----------|-5-----------5-------5-----------|
D|-----7-----------7-----------3---|-----3-----------3-----------5---|-----5-----------5-----------2---|
A|-------------------------1-------|-------------------------3-------|-------------------------0-------|
E|---------------------------------|---------------------------------|---------------------------------|


E|---------------------------------|---------------------------------|---------------------------------|
B|---------2-----------------------|---------6-----------------------|---------3-----------------------|
G|-2-----------2-------2-----------|-7-----------7-------7-----------|-3-----------3-------3-----------|
D|-----2-----------2-----------7---|-----7-----------7-----------3---|-----3-----------3-----------5---|
A|-------------------------5-------|-------------------------1-------|-------------------------3-------|
E|---------------------------------|---------------------------------|---------------------------------|


E|---------------------------------|---------------------------------|---------------------------------|
B|---------5-----------------------|---------2-----------------------|---------6-----------------------|
G|-5-----------5-------5-----------|-2-----------2-------2-----------|-7-----------7-------7-----------|
D|-----5-----------5-----------2---|-----2-----------2-----------7---|-----7-----------7-----------3---|
A|-------------------------0-------|-------------------------5-------|-------------------------1-------|
E|---------------------------------|---------------------------------|---------------------------------|


E|---------------------------------|---------------------------------|---------------------------------|
B|---------3-----------------------|---------5-----------------------|---------2-----------------------|
G|-3-----------3-------3-----------|-5-----------5-------5-----------|-2-----------2-------2-----------|
D|-----3-----------3-----------5---|-----5-----------5-----------2---|-----2-----------2-----------7---|
A|-------------------------3-------|-------------------------0-------|-------------------------5-------|
E|---------------------------------|---------------------------------|---------------------------------|


E|---------------------------------|---------------------------------|---------------------------------|
B|---------6-----------------------|---------3-----------------------|---------5-----------------------|
G|-7-----------7-------7-----------|-3-----------3-------3-----------|-5-----------5-------5-----------|
D|-----7-----------7-----------3---|-----3-----------3-----------5---|-----5-----------5-----------2---|
A|-------------------------1-------|-------------------------3-------|-------------------------0-------|
E|---------------------------------|---------------------------------|---------------------------------|


E|---------------------------------|---------------------------------|---------------------------------|
B|---------2-----------------------|---------6-----------------------|---------3-----------------------|
G|-2-----------2-------2-----------|-7-----------7-------7-----------|-3-----------3-------3-----------|
D|-----2-----------2-----------7---|-----7-----------7-----------3---|-----3-----------3-----------5---|
A|-------------------------5-------|-------------------------1-------|-------------------------3-------|
E|---------------------------------|---------------------------------|---------------------------------|


E|---------------------------------|---------------------------------|---------------------------------|
B|---------5-----------------------|---------2-----------------------|---------6-----------------------|
G|-5-----------5-------5-----------|-2-----------2-------2-----------|-7-----------7-------7-----------|
D|-----5-----------5-----------2---|-----2-----------2-----------7---|-----7-----------7-----------3---|
A|-------------------------0-------|-------------------------5-------|-------------------------1-------|
E|---------------------------------|---------------------------------|---------------------------------|


E|---------------------------------|---------------------------------|---------------------------------|
B|---------3-----------------------|---------5-----------------------|---------2-----------------------|
G|-3-----------3-------3-----------|-5-----------5-------5-----------|-2-----------2-------2-----------|
D|-----3-----------3-----------5---|-----5-----------5-----------2---|-----2-----------2-----------7---|
A|-------------------------3-------|-------------------------0-------|-------------------------5-------|
E|---------------------------------|---------------------------------|---------------------------------|


E|---------------------------------|---------------------------------|---------------------------------|
B|---------6-----------------------|---------3-----------------------|---------5-----------------------|
G|-7-----------7-------7-----------|-3-----------3-------3-----------|-5-----------5-------5-----------|
D|-----7-----------7-----------3---|-----3-----------3-----------5---|-----5-----------5-----------2---|
A|-------------------------1-------|-------------------------3-------|-------------------------0-------|
E|---------------------------------|---------------------------------|---------------------------------|


E|------------------------------|--------|--------|--------|--------|--------|--------|
B|---------2--------------------|--------|--------|--------|--------|--------|--------|
G|-2-----------2-------2--------|--------|--------|--------|--------|--------|--------|
D|-----2-----------2------------|--------|--------|--------|--------|--------|--------|
A|------------------------------|--------|--------|--------|--------|--------|--------|
E|------------------------------|--------|--------|--------|--------|--------|--------|


E|--------|--------|--------|--------|--------|--------|--------|--------|--------|
B|--------|--------|--------|--------|--------|--------|--------|--------|--------|
G|--------|--------|--------|--------|--------|--------|--------|--------|--------|
D|--------|--------|--------|--------|--------|--------|--------|--------|--------|
A|--------|--------|--------|--------|--------|--------|--------|--------|--------|
E|--------|--------|--------|--------|--------|--------|--------|--------|--------|


E|--------|--------|--------|--------|--------|--------|--------|
B|--------|--------|--------|--------|--------|--------|--------|
G|--------|--------|--------|--------|--------|--------|--------|
D|--------|--------|--------|--------|--------|--------|--------|
A|--------|--------|--------|--------|--------|--------|--------|
E|--------|--------|--------|--------|--------|--------|--------|





Track 5: Solo Clean

E|--------|--------|--------|--------|--------|--------|--------|--------|--------|
B|--------|--------|--------|--------|--------|--------|--------|--------|--------|
G|--------|--------|--------|--------|--------|--------|--------|--------|--------|
D|--------|--------|--------|--------|--------|--------|--------|--------|--------|
A|--------|--------|--------|--------|--------|--------|--------|--------|--------|
E|--------|--------|--------|--------|--------|--------|--------|--------|--------|


E|--------|--------|--------|--------|--------|--------|--------|--------|--------|
B|--------|--------|--------|--------|--------|--------|--------|--------|--------|
G|--------|--------|--------|--------|--------|--------|--------|--------|--------|
D|--------|--------|--------|--------|--------|--------|--------|--------|--------|
A|--------|--------|--------|--------|--------|--------|--------|--------|--------|
E|--------|--------|--------|--------|--------|--------|--------|--------|--------|


E|--------|--------|--------|--------|--------|--------|--------|--------|--------|
B|--------|--------|--------|--------|--------|--------|--------|--------|--------|
G|--------|--------|--------|--------|--------|--------|--------|--------|--------|
D|--------|--------|--------|--------|--------|--------|--------|--------|--------|
A|--------|--------|--------|--------|--------|--------|--------|--------|--------|
E|--------|--------|--------|--------|--------|--------|--------|--------|--------|


E|--------|--------|--------|--------|--------|--------|--------|--------|--------|
B|--------|--------|--------|--------|--------|--------|--------|--------|--------|
G|--------|--------|--------|--------|--------|--------|--------|--------|--------|
D|--------|--------|--------|--------|--------|--------|--------|--------|--------|
A|--------|--------|--------|--------|--------|--------|--------|--------|--------|
E|--------|--------|--------|--------|--------|--------|--------|--------|--------|


E|--------|--------|--------|--------|--------|--------|--------|--------|--------|
B|--------|--------|--------|--------|--------|--------|--------|--------|--------|
G|--------|--------|--------|--------|--------|--------|--------|--------|--------|
D|--------|--------|--------|--------|--------|--------|--------|--------|--------|
A|--------|--------|--------|--------|--------|--------|--------|--------|--------|
E|--------|--------|--------|--------|--------|--------|--------|--------|--------|


E|--------|--------|--------|--------|--------|--------|--------|--------|--------|
B|--------|--------|--------|--------|--------|--------|--------|--------|--------|
G|--------|--------|--------|--------|--------|--------|--------|--------|--------|
D|--------|--------|--------|--------|--------|--------|--------|--------|--------|
A|--------|--------|--------|--------|--------|--------|--------|--------|--------|
E|--------|--------|--------|--------|--------|--------|--------|--------|--------|


E|--------|--------|--------|--------|--------|--------|--------|--------|--------|
B|--------|--------|--------|--------|--------|--------|--------|--------|--------|
G|--------|--------|--------|--------|--------|--------|--------|--------|--------|
D|--------|--------|--------|--------|--------|--------|--------|--------|--------|
A|--------|--------|--------|--------|--------|--------|--------|--------|--------|
E|--------|--------|--------|--------|--------|--------|--------|--------|--------|


E|--------|--------|--------|--------|--------|--------|--------|--------|--------|
B|--------|--------|--------|--------|--------|--------|--------|--------|--------|
G|--------|--------|--------|--------|--------|--------|--------|--------|--------|
D|--------|--------|--------|--------|--------|--------|--------|--------|--------|
A|--------|--------|--------|--------|--------|--------|--------|--------|--------|
E|--------|--------|--------|--------|--------|--------|--------|--------|--------|


E|--------|--------|--------|--------|--------|--------|--------|--------|--------|
B|--------|--------|--------|--------|--------|--------|--------|--------|--------|
G|--------|--------|--------|--------|--------|--------|--------|--------|--------|
D|--------|--------|--------|--------|--------|--------|--------|--------|--------|
A|--------|--------|--------|--------|--------|--------|--------|--------|--------|
E|--------|--------|--------|--------|--------|--------|--------|--------|--------|


E|--------|--------|--------|--------|--------|--------|--------|--------|--------|
B|--------|--------|--------|--------|--------|--------|--------|--------|--------|
G|--------|--------|--------|--------|--------|--------|--------|--------|--------|
D|--------|--------|--------|--------|--------|--------|--------|--------|--------|
A|--------|--------|--------|--------|--------|--------|--------|--------|--------|
E|--------|--------|--------|--------|--------|--------|--------|--------|--------|


E|--------|--------|--------|--------|--------|--------|--------|--------|--------|
B|--------|--------|--------|--------|--------|--------|--------|--------|--------|
G|--------|--------|--------|--------|--------|--------|--------|--------|--------|
D|--------|--------|--------|--------|--------|--------|--------|--------|--------|
A|--------|--------|--------|--------|--------|--------|--------|--------|--------|
E|--------|--------|--------|--------|--------|--------|--------|--------|--------|


E|--------|--------|--------|--------|--------|--------|--------|--------|--------|
B|--------|--------|--------|--------|--------|--------|--------|--------|--------|
G|--------|--------|--------|--------|--------|--------|--------|--------|--------|
D|--------|--------|--------|--------|--------|--------|--------|--------|--------|
A|--------|--------|--------|--------|--------|--------|--------|--------|--------|
E|--------|--------|--------|--------|--------|--------|--------|--------|--------|


E|--------|--------|--------|--------|--------|--------|--------|--------|-------------|
B|--------|--------|--------|--------|--------|--------|--------|--------|-------------|
G|--------|--------|--------|--------|--------|--------|--------|--------|--------7----|
D|--------|--------|--------|--------|--------|--------|--------|--------|-------------|
A|--------|--------|--------|--------|--------|--------|--------|--------|-------------|
E|--------|--------|--------|--------|--------|--------|--------|--------|-------------|


E|-------------|-------------|-------------|-------------|---------------------------|
B|-------------|-------------|-------------|-------------|------------------5---6----|
G|--------7----|--------7----|--------7----|--------7----|------7---5---7------------|
D|-------------|-------------|-------------|-------------|---------------------------|
A|-------------|-------------|-------------|-------------|---------------------------|
E|-------------|-------------|-------------|-------------|---------------------------|


E|---------------------|---------------------------|---------------------|------------------------|
B|-----5---------------|----------6----8---6-------|---------------------|----------5-------------|
G|-----------7----9----|------9----------------9---|-------7----5---7----|------7--------7--------|
D|---------------------|---------------------------|---------------------|-------------------8----|
A|---------------------|---------------------------|---------------------|------------------------|
E|---------------------|---------------------------|---------------------|------------------------|


E|---------------------|-----------------------|------------------------|------------------------|
B|----------6----------|-----------6---8---6---|-------------------6----|------6---5----6---5----|
G|----------------9----|-----------------------|-----9-----7---5--------|------------------------|
D|------8--------------|-----------------------|------------------------|------------------------|
A|---------------------|-----------------------|------------------------|------------------------|
E|---------------------|-----------------------|------------------------|------------------------|


E|------------------------|----------------|------------------------------|-------------|
B|------5-----------------|----------------|-----5---6---5----------------|-------------|
G|----------7----5---7----|--------7---5---|-7---------------7---5--------|--------5----|
D|------------------------|----------------|-------------------------8----|-------------|
A|------------------------|----------------|------------------------------|-------------|
E|------------------------|----------------|------------------------------|-------------|


E|--------------------------|---------------------|--------|--------|--------|--------|
B|--------------------------|----------3-----5----|--------|--------|--------|--------|
G|------5---3----5--3--2----|------2--------------|--------|--------|--------|--------|
D|--------------------------|---------------------|--------|--------|--------|--------|
A|--------------------------|---------------------|--------|--------|--------|--------|
E|--------------------------|---------------------|--------|--------|--------|--------|


E|--------|--------|--------|--------|--------|--------|--------|--------|--------|
B|--------|--------|--------|--------|--------|--------|--------|--------|--------|
G|--------|--------|--------|--------|--------|--------|--------|--------|--------|
D|--------|--------|--------|--------|--------|--------|--------|--------|--------|
A|--------|--------|--------|--------|--------|--------|--------|--------|--------|
E|--------|--------|--------|--------|--------|--------|--------|--------|--------|


E|--------|--------|--------|-------------|---------------------------|---------------------|
B|--------|--------|--------|-------------|------------------5---6----|-----5---------------|
G|--------|--------|--------|--------7----|------7---5---7------------|-----------7----9----|
D|--------|--------|--------|-------------|---------------------------|---------------------|
A|--------|--------|--------|-------------|---------------------------|---------------------|
E|--------|--------|--------|-------------|---------------------------|---------------------|


E|---------------------------|---------------------|------------------------|---------------------|
B|----------6----8---6-------|---------------------|----------5-------------|----------6----------|
G|------9----------------9---|-------7----5---7----|------7--------7--------|----------------9----|
D|---------------------------|---------------------|-------------------8----|------8--------------|
A|---------------------------|---------------------|------------------------|---------------------|
E|---------------------------|---------------------|------------------------|---------------------|


E|-----------------------|------------------------|-------------|-------------|-------------|
B|-----------6---8---6---|------------------------|-------------|-------------|-------------|
G|-----------------------|-----9-----7---5---7----|-------------|-------------|-------------|
D|-----------------------|------------------------|-------------|-------------|-------------|
A|-----------------------|------------------------|-------------|-------------|-------------|
E|-----------------------|------------------------|-------------|-------------|-------------|


E|-------------|-------------|-------------|-------------|-------------|-------------|
B|-------------|-------------|-------------|-------------|-------------|-------------|
G|--------7----|-------------|-------------|-------------|--------7----|-------------|
D|-------------|-------------|-------------|-------------|-------------|-------------|
A|-------------|-------------|-------------|-------------|-------------|-------------|
E|-------------|-------------|-------------|-------------|-------------|-------------|


E|-------------|-------------|-------------|-------------|-------------|-------------|
B|-------------|-------------|-------------|-------------|-------------|-------------|
G|-------------|-------------|--------7----|-------------|-------------|-------------|
D|-------------|-------------|-------------|-------------|-------------|-------------|
A|-------------|-------------|-------------|-------------|-------------|-------------|
E|-------------|-------------|-------------|-------------|-------------|-------------|


E|-------------|-------------|-------------|-------------|-------------|-------------|
B|-------------|-------------|-------------|-------------|-------------|-------------|
G|--------7----|-------------|-------------|-------------|--------7----|-------------|
D|-------------|-------------|-------------|-------------|-------------|-------------|
A|-------------|-------------|-------------|-------------|-------------|-------------|
E|-------------|-------------|-------------|-------------|-------------|-------------|


E|-------------|-------------|--------|--------|--------|--------|--------|--------|
B|-------------|-------------|--------|--------|--------|--------|--------|--------|
G|-------------|-------------|--------|--------|--------|--------|--------|--------|
D|-------------|-------------|--------|--------|--------|--------|--------|--------|
A|-------------|-------------|--------|--------|--------|--------|--------|--------|
E|-------------|-------------|--------|--------|--------|--------|--------|--------|


E|--------|--------|--------|--------|--------|--------|--------|--------|--------|
B|--------|--------|--------|--------|--------|--------|--------|--------|--------|
G|--------|--------|--------|--------|--------|--------|--------|--------|--------|
D|--------|--------|--------|--------|--------|--------|--------|--------|--------|
A|--------|--------|--------|--------|--------|--------|--------|--------|--------|
E|--------|--------|--------|--------|--------|--------|--------|--------|--------|


E|--------|--------|--------|--------|--------|--------|--------|--------|
B|--------|--------|--------|--------|--------|--------|--------|--------|
G|--------|--------|--------|--------|--------|--------|--------|--------|
D|--------|--------|--------|--------|--------|--------|--------|--------|
A|--------|--------|--------|--------|--------|--------|--------|--------|
E|--------|--------|--------|--------|--------|--------|--------|--------|





Track 6: Untitled

G|--------|--------|--------|--------|--------|--------|--------|--------|--------|
D|--------|--------|--------|--------|--------|--------|--------|--------|--------|
A|--------|--------|--------|--------|--------|--------|--------|--------|--------|
E|--------|--------|--------|--------|--------|--------|--------|--------|--------|


G|--------|--------|--------|--------|--------|--------|--------|--------|--------|
D|--------|--------|--------|--------|--------|--------|--------|--------|--------|
A|--------|--------|--------|--------|--------|--------|--------|--------|--------|
E|--------|--------|--------|--------|--------|--------|--------|--------|--------|


G|--------|--------|--------|--------|--------|--------|--------|--------|--------|
D|--------|--------|--------|--------|--------|--------|--------|--------|--------|
A|--------|--------|--------|--------|--------|--------|--------|--------|--------|
E|--------|--------|--------|--------|--------|--------|--------|--------|--------|


G|--------|--------|--------|--------|--------|--------|--------|--------|--------|
D|--------|--------|--------|--------|--------|--------|--------|--------|--------|
A|--------|--------|--------|--------|--------|--------|--------|--------|--------|
E|--------|--------|--------|--------|--------|--------|--------|--------|--------|


G|--------|--------|--------|--------|--------|--------|--------|--------|--------|
D|--------|--------|--------|--------|--------|--------|--------|--------|--------|
A|--------|--------|--------|--------|--------|--------|--------|--------|--------|
E|--------|--------|--------|--------|--------|--------|--------|--------|--------|


G|--------|--------|--------|--------|--------|--------|--------|--------|--------|
D|--------|--------|--------|--------|--------|--------|--------|--------|--------|
A|--------|--------|--------|--------|--------|--------|--------|--------|--------|
E|--------|--------|--------|--------|--------|--------|--------|--------|--------|


G|--------|--------|--------|--------|--------|--------|--------|--------|--------|
D|--------|--------|--------|--------|--------|--------|--------|--------|--------|
A|--------|--------|--------|--------|--------|--------|--------|--------|--------|
E|--------|--------|--------|--------|--------|--------|--------|--------|--------|


G|--------|--------|--------|--------|--------|--------|--------|--------|--------|
D|--------|--------|--------|--------|--------|--------|--------|--------|--------|
A|--------|--------|--------|--------|--------|--------|--------|--------|--------|
E|--------|--------|--------|--------|--------|--------|--------|--------|--------|


G|--------|--------|--------|--------|--------|--------|--------|--------|--------|
D|--------|--------|--------|--------|--------|--------|--------|--------|--------|
A|--------|--------|--------|--------|--------|--------|--------|--------|--------|
E|--------|--------|--------|--------|--------|--------|--------|--------|--------|


G|--------|--------|--------|--------|--------|--------|--------|--------|--------|
D|--------|--------|--------|--------|--------|--------|--------|--------|--------|
A|--------|--------|--------|--------|--------|--------|--------|--------|--------|
E|--------|--------|--------|--------|--------|--------|--------|--------|--------|


G|--------|--------|--------|--------|--------|--------|--------|--------|--------|
D|--------|--------|--------|--------|--------|--------|--------|--------|--------|
A|--------|--------|--------|--------|--------|--------|--------|--------|--------|
E|--------|--------|--------|--------|--------|--------|--------|--------|--------|


G|--------|--------|--------|--------|--------|--------|--------|--------|--------|
D|--------|--------|--------|--------|--------|--------|--------|--------|--------|
A|--------|--------|--------|--------|--------|--------|--------|--------|--------|
E|--------|--------|--------|--------|--------|--------|--------|--------|--------|


G|--------|--------|--------|--------|--------|--------|--------|--------|--------|
D|--------|--------|--------|--------|--------|--------|--------|--------|--------|
A|--------|--------|--------|--------|--------|--------|--------|--------|--------|
E|--------|--------|--------|--------|--------|--------|--------|--------|--------|


G|--------|--------|--------|--------|--------|--------|--------|--------|--------|
D|--------|--------|--------|--------|--------|--------|--------|--------|--------|
A|--------|--------|--------|--------|--------|--------|--------|--------|--------|
E|--------|--------|--------|--------|--------|--------|--------|--------|--------|


G|--------|--------|--------|--------|--------|--------|--------|--------|--------|
D|--------|--------|--------|--------|--------|--------|--------|--------|--------|
A|--------|--------|--------|--------|--------|--------|--------|--------|--------|
E|--------|--------|--------|--------|--------|--------|--------|--------|--------|


G|--------|--------|--------|--------|--------|--------|--------|--------|--------|
D|--------|--------|--------|--------|--------|--------|--------|--------|--------|
A|--------|--------|--------|--------|--------|--------|--------|--------|--------|
E|--------|--------|--------|--------|--------|--------|--------|--------|--------|


G|--------|--------|--------|--------|--------|--------|--------|--------|--------|
D|--------|--------|--------|--------|--------|--------|--------|--------|--------|
A|--------|--------|--------|--------|--------|--------|--------|--------|--------|
E|--------|--------|--------|--------|--------|--------|--------|--------|--------|


G|--------|--------|--------|--------|--------|--------|--------|--------|--------|
D|--------|--------|--------|--------|--------|--------|--------|--------|--------|
A|--------|--------|--------|--------|--------|--------|--------|--------|--------|
E|--------|--------|--------|--------|--------|--------|--------|--------|--------|


G|--------|--------|--------|--------|--------|--------|--------|--------|--------|
D|--------|--------|--------|--------|--------|--------|--------|--------|--------|
A|--------|--------|--------|--------|--------|--------|--------|--------|--------|
E|--------|--------|--------|--------|--------|--------|--------|--------|--------|


G|--------|--------|--------|--------|--------|--------|--------|--------|--------|
D|--------|--------|--------|--------|--------|--------|--------|--------|--------|
A|--------|--------|--------|--------|--------|--------|--------|--------|--------|
E|--------|--------|--------|--------|--------|--------|--------|--------|--------|


G|--------|--------|--------|--------|--------|--------|--------|--------|--------|
D|--------|--------|--------|--------|--------|--------|--------|--------|--------|
A|--------|--------|--------|--------|--------|--------|--------|--------|--------|
E|--------|--------|--------|--------|--------|--------|--------|--------|--------|


G|--------|--------|--------|--------|--------|--------|--------|--------|--------|
D|--------|--------|--------|--------|--------|--------|--------|--------|--------|
A|--------|--------|--------|--------|--------|--------|--------|--------|--------|
E|--------|--------|--------|--------|--------|--------|--------|--------|--------|


G|--------|--------|--------|--------|--------|--------|--------|--------|--------|
D|--------|--------|--------|--------|--------|--------|--------|--------|--------|
A|--------|--------|--------|--------|--------|--------|--------|--------|--------|
E|--------|--------|--------|--------|--------|--------|--------|--------|--------|