Site menu:

    

Browse: 0-9 A B C D E F G H I J K L N O P Q R S T U V W X Y Z

thyrfing - the voyager:



#----------------------------------PLEASE NOTE---------------------------------#
#This file is the author's own work and represents their interpretation of the #
#song. You may only use this file for private study, scholarship, or research. #
#------------------------------------------------------------------------------#

  Visit MetalTabs.com for more metal tablature
  
Band: Thyrfing
Album: Vansinnevisor
Song: The Voyager
Tabbed by: Martijn Wietsma (Darkenelf)
Tab Date: 30-04-2003
Email: dalvanian@yahoo.com

Standard E Tuning

riff A: violin intro
|--------------------------------------------------------------|
|---10-9--10-12-10-9-10----------------------------------------|
|------------------------7--6--2-------------------------------|
|-7------------------------------------------------------------|
|-------------------------------------------3-3----------------|
|-------------------------------------------1-1----------------|
					    x x
riff B:
|--------------------------------------------------------------|
|--------------------------------------------------------------|
|--------------------------------------------------------------|
|-7--7-7-8---7\5/7--5\4/5--------------------------------------|
|-5--5-5-6---5\3/5--3\2/3--8\7/8--7\5/7---3-3------------------|
|--------------------------6\5/6--5\3/5---1-1------------------|
					  x x	(4x)
riff C: (keyboard)
|--------------------------------------------------------------|
|-------------------10-----------------------------------------|
|---10-9--7-9--10-9-----------10-9-7-9~------------------------|
|-7-------------------------7----------------------------------|
|--------------------------------------------------------------|
|--------------------------------------------------------------|
						(2x)
riff D:
|--------------------------------------------------------------|
|--------------------------------------------------------------|
|--------------------------------------------------------------|
|--------------------------------------------------------------|
|-5--6\5\3---5--6\5\3---5--6\5\3---5-5-5-5-5-5-5-5-------------|
|-3--4\3\1---3--4\3\1---3--4\3\1---3-3-3-3-3-3-3-3-------------|
 				   x x x x x x x x
|--------------------------------------------------------------|
|--------------------------------------------------------------|
|--------------------------------------------------------------|
|--------------------------------------------------------------|
|-5--6\5\3---5--6\5\3---5--6\5\3---5-5--5--5-5-----------------|
|-3--4\3\1---3--4\3\1---3--4\3\1---3-3--3--3-3-----------------|
                                   x x  x  x
						(2x)
riff C: (keyboard)
|--------------------------------------------------------------|
|-------------------10-----------------------------------------|
|---10-9--7-9--10-9-----------10-9-7-9~------------------------|
|-7-------------------------7----------------------------------|
|--------------------------------------------------------------|
|--------------------------------------------------------------|
						(2x)
riff D:
|--------------------------------------------------------------|
|--------------------------------------------------------------|
|--------------------------------------------------------------|
|--------------------------------------------------------------|
|-5--6\5\3---5--6\5\3---5--6\5\3---5-5-5-5-5-5-5-5-------------|
|-3--4\3\1---3--4\3\1---3--4\3\1---3-3-3-3-3-3-3-3-------------|
 				   x x x x x x x x
|--------------------------------------------------------------|
|--------------------------------------------------------------|
|--------------------------------------------------------------|
|--------------------------------------------------------------|
|-5--6\5\3---5--6\5\3---5--6\5\3---5-5--5--5-5-----------------|
|-3--4\3\1---3--4\3\1---3--4\3\1---3-3--3--3-3-----------------|
                                   x x  x  x
						(2x)
riff E:
|--------------------------------------------------------------|
|--------------------------------------------------------------|
|--------------------------------------------------------------|
|--------------------------------------------------------------|
|-5-5--5-5--5-5-5--5-5--5-5-5--5-5--8-8-8-5-6-5----------------|
|-3-3--3-3--3-3-3--3-3--3-3-3--3-3--6-6-6-3-4-3----------------|
  x    x    x x    x    x x    x 		(2x)

riff A: violin
|--------------------------------------------------------------|
|---10-9--10-12-10-9-10----------------------------------------|
|------------------------7--6--2-------------------------------|
|-7------------------------------------------------------------|
|-------------------------------------------3-3----------------|
|-------------------------------------------1-1----------------|
					    x x	(2x)
riff F:
|--------------------------------------------------------------|
|--------------------------------------------------------------|
|--------------------------------------------------------------|
|--------------------------------------------------------------|
|-5-5--5-5--5-5-5--5-5--8-8-8--8-8--5-5-5--5-5-----------------|
|-3-3--3-3--3-3-3--3-3--6-6-6--6-6--3-3-3--3-3-----------------|
  x    x    x x    x    x x    x    x x    x	(2x)

riff A: violin
|--------------------------------------------------------------|
|---10-9--10-12-10-9-10----------------------------------------|
|------------------------7--6--2-------------------------------|
|-7------------------------------------------------------------|
|-------------------------------------------3-3----------------|
|-------------------------------------------1-1----------------|
					    x x	(2x)
riff D:
|--------------------------------------------------------------|
|--------------------------------------------------------------|
|--------------------------------------------------------------|
|--------------------------------------------------------------|
|-5--6\5\3---5--6\5\3---5--6\5\3---5-5-5-5-5-5-5-5-------------|
|-3--4\3\1---3--4\3\1---3--4\3\1---3-3-3-3-3-3-3-3-------------|
 				   x x x x x x x x
|--------------------------------------------------------------|
|--------------------------------------------------------------|
|--------------------------------------------------------------|
|--------------------------------------------------------------|
|-5--6\5\3---5--6\5\3---5--6\5\3---5-5--5--5-5-----------------|
|-3--4\3\1---3--4\3\1---3--4\3\1---3-3--3--3-3-----------------|
                                   x x  x  x
						(2x)
riff E:
|--------------------------------------------------------------|
|--------------------------------------------------------------|
|--------------------------------------------------------------|
|--------------------------------------------------------------|
|-5-5--5-5--5-5-5--5-5--5-5-5--5-5--8-8-8-5-6-5----------------|
|-3-3--3-3--3-3-3--3-3--3-3-3--3-3--6-6-6-3-4-3----------------|
  x    x    x x    x    x x    x 		(2x)

riff A: violin
|--------------------------------------------------------------|
|---10-9--10-12-10-9-10----------------------------------------|
|------------------------7--6--2-------------------------------|
|-7------------------------------------------------------------|
|-------------------------------------------3-3----------------|
|-------------------------------------------1-1----------------|
					    x x	(2x)
riff F:
|--------------------------------------------------------------|
|--------------------------------------------------------------|
|--------------------------------------------------------------|
|--------------------------------------------------------------|
|-5-5--5-5--5-5-5--5-5--8-8-8--8-8--5-5-5--5-5-----------------|
|-3-3--3-3--3-3-3--3-3--6-6-6--6-6--3-3-3--3-3-----------------|
  x    x    x x    x    x x    x    x x    x	(2x)

riff A: violin
|--------------------------------------------------------------|
|---10-9--10-12-10-9-10----------------------------------------|
|------------------------7--6--2-------------------------------|
|-7------------------------------------------------------------|
|-------------------------------------------3-3----------------|
|-------------------------------------------1-1----------------|
					    x x	(2x)
riff G:
|--------------------------------------------------------------|
|--------------------------------------------------------------|
|--------------------------------------------------------------|
|--------------------------------------------------------------|
|-7-7-7--7-7-7--7-7-7--7-7-7--7-7-7--7-7-7--7-7-7--8-10--------|
|-5-5-5--5-5-5--5-5-5--5-5-5--5-5-5--5-5-5--5-5-5--6--8--------|
  x x    x x    x x    x x    x x    x x    x x	(2x)

this riff is missing (cause there is keyboard, guitars it's hard to hear,
though it sounds easy)

Solo:
|--------------------------------------------------------------|
|--------------------------------------------------------------|
|--------------------------------------------------------------|
|-7~-7\5\3-----3/5-5-5/7--7\5\3---3/5--------------------------|
|----------5~-------------------5------------------------------|
|--------------------------------------------------------------|
						(4x)
riff G:
|--------------------------------------------------------------|
|--------------------------------------------------------------|
|--------------------------------------------------------------|
|--------------------------------------------------------------|
|-7-7-7--7-7-7--7-7-7--7-7-7--7-7-7--7-7-7--7-7-7--8-10--------|
|-5-5-5--5-5-5--5-5-5--5-5-5--5-5-5--5-5-5--5-5-5--6--8--------|
  x x    x x    x x    x x    x x    x x    x x	(2x)

  Visit MetalTabs.com for more metal tablature