Site menu:

    

Browse: 0-9 A B C D E F G H I J K L N O P Q R S T U V W X Y Z

thursday - understanding in a car crash:



Title: Understanding In A Car Crash
Artist: 
Album: Full Collapse
Author: Thursday


Track 1: dist 1

E|---------------------------|---------------------------------|------------------------------|
B|---------------------------|-5---0-------------------5---0---|------------------------------|
G|---------------5---0---0---|---------0---5---0---0-----------|-0---5---0--------5---0---0---|
D|----------7----------------|---------------------------------|-------------3----------------|
A|---------------------------|---------------------------------|------------------------------|
D|---------------------------|---------------------------------|------------------------------|


E|---------------------------------|------------------------------|---------------------------------|
B|-5---0-------------------5---0---|------------------------------|-5---0-------------------5---0---|
G|---------0---5---0---------------|-0---5---0--------5---0---0---|---------0---5---0---0-----------|
D|---------------------3-----------|-------------7----------------|---------------------------------|
A|---------------------------------|------------------------------|---------------------------------|
D|---------------------------------|------------------------------|---------------------------------|


E|------------------------------|---------------------------------|------------------------------|
B|------------------------------|-5---0-------------------5---0---|------------------------------|
G|-0---5---0--------5---0---0---|---------0---5---0---------------|-0---5---0--------5---0---0---|
D|-------------3----------------|---------------------3-----------|-------------7----------------|
A|------------------------------|---------------------------------|------------------------------|
D|------------------------------|---------------------------------|------------------------------|


E|---------------------------------|------------------------------|---------------------------------|
B|-5---0-------------------5---0---|------------------------------|-5---0-------------------5---0---|
G|---------0---5---0---0-----------|-0---5---0--------5---0---0---|---------0---5---0---------------|
D|---------------------------------|-------------3----------------|---------------------3-----------|
A|---------------------------------|------------------------------|---------------------------------|
D|---------------------------------|------------------------------|---------------------------------|


E|------------------------------|---------------------------------|------------------------------|
B|------------------------------|-5---0-------------------5---0---|------------------------------|
G|-0---5---0--------5---0---0---|---------0---5---0---0-----------|-0---5---0--------5---0---0---|
D|-------------7----------------|---------------------------------|-------------3----------------|
A|------------------------------|---------------------------------|------------------------------|
D|------------------------------|---------------------------------|------------------------------|


E|---------------------------------|-----------------------|--------|--------|--------|
B|-5---0-------------------5---0---|-----------------------|--------|--------|--------|
G|---------0---5---0---------------|-0---5---0-------------|--------|--------|--------|
D|---------------------3-----------|-----------------------|--------|--------|--------|
A|---------------------------------|-----------------------|--------|--------|--------|
D|---------------------------------|-----------------------|--------|--------|--------|


E|-------15------------|------------0--------|---------------15-------|---------------------|
B|---------------------|------------12-------|-13---------------------|------------15-------|
G|---------------------|---------------------|------------------------|---------------------|
D|---------------------|---------------------|------------------------|---------------------|
A|---------------------|---------------------|------------------------|---------------------|
D|---------------------|---------------------|------------------------|---------------------|


E|---------------15-------|-15------------0--------|---------------15-------|---------------------|
B|-12---------------------|---------------12-------|-13---------------------|------------15-------|
G|------------------------|------------------------|------------------------|---------------------|
D|------------------------|------------------------|------------------------|---------------------|
A|------------------------|------------------------|------------------------|---------------------|
D|------------------------|------------------------|------------------------|---------------------|


E|--------------------|--------|--------|--------|--------|--------|--------|--------|
B|-12-----------------|--------|--------|--------|--------|--------|--------|--------|
G|--------------------|--------|--------|--------|--------|--------|--------|--------|
D|--------------------|--------|--------|--------|--------|--------|--------|--------|
A|--------------------|--------|--------|--------|--------|--------|--------|--------|
D|--------------------|--------|--------|--------|--------|--------|--------|--------|


E|------------------------|---------------------------------|------------------------------|
B|------------------------|-5---0-------------------5---0---|------------------------------|
G|------------5---0---0---|---------0---5---0---0-----------|-0---5---0--------5---0---0---|
D|-------7----------------|---------------------------------|-------------3----------------|
A|------------------------|---------------------------------|------------------------------|
D|------------------------|---------------------------------|------------------------------|


E|---------------------------------|------------------------------|---------------------------------|
B|-5---0-------------------5---0---|------------------------------|-5---0-------------------5---0---|
G|---------0---5---0---------------|-0---5---0--------5---0---0---|---------0---5---0---0-----------|
D|---------------------3-----------|-------------7----------------|---------------------------------|
A|---------------------------------|------------------------------|---------------------------------|
D|---------------------------------|------------------------------|---------------------------------|


E|------------------------------|---------------------------------|------------------------------|
B|------------------------------|-5---0-------------------5---0---|------------------------------|
G|-0---5---0--------5---0---0---|---------0---5---0---------------|-0---5---0--------5---0---0---|
D|-------------3----------------|---------------------3-----------|-------------7----------------|
A|------------------------------|---------------------------------|------------------------------|
D|------------------------------|---------------------------------|------------------------------|


E|---------------------------------|------------------------------|---------------------------------|
B|-5---0-------------------5---0---|------------------------------|-5---0-------------------5---0---|
G|---------0---5---0---0-----------|-0---5---0--------5---0---0---|---------0---5---0---------------|
D|---------------------------------|-------------3----------------|---------------------3-----------|
A|---------------------------------|------------------------------|---------------------------------|
D|---------------------------------|------------------------------|---------------------------------|


E|------------------------------|---------------------------------|------------------------------|
B|------------------------------|-5---0-------------------5---0---|------------------------------|
G|-0---5---0--------5---0---0---|---------0---5---0---0-----------|-0---5---0--------5---0---0---|
D|-------------7----------------|---------------------------------|-------------3----------------|
A|------------------------------|---------------------------------|------------------------------|
D|------------------------------|---------------------------------|------------------------------|


E|---------------------------------|-----------------------|--------|--------|--------|
B|-5---0-------------------5---0---|-----------------------|--------|--------|--------|
G|---------0---5---0---------------|-0---5---0-------------|--------|--------|--------|
D|---------------------3-----------|-----------------------|--------|--------|--------|
A|---------------------------------|-----------------------|--------|--------|--------|
D|---------------------------------|-----------------------|--------|--------|--------|


E|--------|--------|--------|--------|--------|--------|--------|--------|--------|
B|--------|--------|--------|--------|--------|--------|--------|--------|--------|
G|--------|--------|--------|--------|--------|--------|--------|--------|--------|
D|--------|--------|--------|--------|--------|--------|--------|--------|--------|
A|--------|--------|--------|--------|--------|--------|--------|--------|--------|
D|--------|--------|--------|--------|--------|--------|--------|--------|--------|


E|--------|--------|--------|--------|--------|--------|--------|--------|--------|
B|--------|--------|--------|--------|--------|--------|--------|--------|--------|
G|--------|--------|--------|--------|--------|--------|--------|--------|--------|
D|--------|--------|--------|--------|--------|--------|--------|--------|--------|
A|--------|--------|--------|--------|--------|--------|--------|--------|--------|
D|--------|--------|--------|--------|--------|--------|--------|--------|--------|


E|--------|--------|--------|--------|--------|--------|--------|--------|--------|
B|--------|--------|--------|--------|--------|--------|--------|--------|--------|
G|--------|--------|--------|--------|--------|--------|--------|--------|--------|
D|--------|--------|--------|--------|--------|--------|--------|--------|--------|
A|--------|--------|--------|--------|--------|--------|--------|--------|--------|
D|--------|--------|--------|--------|--------|--------|--------|--------|--------|


E|--------|--------|--------|--------|--------|--------|--------|--------|--------|
B|--------|--------|--------|--------|--------|--------|--------|--------|--------|
G|--------|--------|--------|--------|--------|--------|--------|--------|--------|
D|--------|--------|--------|--------|--------|--------|--------|--------|--------|
A|--------|--------|--------|--------|--------|--------|--------|--------|--------|
D|--------|--------|--------|--------|--------|--------|--------|--------|--------|


E|------------------------|---------------------------------|------------------------------|
B|------------------------|-5---0-------------------5---0---|------------------------------|
G|------------5---0---0---|---------0---5---0---0-----------|-0---5---0--------5---0---0---|
D|-------7----------------|---------------------------------|-------------3----------------|
A|------------------------|---------------------------------|------------------------------|
D|------------------------|---------------------------------|------------------------------|


E|---------------------------------|------------------------------|---------------------------------|
B|-5---0-------------------5---0---|------------------------------|-5---0-------------------5---0---|
G|---------0---5---0---------------|-0---5---0--------5---0---0---|---------0---5---0---0-----------|
D|---------------------3-----------|-------------7----------------|---------------------------------|
A|---------------------------------|------------------------------|---------------------------------|
D|---------------------------------|------------------------------|---------------------------------|


E|------------------------------|---------------------------------|------------------------------|
B|------------------------------|-5---0-------------------5---0---|------------------------------|
G|-0---5---0--------5---0---0---|---------0---5---0---------------|-0---5---0--------5---0---0---|
D|-------------3----------------|---------------------3-----------|-------------7----------------|
A|------------------------------|---------------------------------|------------------------------|
D|------------------------------|---------------------------------|------------------------------|


E|---------------------------------|------------------------------|---------------------------------|
B|-5---0-------------------5---0---|------------------------------|-5---0-------------------5---0---|
G|---------0---5---0---0-----------|-0---5---0--------5---0---0---|---------0---5---0---------------|
D|---------------------------------|-------------3----------------|---------------------3-----------|
A|---------------------------------|------------------------------|---------------------------------|
D|---------------------------------|------------------------------|---------------------------------|


E|------------------------------|---------------------------------|------------------------------|
B|------------------------------|-5---0-------------------5---0---|------------------------------|
G|-0---5---0--------5---0---0---|---------0---5---0---0-----------|-0---5---0--------5---0---0---|
D|-------------7----------------|---------------------------------|-------------3----------------|
A|------------------------------|---------------------------------|------------------------------|
D|------------------------------|---------------------------------|------------------------------|


E|---------------------------------|-----------------------|--------|--------|--------|
B|-5---0-------------------5---0---|-----------------------|--------|--------|--------|
G|---------0---5---0---------------|-0---5---0-------------|--------|--------|--------|
D|---------------------3-----------|-----------------------|--------|--------|--------|
A|---------------------------------|-----------------------|--------|--------|--------|
D|---------------------------------|-----------------------|--------|--------|--------|


E|--------|--------|--------|--------|--------|--------|--------|--------|--------|
B|--------|--------|--------|--------|--------|--------|--------|--------|--------|
G|--------|--------|--------|--------|--------|--------|--------|--------|--------|
D|--------|--------|--------|--------|--------|--------|--------|--------|--------|
A|--------|--------|--------|--------|--------|--------|--------|--------|--------|
D|--------|--------|--------|--------|--------|--------|--------|--------|--------|


E|--------|--------|--------|--------|--------|--------|--------|--------|--------|
B|--------|--------|--------|--------|--------|--------|--------|--------|--------|
G|--------|--------|--------|--------|--------|--------|--------|--------|--------|
D|--------|--------|--------|--------|--------|--------|--------|--------|--------|
A|--------|--------|--------|--------|--------|--------|--------|--------|--------|
D|--------|--------|--------|--------|--------|--------|--------|--------|--------|


E|--------|--------|-------15------------|--------------15--------|----------15------------|
B|--------|--------|-------------12--12--|-----13---13--------12--|-----13---------12--12--|
G|--------|--------|---------------------|------------------------|------------------------|
D|--------|--------|---------------------|------------------------|------------------------|
A|--------|--------|---------------------|------------------------|------------------------|
D|--------|--------|---------------------|------------------------|------------------------|


E|--------------15--------|----------15------------|--------------15--------|----------15------------|
B|-----13---13--------12--|-----13---------12--12--|-----13---13--------12--|-----13---------12--12--|
G|------------------------|------------------------|------------------------|------------------------|
D|------------------------|------------------------|------------------------|------------------------|
A|------------------------|------------------------|------------------------|------------------------|
D|------------------------|------------------------|------------------------|------------------------|


E|--------------15--------|------------------------------|------------------------------|
B|-----13---13--------12--|-----13-----------------------|------------------------------|
G|------------------------|----------12--14--14--14--14--|-----14--14--14--12--12---12--|
D|------------------------|----------12------14--14--14--|-----14--14--14------12---12--|
A|------------------------|----------10--12--12--12--12--|-----12--12--12--10--10---10--|
D|------------------------|------------------------------|------------------------------|


E|------------------------------|------------------------------|---------------------------------|
B|------------------------------|------------------------------|---------------------------------|
G|-----12--12--12--16--16---16--|-----16---16--14--14--14--14--|-14--14--12--12--14--14--14--14--|
D|-----12--12--12------16---16--|-----16---16------14--14--14--|-14--14--19--12------14--14--14--|
A|-----10--10--10--14--14---14--|-----14---14--12--12--12--12--|-12--12--10--10--12--12--12--12--|
D|------------------------------|------------------------------|---------------------------------|


E|------------------------------|------------------------------|------------------------------|
B|------------------------------|------------------------------|------------------------------|
G|-----14--14--14--12--12---12--|-----12--12--12--16--16---16--|-----16---16--14--14--14--14--|
D|-----14--14--14------12---12--|-----12--12--12------16---16--|-----16---16------14--14--14--|
A|-----12--12--12--10--10---10--|-----10--10--10--14--14---14--|-----14---14--12--12--12--12--|
D|------------------------------|------------------------------|------------------------------|


E|---------------------------------|---------------------------------|---------------------------------|
B|---------------------------------|---------------------------------|---------------------------------|
G|-14--14--12--12--14--14--14--14--|-14--14--14--14--16--16--16--16--|-16--16--16--16--17--17--17--17--|
D|-14--14--19--12------14--14--14--|-14--14--14--14------16--16--16--|-16--16--16--12------17--17--17--|
A|-12--12--10--10--12--12--12--12--|-12--12--12--12--14--14--14--14--|-14--14--14--14--15--15--15--15--|
D|---------------------------------|---------------------------------|---------------------------------|


E|---------------------------------|---------------------------------|---------------------------------|
B|---------------------------------|---------------------------------|---------------------------------|
G|-17--17--17--17--19--19--19--19--|-19--19--19--12--14--14--14--14--|-14--14--14--14--16--16--16--16--|
D|-17--17--17--17------19--19--19--|-19--19--19--12------14--14--14--|-14--14--14--14------16--16--16--|
A|-15--15--15--15--17--17--17--17--|-17--17--17--10--12--12--12--12--|-12--12--12--12--14--14--14--14--|
D|---------------------------------|---------------------------------|---------------------------------|


E|---------------------------------|---------------------------------|----------15------------|
B|---------------------------------|---------------------------------|----------------12--12--|
G|-16--16--16--16--17--17--17--17--|-17--17--17--17--19--19--19--19--|-19---------------------|
D|-16--16--16--12------17--17--17--|-17--17--17--17------19--19--19--|-19---------------------|
A|-14--14--14--14--15--15--15--15--|-15--15--15--15--17--17--17--17--|-17---------------------|
D|---------------------------------|---------------------------------|------------------------|


E|--------------15--------|----------15------------|--------------15--------|----------15------------|
B|-----13---13--------12--|-----13---------12--12--|-----13---13--------12--|-----13---------12--12--|
G|------------------------|------------------------|------------------------|------------------------|
D|------------------------|------------------------|------------------------|------------------------|
A|------------------------|------------------------|------------------------|------------------------|
D|------------------------|------------------------|------------------------|------------------------|


E|--------------15--------|----------15------------|--------------15--------|----------15------------|
B|-----13---13--------12--|-----13---------12--12--|-----13---13--------12--|-----13---------12--12--|
G|------------------------|------------------------|------------------------|------------------------|
D|------------------------|------------------------|------------------------|------------------------|
A|------------------------|------------------------|------------------------|------------------------|
D|------------------------|------------------------|------------------------|------------------------|


E|--------------15--------|----------15------------|--------------15--------|----------15------------|
B|-----13---13--------12--|-----13---------12--12--|-----13---13--------12--|-----13---------12--12--|
G|------------------------|------------------------|------------------------|------------------------|
D|------------------------|------------------------|------------------------|------------------------|
A|------------------------|------------------------|------------------------|------------------------|
D|------------------------|------------------------|------------------------|------------------------|


E|--------------15--------|----------15------------|--------------15--------|-----------------|
B|-----13---13--------12--|-----13---------12--12--|-----13---13--------12--|-----13---12-----|
G|------------------------|------------------------|------------------------|-----------------|
D|------------------------|------------------------|------------------------|-----------------|
A|------------------------|------------------------|------------------------|-----------------|
D|------------------------|------------------------|------------------------|-----------------|


E|--------------|
B|-------12-----|
G|--------------|
D|--------------|
A|--------------|
D|--------------|





Track 2: dist 2

E|------------------------|---------------------|------------------------------|---------------------|
B|------------------------|---------------------|------------------------------|---------------------|
G|----------5----5----5---|-5-----5-----5---5---|-5---5------------------------|---------------------|
D|----------2----0----0---|-0-----0-----0---0---|-0---0---------------5----5---|-5-----5-----5---5---|
A|----------0----0----0---|-0-----0-----0---0---|-0---0---3---3---3---3----3---|-3-----3-----3---3---|
D|------------------------|---------------------|---------3---3---3---3----3---|-3-----3-----3---3---|


E|---------------------------|---------------------|------------------------------|
B|---------0-----------------|---------------------|------------------------------|
G|---------0---5----5----5---|-5-----5-----5---5---|-----5---0--------------------|
D|-----5---0---2----2----2---|-2-----2-----2---2---|-----2---0-----------5----5---|
A|-----3---0---0----0----0---|-0-----0-----0---0---|-----0---0---3---3---3----3---|
D|-----3---------------------|---------------------|-------------3---3---3----3---|


E|---------------------|------------------------------|---------------------------------|
B|---------------------|-----0------------------------|-5---0-------------------5---0---|
G|---------------------|-----0------------5---0-------|-------------5---0---------------|
D|-5-----5-----5---5---|-5---0------------------------|---------------------------------|
A|-3-----3-----3---3---|-3-------0---0------------0---|---------0-----------0-----------|
D|-3-----3-----3---3---|-3----------------------------|---------------------------------|


E|------------------------------|---------------------------------|---------------------------------|
B|------------------------------|-5---0-------------------5---0---|---------------------------------|
G|-----5---0--------5---0---0---|-------------5---0---------------|-----5---0-----------5---0-------|
D|------------------------------|---------------------------------|---------------------------------|
A|-0-----------3----------------|---------3-----------3-----------|-3-----------0---0-----------0---|
D|-------------3----------------|---------3-----------3-----------|-3-------------------------------|


E|---------------------------------|---------------------------------|------------------------------|
B|-5---0-------------------5---0---|---------------------------------|-5---0----------------0---0---|
G|-------------5---0---------------|-----5---0-----------5---0-------|----------------------3---3---|
D|---------------------------------|---------------------3-----------|-------------5----5---3---3---|
A|---------0-----------0-----------|-0-----------3---3---3-------3---|---------3---3----3---3---3---|
D|---------------------------------|-------------3---3---3-------3---|---------3---3----3---3---3---|


E|-----------------------|--------|--------|--------|--------|--------|--------|--------|
B|-----------------------|--------|--------|--------|--------|--------|--------|--------|
G|-----5---0-------------|--------|--------|--------|--------|--------|--------|--------|
D|-----3-----------------|--------|--------|--------|--------|--------|--------|--------|
A|-3---3-----------------|--------|--------|--------|--------|--------|--------|--------|
D|-3---3-----------------|--------|--------|--------|--------|--------|--------|--------|


E|--------|--------|--------|--------|--------|--------|--------|--------|--------|
B|--------|--------|--------|--------|--------|--------|--------|--------|--------|
G|--------|--------|--------|--------|--------|--------|--------|--------|--------|
D|--------|--------|--------|--------|--------|--------|--------|--------|--------|
A|--------|--------|--------|--------|--------|--------|--------|--------|--------|
D|--------|--------|--------|--------|--------|--------|--------|--------|--------|


E|--------|--------|--------|---------------------|---------------------|------------------------------|
B|--------|--------|--------|---------------------|---------------------|------------------------------|
G|--------|--------|--------|-------5----5----5---|-5-----5-----5---5---|-5---5------------------------|
D|--------|--------|--------|-------2----0----0---|-0-----0-----0---0---|-0---0---------------5----5---|
A|--------|--------|--------|-------0----0----0---|-0-----0-----0---0---|-0---0---3---3---3---3----3---|
D|--------|--------|--------|---------------------|---------------------|---------3---3---3---3----3---|


E|---------------------|---------------------------|---------------------|------------------------------|
B|---------------------|---------0-----------------|---------------------|------------------------------|
G|---------------------|---------0---5----5----5---|-5-----5-----5---5---|-----5---0--------------------|
D|-5-----5-----5---5---|-----5---0---2----2----2---|-2-----2-----2---2---|-----2---0-----------5----5---|
A|-3-----3-----3---3---|-----3---0---0----0----0---|-0-----0-----0---0---|-----0---0---3---3---3----3---|
D|-3-----3-----3---3---|-----3---------------------|---------------------|-------------3---3---3----3---|


E|---------------------|------------------------------|---------------------------------|
B|---------------------|-----0------------------------|-5---0-------------------5---0---|
G|---------------------|-----0------------5---0-------|-------------5---0---------------|
D|-5-----5-----5---5---|-5---0------------------------|---------------------------------|
A|-3-----3-----3---3---|-3-------0---0------------0---|---------0-----------0-----------|
D|-3-----3-----3---3---|-3----------------------------|---------------------------------|


E|------------------------------|---------------------------------|---------------------------------|
B|------------------------------|-5---0-------------------5---0---|---------------------------------|
G|-----5---0--------5---0---0---|-------------5---0---------------|-----5---0-----------5---0-------|
D|------------------------------|---------------------------------|---------------------------------|
A|-0-----------3----------------|---------3-----------3-----------|-3-----------0---0-----------0---|
D|-------------3----------------|---------3-----------3-----------|-3-------------------------------|


E|---------------------------------|---------------------------------|------------------------------|
B|-5---0-------------------5---0---|---------------------------------|-5---0----------------0---0---|
G|-------------5---0---------------|-----5---0-----------5---0-------|----------------------3---3---|
D|---------------------------------|---------------------3-----------|-------------5----5---3---3---|
A|---------0-----------0-----------|-0-----------3---3---3-------3---|---------3---3----3---3---3---|
D|---------------------------------|-------------3---3---3-------3---|---------3---3----3---3---3---|


E|-----------------------|--------|--------|--------|--------|--------|--------|--------|
B|-----------------------|--------|--------|--------|--------|--------|--------|--------|
G|-----5---0-------------|--------|--------|--------|--------|--------|--------|--------|
D|-----3-----------------|--------|--------|--------|--------|--------|--------|--------|
A|-3---3-----------------|--------|--------|--------|--------|--------|--------|--------|
D|-3---3-----------------|--------|--------|--------|--------|--------|--------|--------|


E|--------|--------|--------|--------|--------|--------|--------|--------|--------|
B|--------|--------|--------|--------|--------|--------|--------|--------|--------|
G|--------|--------|--------|--------|--------|--------|--------|--------|--------|
D|--------|--------|--------|--------|--------|--------|--------|--------|--------|
A|--------|--------|--------|--------|--------|--------|--------|--------|--------|
D|--------|--------|--------|--------|--------|--------|--------|--------|--------|


E|--------|--------|--------|--------|--------|--------|--------|--------|--------|
B|--------|--------|--------|--------|--------|--------|--------|--------|--------|
G|--------|--------|--------|--------|--------|--------|--------|--------|--------|
D|--------|--------|--------|--------|--------|--------|--------|--------|--------|
A|--------|--------|--------|--------|--------|--------|--------|--------|--------|
D|--------|--------|--------|--------|--------|--------|--------|--------|--------|


E|--------|--------|--------|--------|--------|--------|--------|--------|--------|
B|--------|--------|--------|--------|--------|--------|--------|--------|--------|
G|--------|--------|--------|--------|--------|--------|--------|--------|--------|
D|--------|--------|--------|--------|--------|--------|--------|--------|--------|
A|--------|--------|--------|--------|--------|--------|--------|--------|--------|
D|--------|--------|--------|--------|--------|--------|--------|--------|--------|


E|--------|--------|--------|--------|--------|---------------------|---------------------|
B|--------|--------|--------|--------|--------|---------------------|---------------------|
G|--------|--------|--------|--------|--------|-------5----5----5---|-5-----5-----5---5---|
D|--------|--------|--------|--------|--------|-------2----0----0---|-0-----0-----0---0---|
A|--------|--------|--------|--------|--------|-------0----0----0---|-0-----0-----0---0---|
D|--------|--------|--------|--------|--------|---------------------|---------------------|


E|------------------------------|---------------------|---------------------------|
B|------------------------------|---------------------|---------0-----------------|
G|-5---5------------------------|---------------------|---------0---5----5----5---|
D|-0---0---------------5----5---|-5-----5-----5---5---|-----5---0---2----2----2---|
A|-0---0---3---3---3---3----3---|-3-----3-----3---3---|-----3---0---0----0----0---|
D|---------3---3---3---3----3---|-3-----3-----3---3---|-----3---------------------|


E|---------------------|------------------------------|---------------------|------------------------------|
B|---------------------|------------------------------|---------------------|-----0------------------------|
G|-5-----5-----5---5---|-----5---0--------------------|---------------------|-----0------------5---0-------|
D|-2-----2-----2---2---|-----2---0-----------5----5---|-5-----5-----5---5---|-5---0------------------------|
A|-0-----0-----0---0---|-----0---0---3---3---3----3---|-3-----3-----3---3---|-3-------0---0------------0---|
D|---------------------|-------------3---3---3----3---|-3-----3-----3---3---|-3----------------------------|


E|---------------------------------|------------------------------|---------------------------------|
B|-5---0-------------------5---0---|------------------------------|-5---0-------------------5---0---|
G|-------------5---0---------------|-----5---0--------5---0---0---|-------------5---0---------------|
D|---------------------------------|------------------------------|---------------------------------|
A|---------0-----------0-----------|-0-----------3----------------|---------3-----------3-----------|
D|---------------------------------|-------------3----------------|---------3-----------3-----------|


E|---------------------------------|---------------------------------|---------------------------------|
B|---------------------------------|-5---0-------------------5---0---|---------------------------------|
G|-----5---0-----------5---0-------|-------------5---0---------------|-----5---0-----------5---0-------|
D|---------------------------------|---------------------------------|---------------------3-----------|
A|-3-----------0---0-----------0---|---------0-----------0-----------|-0-----------3---3---3-------3---|
D|-3-------------------------------|---------------------------------|-------------3---3---3-------3---|


E|------------------------------|-----------------------|--------|--------|--------|
B|-5---0----------------0---0---|-----------------------|--------|--------|--------|
G|----------------------3---3---|-----5---0-------------|--------|--------|--------|
D|-------------5----5---3---3---|-----3-----------------|--------|--------|--------|
A|---------3---3----3---3---3---|-3---3-----------------|--------|--------|--------|
D|---------3---3----3---3---3---|-3---3-----------------|--------|--------|--------|


E|--------|--------|--------|--------|--------|--------|--------|--------|--------|
B|--------|--------|--------|--------|--------|--------|--------|--------|--------|
G|--------|--------|--------|--------|--------|--------|--------|--------|--------|
D|--------|--------|--------|--------|--------|--------|--------|--------|--------|
A|--------|--------|--------|--------|--------|--------|--------|--------|--------|
D|--------|--------|--------|--------|--------|--------|--------|--------|--------|


E|--------|--------|--------|--------|--------|--------|--------|--------|--------|
B|--------|--------|--------|--------|--------|--------|--------|--------|--------|
G|--------|--------|--------|--------|--------|--------|--------|--------|--------|
D|--------|--------|--------|--------|--------|--------|--------|--------|--------|
A|--------|--------|--------|--------|--------|--------|--------|--------|--------|
D|--------|--------|--------|--------|--------|--------|--------|--------|--------|


E|--------|--------|--------|--------|--------|--------|--------|--------|--------|
B|--------|--------|--------|--------|--------|--------|--------|--------|--------|
G|--------|--------|--------|--------|--------|--------|--------|--------|--------|
D|--------|--------|--------|--------|--------|--------|--------|--------|--------|
A|--------|--------|--------|--------|--------|--------|--------|--------|--------|
D|--------|--------|--------|--------|--------|--------|--------|--------|--------|


E|--------|---------------------------|---------------------------------|------------------------------|
B|--------|---------------------------|---------------------------------|--------------------------3---|
G|--------|-------------------14--14--|-----14------------------17--17--|-----17--17---------------2---|
D|--------|-------7---7---7---14--14--|-----14--0---3---3---3---17--17--|-----17--17--0---0---0----0---|
A|--------|-------7---7---7---12--12--|-----12--0---3---3---3---15--15--|-----15--15--0---0---0----0---|
D|--------|-------7---7---7-----------|-------------3---3---3-----------|-------------0---0---0----0---|


E|------------------------|------------------------------|---------------------------------|
B|-------3---3---3----3---|------------------------------|---------------------------------|
G|-------2---2---2----2---|----------------------14--14--|-----14------------------17--17--|
D|-------0---0---0----0---|----------7---7---7---14--14--|-----14--0---3---3---3---17--17--|
A|-------0---0---0----0---|-----0----7---7---7---12--12--|-----12--0---3---3---3---15--15--|
D|-------0---0---0----0---|-----0----7---7---7-----------|-------------3---3---3-----------|


E|------------------------------|------------------------|------------------------------|
B|--------------------------3---|-------3---3---3----3---|------------------------------|
G|-----17--17---------------2---|-------2---2---2----2---|----------------------14--14--|
D|-----17--17--0---0---0----0---|-------0---0---0----0---|----------7---7---7---14--14--|
A|-----15--15--0---0---0----0---|-------0---0---0----0---|-----0----7---7---7---12--12--|
D|-------------0---0---0----0---|-------0---0---0----0---|-----0----7---7---7-----------|


E|---------------------------------|------------------------------|------------------------|
B|---------------------------------|--------------------------3---|-------3---3---3----3---|
G|-----14------------------17--17--|-----17--17---------------2---|-------2---2---2----2---|
D|-----14--0---3---3---3---17--17--|-----17--17--0---0---0----0---|-------0---0---0----0---|
A|-----12--0---3---3---3---15--15--|-----15--15--0---0---0----0---|-------0---0---0----0---|
D|-------------3---3---3-----------|-------------0---0---0----0---|-------0---0---0----0---|


E|------------------------------|---------------------------------|------------------------------|
B|------------------------------|---------------------------------|--------------------------3---|
G|----------------------14--14--|-----14------------------17--17--|-----17--17---------------2---|
D|----------7---7---7---14--14--|-----14--0---3---3---3---17--17--|-----17--17--0---0---0----0---|
A|-----0----7---7---7---12--12--|-----12--0---3---3---3---15--15--|-----15--15--0---0---0----0---|
D|-----0----7---7---7-----------|-------------3---3---3-----------|-------------0---0---0----0---|


E|------------------------|----------15----------15------|-----15----------15----------15--|
B|-------3---3---3----3---|--------------12--13------12--|-13------12--13------12--13------|
G|-------2---2---2----2---|------------------------------|---------------------------------|
D|-------0---0---0----0---|------------------------------|---------------------------------|
A|-------0---0---0----0---|-----0------------------------|---------------------------------|
D|-------0---0---0----0---|-----0------------------------|---------------------------------|


E|---------15----------15----------|-15----------15----------15------|-----15------15----------15------|
B|-12--13------12--13------12--13--|-----12--13------12--13------12--|-13------12------12--13------12--|
G|---------------------------------|---------------------------------|---------------------------------|
D|---------------------------------|---------------------------------|---------------------------------|
A|---------------------------------|---------------------------------|---------------------------------|
D|---------------------------------|---------------------------------|---------------------------------|


E|-----15----------15----------15--|---------15----------15----------|-15----------15----------15------|
B|-13------12--13------12--13------|-12--13------12--13------12--13--|-----12--13------12--13------12--|
G|---------------------------------|---------------------------------|---------------------------------|
D|---------------------------------|---------------------------------|---------------------------------|
A|---------------------------------|---------------------------------|---------------------------------|
D|---------------------------------|---------------------------------|---------------------------------|


E|-----15------15----------15------|-----15----------15----------15--|---------15----------15----------|
B|-13------12------12--13------12--|-13------12--13------12--13------|-12--13------12--13------12--13--|
G|---------------------------------|---------------------------------|---------------------------------|
D|---------------------------------|---------------------------------|---------------------------------|
A|---------------------------------|---------------------------------|---------------------------------|
D|---------------------------------|---------------------------------|---------------------------------|


E|-15----------15----------15------|-----15------15----------15------|-----15----------15----------15--|
B|-----12--13------12--13------12--|-13------12------12--13------12--|-13------12--13------12--13------|
G|---------------------------------|---------------------------------|---------------------------------|
D|---------------------------------|---------------------------------|---------------------------------|
A|---------------------------------|---------------------------------|---------------------------------|
D|---------------------------------|---------------------------------|---------------------------------|


E|---------15----------15----------|-15----------15----------15------|-----15-------------|
B|-12--13------12--13------12--13--|-----12--13------12--13------12--|-13------12--12-----|
G|---------------------------------|---------------------------------|--------------------|
D|---------------------------------|---------------------------------|--------------------|
A|---------------------------------|---------------------------------|--------------------|
D|---------------------------------|---------------------------------|--------------------|


E|--------------|
B|-------12-----|
G|--------------|
D|--------------|
A|--------------|
D|--------------|





Track 3: clean

E|--------|--------|--------|--------|--------|--------|--------|--------|--------|
B|--------|--------|--------|--------|--------|--------|--------|--------|--------|
G|--------|--------|--------|--------|--------|--------|--------|--------|--------|
D|--------|--------|--------|--------|--------|--------|--------|--------|--------|
A|--------|--------|--------|--------|--------|--------|--------|--------|--------|
D|--------|--------|--------|--------|--------|--------|--------|--------|--------|


E|--------|--------|--------|--------|--------|--------|--------|---------------------------|
B|--------|--------|--------|--------|--------|--------|--------|-----------0-----------8---|
G|--------|--------|--------|--------|--------|--------|--------|---------------5-----------|
D|--------|--------|--------|--------|--------|--------|--------|-------------------7-------|
A|--------|--------|--------|--------|--------|--------|--------|-------0-------------------|
D|--------|--------|--------|--------|--------|--------|--------|---------------------------|


E|---------------------------------|-----------------------------0---|---------------------------------|
B|---------------------5---0-------|-----------------0---------------|---------0---------------3-------|
G|-5-------7---5-------------------|-5---0---5-----------5-----------|-5-----------5-------5-------5---|
D|-----7-----------------------7---|-------------3-----------3-------|-----3-----------0---------------|
A|-----------------0---------------|---------------------------------|---------------------------------|
D|---------------------------------|---------------------------------|---------------------------------|


E|---------------------------------|---------------------------------|-----------------------------0---|
B|-----3-----------0-----------8---|---------------------5---0-------|-----------------0---------------|
G|---------0-----------5-----------|-5-------7---5-------------------|-5---0---5-----------5-----------|
D|-------------------------7-------|-----7-----------------------7---|-------------3-----------3-------|
A|-------------0-------------------|-----------------0---------------|---------------------------------|
D|---------------------------------|---------------------------------|---------------------------------|


E|---------------------------------|---------------------------------|---------------------------------|
B|---------0---------------3-------|-----3-----------0-----------8---|---------------------5---0-------|
G|-5-----------5-------5-------5---|---------0-----------5-----------|-5-------7---5-------------------|
D|-----3-----------0---------------|-------------------------7-------|-----7-----------------------7---|
A|---------------------------------|-------------0-------------------|-----------------0---------------|
D|---------------------------------|---------------------------------|---------------------------------|


E|-----------------------------0---|---------------------------------|---------------------------------|
B|-----------------0---------------|---------0---------------3-------|-----3-----------0-----------8---|
G|-5---0---5-----------5-----------|-5-----------5-------5-------5---|---------0-----------5-----------|
D|-------------3-----------3-------|-----3-----------0---------------|-------------------------7-------|
A|---------------------------------|---------------------------------|-------------0-------------------|
D|---------------------------------|---------------------------------|---------------------------------|


E|---------------------------------|-----------------------------0---|---------------------------------|
B|---------------------5---0-------|-----------------0---------------|---------0---------------3-------|
G|-5-------7---5-------------------|-5---0---5-----------5-----------|-5-----------5-------5-------5---|
D|-----7-----------------------7---|-------------3-----------3-------|-----3-----------0---------------|
A|-----------------0---------------|---------------------------------|---------------------------------|
D|---------------------------------|---------------------------------|---------------------------------|


E|---------------------------------|---------------------------------|-----------------------0---|
B|-----3-----------0-----------8---|---------------------5---0-------|-----0--------0------------|
G|---------0-----------5-----------|-5-------7---5-------------------|-5---0------------5--------|
D|-------------7-----------7-------|-----7-----------7-----------7---|----------3----------------|
A|---------------------------------|---------------------------------|---------------------------|
D|---------------------------------|---------------------------------|---------------------------|


E|---------------------------------|--------------------|--------|--------|--------|
B|---------3---3----3--3---5---5---|-5----5-------------|--------|--------|--------|
G|-5-----------5----5--5---5---5---|-5----5-------------|--------|--------|--------|
D|-----0---------------------------|--------------------|--------|--------|--------|
A|---------------------------------|--------------------|--------|--------|--------|
D|---------------------------------|--------------------|--------|--------|--------|


E|--------|--------|--------|--------|--------|--------|--------|--------|--------|
B|--------|--------|--------|--------|--------|--------|--------|--------|--------|
G|--------|--------|--------|--------|--------|--------|--------|--------|--------|
D|--------|--------|--------|--------|--------|--------|--------|--------|--------|
A|--------|--------|--------|--------|--------|--------|--------|--------|--------|
D|--------|--------|--------|--------|--------|--------|--------|--------|--------|


E|--------|--------|--------|-----------------|-----------------|-----------------|
B|--------|--------|--------|-----------------|-------------0---|-------0-----8---|
G|--------|--------|--------|-------------9---|-------9-----9---|-------9-----9---|
D|--------|--------|--------|-------------10--|-------10----10--|-------10--------|
A|--------|--------|--------|-----------------|-----------------|-----------------|
D|--------|--------|--------|-----------------|-----------------|-----------------|


E|----------10----------10------|-----10----------------|-----------------|-----------------|
B|-----8--------8-----------8---|---------8-------------|-----------------|-------------8---|
G|-----9------------9-----------|-9-----------------10--|-------10----9---|-------9-----9---|
D|------------------------------|-------------------10--|-------10----10--|-------10--------|
A|------------------------------|-----------------------|-----------------|-----------------|
D|------------------------------|-----------------------|-----------------|-----------------|


E|----------10----------10--10--|------10------------|-----------------|-----------------|
B|-----8--------8---------------|-8------------------|-------------0---|-------0-----8---|
G|-----9------------9-----------|-9--------------9---|-------9-----9---|-------9-----9---|
D|------------------------------|----------------10--|-------10----10--|-------10--------|
A|------------------------------|--------------------|-----------------|-----------------|
D|------------------------------|--------------------|-----------------|-----------------|


E|----------10----------10------|-----10----------------|-----------------|-----------------|
B|-----8--------8-----------8---|---------8-------------|-----------------|-------------8---|
G|-----9------------9-----------|-9-----------------10--|-------10----9---|-------9-----9---|
D|------------------------------|-------------------10--|-------10----10--|-------10--------|
A|------------------------------|-----------------------|-----------------|-----------------|
D|------------------------------|-----------------------|-----------------|-----------------|


E|----------10----------10--10--|------10----------------------|---------------------------------|
B|-----8--------8---------------|-8------------0-----------8---|---------------------5---0-------|
G|-----9------------9-----------|-9----------------5-----------|-5-------7---5-------------------|
D|------------------------------|----------------------7-------|-----7-----------------------7---|
A|------------------------------|----------0-------------------|-----------------0---------------|
D|------------------------------|------------------------------|---------------------------------|


E|-----------------------------0---|---------------------------------|---------------------------------|
B|-----------------0---------------|---------0---------------3-------|-----3-----------0-----------8---|
G|-5---0---5-----------5-----------|-5-----------5-------5-------5---|---------0-----------5-----------|
D|-------------3-----------3-------|-----3-----------0---------------|-------------------------7-------|
A|---------------------------------|---------------------------------|-------------0-------------------|
D|---------------------------------|---------------------------------|---------------------------------|


E|---------------------------------|-----------------------------0---|---------------------------------|
B|---------------------5---0-------|-----------------0---------------|---------0---------------3-------|
G|-5-------7---5-------------------|-5---0---5-----------5-----------|-5-----------5-------5-------5---|
D|-----7-----------------------7---|-------------3-----------3-------|-----3-----------0---------------|
A|-----------------0---------------|---------------------------------|---------------------------------|
D|---------------------------------|---------------------------------|---------------------------------|


E|-------------0-------0----0---|-0---0----0----0--------|-0-------0---0---0-------0-------|
B|-----3-----------8---8----8---|-8---8----6----6----6---|-----6-------1---1---1-------1---|
G|---------0--------------------|------------------------|---------------------------------|
D|------------------------------|------------------------|---------------------------------|
A|------------------------------|------------------------|---------------------------------|
D|------------------------------|------------------------|---------------------------------|


E|-0-------0-------0-------0-------|-0-------0---0-------0----0---|-0---0----0----0--------|
B|-----1-------3-------3-------0---|-----0-----------8---8----8---|-8---8----6----6----6---|
G|---------------------------------|------------------------------|------------------------|
D|---------------------------------|------------------------------|------------------------|
A|---------------------------------|------------------------------|------------------------|
D|---------------------------------|------------------------------|------------------------|


E|-0-------0---0---0-------0-------|-0-------0-------0-------0-------|-0-------0---0-------0----0---|
B|-----6-------1---1---1-------1---|-----1-------3-------3-------0---|-----0-----------8---8----8---|
G|---------------------------------|---------------------------------|------------------------------|
D|---------------------------------|---------------------------------|------------------------------|
A|---------------------------------|---------------------------------|------------------------------|
D|---------------------------------|---------------------------------|------------------------------|


E|-0---0----0----0--------|-0-------0---0---0-------0-------|-0-------0-------0-------0-------|
B|-8---8----6----6----6---|-----6-------1---1---1-------1---|-----1-------3-------3-------0---|
G|------------------------|---------------------------------|---------------------------------|
D|------------------------|---------------------------------|---------------------------------|
A|------------------------|---------------------------------|---------------------------------|
D|------------------------|---------------------------------|---------------------------------|


E|-0-------0---0-------0----0---|-0---0----0----0--------|-0-------0---0---0-------0-------|
B|-----0-----------8---8----8---|-8---8----6----6----6---|-----6-------1---1---1-------1---|
G|------------------------------|------------------------|---------------------------------|
D|------------------------------|------------------------|---------------------------------|
A|------------------------------|------------------------|---------------------------------|
D|------------------------------|------------------------|---------------------------------|


E|-0-------0-------0-------0-------|-0-------0-------------|--------|--------|--------|
B|-----1-------3-------3-------0---|-----0-----------------|--------|--------|--------|
G|---------------------------------|-----------------------|--------|--------|--------|
D|---------------------------------|-----------------------|--------|--------|--------|
A|---------------------------------|-----------------------|--------|--------|--------|
D|---------------------------------|-----------------------|--------|--------|--------|


E|--------|--------|--------|--------|--------|--------|--------|--------|--------|
B|--------|--------|--------|--------|--------|--------|--------|--------|--------|
G|--------|--------|--------|--------|--------|--------|--------|--------|--------|
D|--------|--------|--------|--------|--------|--------|--------|--------|--------|
A|--------|--------|--------|--------|--------|--------|--------|--------|--------|
D|--------|--------|--------|--------|--------|--------|--------|--------|--------|


E|--------|--------|--------|-----------------|-----------------|-----------------|
B|--------|--------|--------|-----------------|-------------0---|-------0-----8---|
G|--------|--------|--------|-------------9---|-------9-----9---|-------9-----9---|
D|--------|--------|--------|-------------10--|-------10----10--|-------10--------|
A|--------|--------|--------|-----------------|-----------------|-----------------|
D|--------|--------|--------|-----------------|-----------------|-----------------|


E|----------10----------10------|-----10----------------|-----------------|-----------------|
B|-----8--------8-----------8---|---------8-------------|-----------------|-------------8---|
G|-----9------------9-----------|-9-----------------10--|-------10----9---|-------9-----9---|
D|------------------------------|-------------------10--|-------10----10--|-------10--------|
A|------------------------------|-----------------------|-----------------|-----------------|
D|------------------------------|-----------------------|-----------------|-----------------|


E|----------10----------10--10--|------10------------|-----------------|-----------------|
B|-----8--------8---------------|-8------------------|-------------0---|-------0-----8---|
G|-----9------------9-----------|-9--------------9---|-------9-----9---|-------9-----9---|
D|------------------------------|----------------10--|-------10----10--|-------10--------|
A|------------------------------|--------------------|-----------------|-----------------|
D|------------------------------|--------------------|-----------------|-----------------|


E|----------10----------10------|-----10----------------|-----------------|-----------------|
B|-----8--------8-----------8---|---------8-------------|-----------------|-------------8---|
G|-----9------------9-----------|-9-----------------10--|-------10----9---|-------9-----9---|
D|------------------------------|-------------------10--|-------10----10--|-------10--------|
A|------------------------------|-----------------------|-----------------|-----------------|
D|------------------------------|-----------------------|-----------------|-----------------|


E|----------10----------10--10--|------10----------------------|------------------------------|
B|-----8--------8---------------|-8----------------------------|------------------------------|
G|-----9------------9-----------|-9--------12--14--14--14--14--|-----14--14--14--16--16---16--|
D|------------------------------|----------12------14--14--14--|-----14--14--14------16---16--|
A|------------------------------|----------10--12--12--12--12--|-----12--12--12--14--14---14--|
D|------------------------------|------------------------------|------------------------------|


E|------------------------------|------------------------------|---------------------------------|
B|------------------------------|------------------------------|---------------------------------|
G|-16--16---16--17--17--17--17--|-----17---17--19--19--19--19--|-19--19--12--12--14--14--14--14--|
D|-16--16---12------17--17--17--|-----17---17------19--19--19--|-19--19--19--12------14--14--14--|
A|-14--14---14--15--15--15--15--|-----15---15--17--17--17--17--|-17--17--10--10--12--12--12--12--|
D|------------------------------|------------------------------|---------------------------------|


E|------------------------------|------------------------------|------------------------------|
B|------------------------------|------------------------------|------------------------------|
G|-----14--14--14--16--16---16--|-16--16---16--17--17--17--17--|-----17---17--19--19--19--19--|
D|-----14--14--14------16---16--|-16--16---12------17--17--17--|-----17---17------19--19--19--|
A|-----12--12--12--14--14---14--|-14--14---14--15--15--15--15--|-----15---15--17--17--17--17--|
D|------------------------------|------------------------------|------------------------------|


E|---------------------------------|---------------------------------|---------------------------------|
B|-------------0---0---0-------0---|-0---0-------0---0---0-------0---|-0---0-------8---8---8-------8---|
G|-19--19--19--9---9---9-------9---|-9---9-------9---9---9-------9---|-9---9-------9---9---9-------9---|
D|-19--19--19--10--10--10------10--|-10--10------9---9---9-------9---|-9---9-------0---0---0-------0---|
A|-17--17--17------------------0---|-----------------------------0---|-0---0---------------------------|
D|---------------------------------|---------------------------------|---------------------------------|


E|---------------------------------|---------------------------------|---------------------------------|
B|-8---8-------8---8---8-------8---|-8---8-------0---0---0-------0---|-0---0-------0---0---0-------0---|
G|-9---9-------9---9---9-------9---|-9---9-------10--10--10------10--|-10--10------9---9---9-------9---|
D|-0---0-------0---0---0-------0---|-0---0-------10--10--10------10--|-10--10------9---9---9-------9---|
A|---------------------------------|---------------------------------|---------------------------------|
D|---------------------------------|---------------------------------|---------------------------------|


E|---------------------------------|---------------------------------|-----------------------|
B|-0---0-------8---8---8-------8---|-8---8-------8---8---8-------8---|-8---8-----------------|
G|-9---9-------9---9---9-------9---|-9---9-------9---9---9-------9---|-9---9-----------------|
D|-9---9-------0---0---0-------0---|-0---0-------0---0---0-------0---|-0---0-----------------|
A|---------------------------------|---------------------------------|-----------------------|
D|---------------------------------|---------------------------------|-----------------------|


E|--------|--------|--------|--------|--------|--------|--------|--------|--------|
B|--------|--------|--------|--------|--------|--------|--------|--------|--------|
G|--------|--------|--------|--------|--------|--------|--------|--------|--------|
D|--------|--------|--------|--------|--------|--------|--------|--------|--------|
A|--------|--------|--------|--------|--------|--------|--------|--------|--------|
D|--------|--------|--------|--------|--------|--------|--------|--------|--------|


E|--------|--------|--------|--------|--------|--------|---------------------------|
B|--------|--------|--------|--------|--------|--------|---------------------------|
G|--------|--------|--------|--------|--------|--------|---------------------------|
D|--------|--------|--------|--------|--------|--------|-------7---7---7-------7---|
A|--------|--------|--------|--------|--------|--------|-------7---7---7-------7---|
D|--------|--------|--------|--------|--------|--------|-------7---7---7-------7---|


E|---------------------------------|---------------------------------|---------------------------------|
B|---------------------------------|---------------------------------|---------------------------------|
G|---------------------------------|---------------------------------|---------------------------------|
D|-7---7-------5---5---5-------5---|-5---5-------0---0---0-------0---|-0---0-------0---0---0-------0---|
A|-7---7-------3---3---3-------3---|-3---3-------0---0---0-------0---|-0---0-------0---0---0-------0---|
D|-7---7-------3---3---3-------3---|-3---3-------0---0---0-------0---|-0---0-------0---0---0-------0---|


E|---------------------------------|---------------------------------|---------------------------------|
B|---------------------------------|---------------------------------|---------------------------------|
G|---------------------------------|---------------------------------|---------------------------------|
D|-0---0-------7---7---7-------7---|-7---7-------5---5---5-------5---|-5---5-------0---0---0-------0---|
A|-0---0-------7---7---7-------7---|-7---7-------3---3---3-------3---|-3---3-------0---0---0-------0---|
D|-0---0-------7---7---7-------7---|-7---7-------3---3---3-------3---|-3---3-------0---0---0-------0---|


E|---------------------------------|---------------------------------|---------------------------------|
B|---------------------------------|---------------------------------|---------------------------------|
G|---------------------------------|---------------------------------|---------------------------------|
D|-0---0-------0---0---0-------0---|-0---0-------7---7---7-------7---|-7---7-------5---5---5-------5---|
A|-0---0-------0---0---0-------0---|-0---0-------7---7---7-------7---|-7---7-------3---3---3-------3---|
D|-0---0-------0---0---0-------0---|-0---0-------7---7---7-------7---|-7---7-------3---3---3-------3---|


E|---------------------------------|---------------------------------|---------------------------------|
B|---------------------------------|---------------------------------|---------------------------------|
G|---------------------------------|---------------------------------|---------------------------------|
D|-5---5-------0---0---0-------0---|-0---0-------0---0---0-------0---|-0---0-------7---7---7-------7---|
A|-3---3-------0---0---0-------0---|-0---0-------0---0---0-------0---|-0---0-------7---7---7-------7---|
D|-3---3-------0---0---0-------0---|-0---0-------0---0---0-------0---|-0---0-------7---7---7-------7---|


E|---------------------------------|---------------------------------|---------------------------------|
B|---------------------------------|---------------------------------|---------------------------------|
G|---------------------------------|---------------------------------|---------------------------------|
D|-7---7-------5---5---5-------5---|-5---5-------0---0---0-------0---|-0---0-------0---0---0-------0---|
A|-7---7-------3---3---3-------3---|-3---3-------0---0---0-------0---|-0---0-------0---0---0-------0---|
D|-7---7-------3---3---3-------3---|-3---3-------0---0---0-------0---|-0---0-------0---0---0-------0---|


E|--------------------|--------------|
B|--------------------|--------------|
G|--------------------|--------------|
D|-0---0-------9------|-------9------|
A|-0---0-------7------|-------7------|
D|-0---0-------7------|-------7------|





Track 4: dist 1

E|--------|--------|--------|--------|--------|--------|--------|--------|--------|
B|--------|--------|--------|--------|--------|--------|--------|--------|--------|
G|--------|--------|--------|--------|--------|--------|--------|--------|--------|
D|--------|--------|--------|--------|--------|--------|--------|--------|--------|
A|--------|--------|--------|--------|--------|--------|--------|--------|--------|
D|--------|--------|--------|--------|--------|--------|--------|--------|--------|


E|--------|--------|--------|--------|--------|--------|--------|--------------|--------------|
B|--------|--------|--------|--------|--------|--------|--------|--------------|--------------|
G|--------|--------|--------|--------|--------|--------|--------|--------------|--------------|
D|--------|--------|--------|--------|--------|--------|--------|--------------|--------------|
A|--------|--------|--------|--------|--------|--------|--------|--------------|--------------|
D|--------|--------|--------|--------|--------|--------|--------|--------------|--------------|


E|--------------|--------------|-----12-------------|--------|--------|--------|--------|
B|--------------|--------------|--------------------|--------|--------|--------|--------|
G|--------------|--------------|--------------------|--------|--------|--------|--------|
D|--------------|--------------|--------------------|--------|--------|--------|--------|
A|--------------|--------------|--------------------|--------|--------|--------|--------|
D|--------------|--------------|--------------------|--------|--------|--------|--------|


E|--------|--------|--------|--------|--------|--------|--------|--------|--------|
B|--------|--------|--------|--------|--------|--------|--------|--------|--------|
G|--------|--------|--------|--------|--------|--------|--------|--------|--------|
D|--------|--------|--------|--------|--------|--------|--------|--------|--------|
A|--------|--------|--------|--------|--------|--------|--------|--------|--------|
D|--------|--------|--------|--------|--------|--------|--------|--------|--------|


E|--------|--------|--------|--------|--------|--------|--------|--------|--------|
B|--------|--------|--------|--------|--------|--------|--------|--------|--------|
G|--------|--------|--------|--------|--------|--------|--------|--------|--------|
D|--------|--------|--------|--------|--------|--------|--------|--------|--------|
A|--------|--------|--------|--------|--------|--------|--------|--------|--------|
D|--------|--------|--------|--------|--------|--------|--------|--------|--------|


E|--------|--------|--------|--------|--------|--------|--------|--------|--------|
B|--------|--------|--------|--------|--------|--------|--------|--------|--------|
G|--------|--------|--------|--------|--------|--------|--------|--------|--------|
D|--------|--------|--------|--------|--------|--------|--------|--------|--------|
A|--------|--------|--------|--------|--------|--------|--------|--------|--------|
D|--------|--------|--------|--------|--------|--------|--------|--------|--------|


E|--------|--------|--------|--------|--------|--------|--------|--------|--------|
B|--------|--------|--------|--------|--------|--------|--------|--------|--------|
G|--------|--------|--------|--------|--------|--------|--------|--------|--------|
D|--------|--------|--------|--------|--------|--------|--------|--------|--------|
A|--------|--------|--------|--------|--------|--------|--------|--------|--------|
D|--------|--------|--------|--------|--------|--------|--------|--------|--------|


E|--------|--------|--------|--------|--------|--------|--------|--------|--------|
B|--------|--------|--------|--------|--------|--------|--------|--------|--------|
G|--------|--------|--------|--------|--------|--------|--------|--------|--------|
D|--------|--------|--------|--------|--------|--------|--------|--------|--------|
A|--------|--------|--------|--------|--------|--------|--------|--------|--------|
D|--------|--------|--------|--------|--------|--------|--------|--------|--------|


E|--------|--------|--------|--------|--------|--------|--------|--------|--------|
B|--------|--------|--------|--------|--------|--------|--------|--------|--------|
G|--------|--------|--------|--------|--------|--------|--------|--------|--------|
D|--------|--------|--------|--------|--------|--------|--------|--------|--------|
A|--------|--------|--------|--------|--------|--------|--------|--------|--------|
D|--------|--------|--------|--------|--------|--------|--------|--------|--------|


E|--------|--------|--------|--------|--------|--------|--------|--------|--------|
B|--------|--------|--------|--------|--------|--------|--------|--------|--------|
G|--------|--------|--------|--------|--------|--------|--------|--------|--------|
D|--------|--------|--------|--------|--------|--------|--------|--------|--------|
A|--------|--------|--------|--------|--------|--------|--------|--------|--------|
D|--------|--------|--------|--------|--------|--------|--------|--------|--------|


E|--------|--------|--------|--------|--------|--------|--------|--------|--------|
B|--------|--------|--------|--------|--------|--------|--------|--------|--------|
G|--------|--------|--------|--------|--------|--------|--------|--------|--------|
D|--------|--------|--------|--------|--------|--------|--------|--------|--------|
A|--------|--------|--------|--------|--------|--------|--------|--------|--------|
D|--------|--------|--------|--------|--------|--------|--------|--------|--------|


E|--------|--------|--------|--------|--------|--------|--------|--------|--------|
B|--------|--------|--------|--------|--------|--------|--------|--------|--------|
G|--------|--------|--------|--------|--------|--------|--------|--------|--------|
D|--------|--------|--------|--------|--------|--------|--------|--------|--------|
A|--------|--------|--------|--------|--------|--------|--------|--------|--------|
D|--------|--------|--------|--------|--------|--------|--------|--------|--------|


E|--------|--------|--------|--------|--------|--------|--------|--------|--------|
B|--------|--------|--------|--------|--------|--------|--------|--------|--------|
G|--------|--------|--------|--------|--------|--------|--------|--------|--------|
D|--------|--------|--------|--------|--------|--------|--------|--------|--------|
A|--------|--------|--------|--------|--------|--------|--------|--------|--------|
D|--------|--------|--------|--------|--------|--------|--------|--------|--------|


E|--------|--------|--------|--------|--------|--------|--------|--------|--------|
B|--------|--------|--------|--------|--------|--------|--------|--------|--------|
G|--------|--------|--------|--------|--------|--------|--------|--------|--------|
D|--------|--------|--------|--------|--------|--------|--------|--------|--------|
A|--------|--------|--------|--------|--------|--------|--------|--------|--------|
D|--------|--------|--------|--------|--------|--------|--------|--------|--------|


E|--------|--------|--------|--------|--------|--------|--------|--------|--------|
B|--------|--------|--------|--------|--------|--------|--------|--------|--------|
G|--------|--------|--------|--------|--------|--------|--------|--------|--------|
D|--------|--------|--------|--------|--------|--------|--------|--------|--------|
A|--------|--------|--------|--------|--------|--------|--------|--------|--------|
D|--------|--------|--------|--------|--------|--------|--------|--------|--------|


E|--------|--------|--------|--------|--------|--------|--------|--------|--------|
B|--------|--------|--------|--------|--------|--------|--------|--------|--------|
G|--------|--------|--------|--------|--------|--------|--------|--------|--------|
D|--------|--------|--------|--------|--------|--------|--------|--------|--------|
A|--------|--------|--------|--------|--------|--------|--------|--------|--------|
D|--------|--------|--------|--------|--------|--------|--------|--------|--------|


E|--------|--------|--------|--------|--------|--------|--------|--------|--------|
B|--------|--------|--------|--------|--------|--------|--------|--------|--------|
G|--------|--------|--------|--------|--------|--------|--------|--------|--------|
D|--------|--------|--------|--------|--------|--------|--------|--------|--------|
A|--------|--------|--------|--------|--------|--------|--------|--------|--------|
D|--------|--------|--------|--------|--------|--------|--------|--------|--------|


E|--------|--------|--------|--------|--------|--------|--------|--------|--------|
B|--------|--------|--------|--------|--------|--------|--------|--------|--------|
G|--------|--------|--------|--------|--------|--------|--------|--------|--------|
D|--------|--------|--------|--------|--------|--------|--------|--------|--------|
A|--------|--------|--------|--------|--------|--------|--------|--------|--------|
D|--------|--------|--------|--------|--------|--------|--------|--------|--------|


E|--------|--------|--------|--------|--------|--------|--------|--------|--------|
B|--------|--------|--------|--------|--------|--------|--------|--------|--------|
G|--------|--------|--------|--------|--------|--------|--------|--------|--------|
D|--------|--------|--------|--------|--------|--------|--------|--------|--------|
A|--------|--------|--------|--------|--------|--------|--------|--------|--------|
D|--------|--------|--------|--------|--------|--------|--------|--------|--------|


E|--------|--------|--------|--------|--------|
B|--------|--------|--------|--------|--------|
G|--------|--------|--------|--------|--------|
D|--------|--------|--------|--------|--------|
A|--------|--------|--------|--------|--------|
D|--------|--------|--------|--------|--------|





Track 5: delay gtr

E|--------|--------|--------|--------|--------|--------|--------|--------|--------|
B|--------|--------|--------|--------|--------|--------|--------|--------|--------|
G|--------|--------|--------|--------|--------|--------|--------|--------|--------|
D|--------|--------|--------|--------|--------|--------|--------|--------|--------|
A|--------|--------|--------|--------|--------|--------|--------|--------|--------|
D|--------|--------|--------|--------|--------|--------|--------|--------|--------|


E|--------|--------|--------|--------|--------|--------|--------|--------|--------|
B|--------|--------|--------|--------|--------|--------|--------|--------|--------|
G|--------|--------|--------|--------|--------|--------|--------|--------|--------|
D|--------|--------|--------|--------|--------|--------|--------|--------|--------|
A|--------|--------|--------|--------|--------|--------|--------|--------|--------|
D|--------|--------|--------|--------|--------|--------|--------|--------|--------|


E|--------|--------|--------|--------|--------|--------|--------|--------|--------|
B|--------|--------|--------|--------|--------|--------|--------|--------|--------|
G|--------|--------|--------|--------|--------|--------|--------|--------|--------|
D|--------|--------|--------|--------|--------|--------|--------|--------|--------|
A|--------|--------|--------|--------|--------|--------|--------|--------|--------|
D|--------|--------|--------|--------|--------|--------|--------|--------|--------|


E|--------|------------------------|--------------------|------------------------|
B|--------|------------------------|---------15--15-----|------------------------|
G|--------|--------------------12--|--------------------|--------------------12--|
D|--------|----------------14------|-----14-------------|----------------12------|
A|--------|------------0-----------|--------------------|------------0-----------|
D|--------|------------------------|--------------------|------------------------|


E|------------------------------|------------------------|--------------------|------------------------|
B|---------13--13--12-----------|------------------------|---------15--15-----|-------15---------------|
G|----------------------12--12--|-------12-----------12--|--------------------|--------------------12--|
D|-----12-----------------------|----------------14------|-----14-------------|----------------12------|
A|------------------------------|------------0-----------|--------------------|------------0-----------|
D|------------------------------|------------------------|--------------------|------------------------|


E|------------------------------|--------|--------|--------|--------|--------|--------|
B|---------13--13--12-----------|--------|--------|--------|--------|--------|--------|
G|----------------------12--12--|--------|--------|--------|--------|--------|--------|
D|-----12-----------------------|--------|--------|--------|--------|--------|--------|
A|------------------------------|--------|--------|--------|--------|--------|--------|
D|------------------------------|--------|--------|--------|--------|--------|--------|


E|--------|--------|--------|--------|--------|--------|--------|--------|--------|
B|--------|--------|--------|--------|--------|--------|--------|--------|--------|
G|--------|--------|--------|--------|--------|--------|--------|--------|--------|
D|--------|--------|--------|--------|--------|--------|--------|--------|--------|
A|--------|--------|--------|--------|--------|--------|--------|--------|--------|
D|--------|--------|--------|--------|--------|--------|--------|--------|--------|


E|--------|------------------------|-----------0---------|-------0-------------|------------------------|
B|--------|----------------0-------|---------------------|-------8-----8---8---|-----8----8---8-----8---|
G|--------|-------9----9-------9---|-------9---------9---|-------9-----9---9---|-----9----9---9-----9---|
D|--------|-------10---10------10--|-------9---------9---|-------0-------------|--------------------0---|
A|--------|------------------------|-----------------0---|---------------------|------------------------|
D|--------|------------------------|---------------------|---------------------|------------------------|


E|-----------------------|------------------------|------------------------|------------------------|
B|-----8---0---------0---|-------0---0----0---0---|------0---8-----8---8---|-----8----8---8-----8---|
G|-----9---0---10----10--|-------9---9----9---9---|------9---9-----9---9---|-----9----9---9-----9---|
D|-------------10----10--|-------10--10---10--10--|------10--0-----0---0---|-----0----0---0-----0---|
A|-----------------------|------------------------|------------------------|------------------------|
D|-----------------------|------------------------|------------------------|------------------------|


E|------------------------------|-----------0---------|-------0-------------|------------------------|
B|-----8---0------------0-------|---------------------|-------8-----8---8---|-----8----8---8-----8---|
G|-----9---0---9----9-------9---|-------9---------9---|-------9-----9---9---|-----9----9---9-----9---|
D|-----0-------10---10------10--|-------9---------9---|-------0-------------|--------------------0---|
A|------------------------------|-----------------0---|---------------------|------------------------|
D|------------------------------|---------------------|---------------------|------------------------|


E|-----------------------|------------------------|------------------------|------------------------|
B|-----8---0---------0---|-------0---0----0---0---|------0---8-----8---8---|-----8----8---8-----8---|
G|-----9---0---10----10--|-------9---9----9---9---|------9---9-----9---9---|-----9----9---9-----9---|
D|-------------10----10--|-------10--10---10--10--|------10--0-----0---0---|-----0----0---0-----0---|
A|-----------------------|------------------------|------------------------|------------------------|
D|-----------------------|------------------------|------------------------|------------------------|


E|------------------------------|--------------------|------------------------|------------------------------|
B|-----8---0--------------------|---------15--15-----|-------15---------------|---------13--13--12-----------|
G|-----9---0----------------12--|--------------------|--------------------12--|----------------------12--12--|
D|-----0----------------14------|-----14-------------|----------------12------|-----12-----------------------|
A|------------------0-----------|--------------------|------------0-----------|------------------------------|
D|------------------------------|--------------------|------------------------|------------------------------|


E|------------------------|--------------------|------------------------|------------------------------|
B|------------------------|---------15--15-----|-------15---------------|---------13--13--12-----------|
G|-------12-----------12--|--------------------|--------------------12--|----------------------12--12--|
D|----------------14------|-----14-------------|----------------12------|-----12-----------------------|
A|------------0-----------|--------------------|------------0-----------|------------------------------|
D|------------------------|--------------------|------------------------|------------------------------|


E|---------------------------|---------------------------------|---------0---0---0---0---0---0---|
B|-----------8-------8-------|-8-----------0---0-------0-------|-0-----------8---8---8---8---8---|
G|---------------5-------5---|---------7---7-------7-------7---|-----7-------0-------0-------0---|
D|-------7-------7-------7---|-----7-------7-------7-------7---|-------------7-------7-------7---|
A|---------------------------|---------------------------------|---------------------------------|
D|---------------------------|---------------------------------|---------------------------------|


E|-0-------------------------------|---------------------------------|---------------------------------|
B|-8-------0-------0-------0-------|-0-------0-------8-------8-------|-8-----------0---0-------0-------|
G|-------------5-------5-------5---|-----5---0-----------5-------5---|---------7---7-------7-------7---|
D|-----7-------3---------------3---|-------------7-------7-------7---|-----7-------7-------7-------7---|
A|---------------------------------|---------------------------------|---------------------------------|
D|---------------------------------|---------------------------------|---------------------------------|


E|---------0---0---0---0---0---0---|-0-------------------------------|---------------------------------|
B|-0-----------8---8---8---8---8---|-8-------0-------0-------0-------|-0-------0-------8-------8-------|
G|-----7-------0-------0-------0---|-------------5-------5-------5---|-----5---0-----------5-------5---|
D|-------------7-------7-------7---|-----7-------3---------------3---|-------------7-------7-------7---|
A|---------------------------------|---------------------------------|---------------------------------|
D|---------------------------------|---------------------------------|---------------------------------|


E|---------------------------------|---------0---0---0---0---0---0---|-0-------------------------------|
B|-8-----------0---0-------0-------|-0-----------8---8---8---8---8---|-8-------0-------0-------0-------|
G|---------7---7-------7-------7---|-----7-------0-------0-------0---|-------------5-------5-------5---|
D|-----7-------7-------7-------7---|-------------7-------7-------7---|-----7-------3---------------3---|
A|---------------------------------|---------------------------------|---------------------------------|
D|---------------------------------|---------------------------------|---------------------------------|


E|---------------------------------|---------------------------------|---------0---0---0---0---0---0---|
B|-0-------0-------8-------8-------|-8-----------0---0-------0-------|-0-----------8---8---8---8---8---|
G|-----5---0-----------5-------5---|---------7---7-------7-------7---|-----7-------0-------0-------0---|
D|-------------7-------7-------7---|-----7-------7-------7-------7---|-------------7-------7-------7---|
A|---------------------------------|---------------------------------|---------------------------------|
D|---------------------------------|---------------------------------|---------------------------------|


E|-0-------------------------------|-----------------------|--------|--------|--------|
B|-8-------0-------0-------0-------|-0-------0-------------|--------|--------|--------|
G|-------------5-------5-------5---|-----5---0-------------|--------|--------|--------|
D|-----7-------3---------------3---|-----------------------|--------|--------|--------|
A|---------------------------------|-----------------------|--------|--------|--------|
D|---------------------------------|-----------------------|--------|--------|--------|


E|--------|--------|--------|--------|--------|--------|--------|--------|--------|
B|--------|--------|--------|--------|--------|--------|--------|--------|--------|
G|--------|--------|--------|--------|--------|--------|--------|--------|--------|
D|--------|--------|--------|--------|--------|--------|--------|--------|--------|
A|--------|--------|--------|--------|--------|--------|--------|--------|--------|
D|--------|--------|--------|--------|--------|--------|--------|--------|--------|


E|--------|--------|--------|------------------------|-----------0---------|-------0-------------|
B|--------|--------|--------|----------------0-------|---------------------|-------8-----8---8---|
G|--------|--------|--------|-------9----9-------9---|-------9---------9---|-------9-----9---9---|
D|--------|--------|--------|-------10---10------10--|-------9---------9---|-------0-------------|
A|--------|--------|--------|------------------------|-----------------0---|---------------------|
D|--------|--------|--------|------------------------|---------------------|---------------------|


E|------------------------|-----------------------|------------------------|------------------------|
B|-----8----8---8-----8---|-----8---0---------0---|-------0---0----0---0---|------0---8-----8---8---|
G|-----9----9---9-----9---|-----9---0---10----10--|-------9---9----9---9---|------9---9-----9---9---|
D|--------------------0---|-------------10----10--|-------10--10---10--10--|------10--0-----0---0---|
A|------------------------|-----------------------|------------------------|------------------------|
D|------------------------|-----------------------|------------------------|------------------------|


E|------------------------|------------------------------|-----------0---------|-------0-------------|
B|-----8----8---8-----8---|-----8---0------------0-------|---------------------|-------8-----8---8---|
G|-----9----9---9-----9---|-----9---0---9----9-------9---|-------9---------9---|-------9-----9---9---|
D|-----0----0---0-----0---|-----0-------10---10------10--|-------9---------9---|-------0-------------|
A|------------------------|------------------------------|-----------------0---|---------------------|
D|------------------------|------------------------------|---------------------|---------------------|


E|------------------------|-----------------------|------------------------|------------------------|
B|-----8----8---8-----8---|-----8---0---------0---|-------0---0----0---0---|------0---8-----8---8---|
G|-----9----9---9-----9---|-----9---0---10----10--|-------9---9----9---9---|------9---9-----9---9---|
D|--------------------0---|-------------10----10--|-------10--10---10--10--|------10--0-----0---0---|
A|------------------------|-----------------------|------------------------|------------------------|
D|------------------------|-----------------------|------------------------|------------------------|


E|------------------------|---------------------------------|------------------------------|
B|-----8----8---8-----8---|-----8---0---0---0---0---0---0---|-0---0---0---0---0---0----0---|
G|-----9----9---9-----9---|-----9---0---9---9---9---9---9---|-9---9---9---9---9---9----9---|
D|-----0----0---0-----0---|-----0-------10--10--10--10--10--|-10--10--10--10--9---9----9---|
A|------------------------|---------------------------------|---------------------0----0---|
D|------------------------|---------------------------------|------------------------------|


E|---------------------------------|---------------------------------|------------------------------|
B|-0---0---8---8---8---8---8---8---|-8---8---8---8---8---8---8---8---|-8---8---6-----------0--------|
G|-9---9---9---9---9---9---9---9---|-9---9---9---9---9---9---9---9---|-9---9---7---10--10--10---10--|
D|-9---9-------0-------------------|---------------------------------|-------------10--10--10---10--|
A|---------------------------------|---------------------------------|------------------------------|
D|---------------------------------|---------------------------------|------------------------------|


E|---------------------------------|------------------------------|-----0----0----0---0---0---|
B|-------------0---0---0---0---0---|-0---0---8---8---8---8----8---|-8---8----8----8---8---8---|
G|-10--10--9---9---9---9---9---9---|-9---9---9---9---9---9----9---|-9---9----9----9---9---9---|
D|-10--10--9---9---9---9---9---9---|-9---9---------------0----0---|-0-------------------------|
A|---------------------------------|------------------------------|---------------------------|
D|---------------------------------|------------------------------|---------------------------|


E|-0---0------------------|--------------|--------------|--------------|--------|--------|
B|-8---8------------------|--------------|--------------|--------------|--------|--------|
G|-9---9----19--19----19--|--------------|--------------|--------------|--------|--------|
D|----------19--19----19--|--------------|--------------|--------------|--------|--------|
A|----------17--17----17--|--------------|--------------|--------------|--------|--------|
D|------------------------|--------------|--------------|--------------|--------|--------|


E|--------|--------|--------|--------|--------|--------|--------|--------|--------|
B|--------|--------|--------|--------|--------|--------|--------|--------|--------|
G|--------|--------|--------|--------|--------|--------|--------|--------|--------|
D|--------|--------|--------|--------|--------|--------|--------|--------|--------|
A|--------|--------|--------|--------|--------|--------|--------|--------|--------|
D|--------|--------|--------|--------|--------|--------|--------|--------|--------|


E|--------|--------|--------|--------|--------|--------|--------|--------|--------|
B|--------|--------|--------|--------|--------|--------|--------|--------|--------|
G|--------|--------|--------|--------|--------|--------|--------|--------|--------|
D|--------|--------|--------|--------|--------|--------|--------|--------|--------|
A|--------|--------|--------|--------|--------|--------|--------|--------|--------|
D|--------|--------|--------|--------|--------|--------|--------|--------|--------|


E|--------|--------|--------|--------|--------|--------|--------|--------|--------|
B|--------|--------|--------|--------|--------|--------|--------|--------|--------|
G|--------|--------|--------|--------|--------|--------|--------|--------|--------|
D|--------|--------|--------|--------|--------|--------|--------|--------|--------|
A|--------|--------|--------|--------|--------|--------|--------|--------|--------|
D|--------|--------|--------|--------|--------|--------|--------|--------|--------|


E|--------|--------|--------|--------|--------|--------|--------|--------|--------|
B|--------|--------|--------|--------|--------|--------|--------|--------|--------|
G|--------|--------|--------|--------|--------|--------|--------|--------|--------|
D|--------|--------|--------|--------|--------|--------|--------|--------|--------|
A|--------|--------|--------|--------|--------|--------|--------|--------|--------|
D|--------|--------|--------|--------|--------|--------|--------|--------|--------|





Track 6: Bass

G|------------------------------|---------------------------------|---------------------------------|
E|------------------------------|---------------------------------|---------------------------------|
A|------------------------------|---------------------------------|-------------------------3---3---|
D|-0---0----5---7---7---7---7---|-7---5---7---7---7---7---7---7---|-0---5---7---3---3---3-----------|


G|---------------------------------|---------------------------------|---------------------------------|
E|---------------------------------|---------------------------------|---------------------------------|
A|---------------------------------|---------------------------------|---------------------------------|
D|-----3---0---0---3---3---3---3---|-0---3---5---5---7---7---7---7---|-7---5---7---7---7---7---7---7---|


G|---------------------------------|---------------------------------|---------------------------------|
E|---------------------------------|---------------------------------|---------------------------------|
A|-------------------------3---3---|---------------------------------|---------------------------------|
D|-0---5---7---3---3---3-----------|-----3---0---0---3---3---3---3---|-0---3---5---5---7---7---7---7---|


G|---------------------------------|---------------------------------|---------------------------------|
E|---------------------------------|---------------------------------|---------------------------------|
A|---------------------------------|-------------------------3---3---|---------------------------------|
D|-7---5---7---7---7---7---7---7---|-0---5---7---3---3---3-----------|-----3---0---0---3---3---3---3---|


G|---------------------------------|---------------------------------|---------------------------------|
E|---------------------------------|---------------------------------|---------------------------------|
A|---------------------------------|---------------------------------|-------------------------3---3---|
D|-0---3---5---5---7---7---7---7---|-7---5---7---7---7---7---7---7---|-0---5---7---3---3---3-----------|


G|---------------------------------|--------------------|--------------|--------------|
E|---------------------------------|--------------------|--------------|-------3------|
A|---------------------------------|--------------------|--------------|--------------|
D|-----3---0---0---3---3---3---3---|-0---3---5----------|--------------|--------------|


G|--------------|-------------5---7---5-----------|-5-----5-------------|-------------------5---5---|
E|-------3------|-----0---3---------------7---7---|------------7----7---|-5----5---3----3-----------|
A|--------------|---------------------------------|---------------------|---------------------------|
D|--------------|---------------------------------|---------------------|---------------------------|


G|-------5--------5---5---|-------------5---7---5-----------|-5-----5-------------|
E|------------3-----------|-----0---3---------------7---7---|------------7----7---|
A|------------------------|---------------------------------|---------------------|
D|------------------------|---------------------------------|---------------------|


G|-------------------5---5---|-------5--------5---5---|---------------------------------|
E|-5----5---3----3-----------|------------3-----------|-----0---3---5---7---7---5---7---|
A|---------------------------|------------------------|---------------------------------|
D|---------------------------|------------------------|---------------------------------|


G|--------------------|----------------------5---5---|-------5--------5---5---|-------------5---7---5-----------|
E|-9---7----7---------|-5---5---3---3----3-----------|------------3-----------|-----0---3---------------7---7---|
A|--------------------|------------------------------|------------------------|---------------------------------|
D|--------------------|------------------------------|------------------------|---------------------------------|


G|-5-----5-------------|----------------------5---5---|-5----------------------------|
E|------------7----7---|-5---5---3---3----3-----------|------------------------------|
A|---------------------|------------------------------|------------------------------|
D|---------------------|------------------------------|----------3----3--3---3---3---|


G|------------------------------|---------------------------------|---------------------------------|
E|------------------------------|---------------------------------|---------------------------------|
A|------------------------------|---------------------------------|-------------------------3---3---|
D|-3---0----5---7---7---7---7---|-7---5---7---7---7---7---7---7---|-0---5---7---3---3---3-----------|


G|---------------------------------|---------------------------------|---------------------------------|
E|---------------------------------|---------------------------------|---------------------------------|
A|---------------------------------|---------------------------------|---------------------------------|
D|-----3---0---0---3---3---3---3---|-0---3---5---5---7---7---7---7---|-7---5---7---7---7---7---7---7---|


G|---------------------------------|---------------------------------|---------------------------------|
E|---------------------------------|---------------------------------|---------------------------------|
A|-------------------------3---3---|---------------------------------|---------------------------------|
D|-0---5---7---3---3---3-----------|-----3---0---0---3---3---3---3---|-0---3---5---5---7---7---7---7---|


G|---------------------------------|---------------------------------|---------------------------------|
E|---------------------------------|---------------------------------|---------------------------------|
A|---------------------------------|-------------------------3---3---|---------------------------------|
D|-7---5---7---7---7---7---7---7---|-0---5---7---3---3---3-----------|-----3---0---0---3---3---3---3---|


G|---------------------------------|---------------------------------|---------------------------------|
E|---------------------------------|---------------------------------|---------------------------------|
A|---------------------------------|---------------------------------|-------------------------3---3---|
D|-0---3---5---5---7---7---7---7---|-7---5---7---7---7---7---7---7---|-0---5---7---3---3---3-----------|


G|---------------------------------|------------------------------|------------------------------|
E|---------------------------------|------------------------------|-----------------1----1---1---|
A|---------------------------------|-------------0---0----0---0---|-----0---0---0----------------|
D|-----3---0---0---3---3---3---3---|-0---3---5--------------------|------------------------------|


G|---------------------------------|---------------------------------|---------------------------------|
E|-0---0---0---0---1---------------|---------------------------------|---------------------------------|
A|---------------------------------|---------------------------------|-5---5---5---0---0---0---0---0---|
D|---------------------0---0---0---|-----0---0---0---0---0---0---0---|---------------------------------|


G|---------------------------------|---------------------------------|---------------------------------|
E|-----------------1---1---1---1---|-0---0---0---0---1---------------|---------------------------------|
A|-----0---0---0-------------------|---------------------------------|---------------------------------|
D|---------------------------------|---------------------0---0---0---|-----0---0---0---0---0---0---0---|


G|---------------------------------|---------------------------------|---------------------------------|
E|---------------------------------|---------------------------------|---------------------------------|
A|-5---5---5---0---0---0---0---0---|-----0---0---0-------------------|---------------------------------|
D|---------------------------------|-----------------3---3---3---3---|-3---3---3---0---0---0---0---0---|


G|------------------------------|---------------------------------|------------------------------|
E|------------------------------|---------------------------------|------------------------------|
A|------------------------------|-------------0---0---0---0---0---|-0---0----0-------------------|
D|-----0---0---0---0---0----0---|-0---0---0-----------------------|--------------3---3---3---3---|


G|---------------------------------|---------------------------------|-------------------9---9---|
E|---------------------------------|---------------------------------|----------7----7-----------|
A|---------------------------------|---------------------------------|---------------------------|
D|-3---3---3---0---0---0---0---0---|-----0---0---0---0---0---0---0---|-0---0---------------------|


G|-----------------|----------------------5---5---|-------5--------5---5---|-------------5---7---5-----------|
E|-------7-----7---|-5---5---3---3----3-----------|------------3-----------|-----0---3---------------7---7---|
A|-----------------|------------------------------|------------------------|---------------------------------|
D|-----------------|------------------------------|------------------------|---------------------------------|


G|-5-----5-------------|----------------------5---5---|-------5--------5---5---|---------------------------------|
E|------------7----7---|-5---5---3---3----3-----------|------------3-----------|---------------------------------|
A|---------------------|------------------------------|------------------------|---------------------------------|
D|---------------------|------------------------------|------------------------|-----3---5---7---7---7---7---7---|


G|------------------------------|---------------------------------|---------------------------------|
E|------------------------------|---------------------------------|---------------------------------|
A|------------------------------|---------------------------------|---------------------------------|
D|-7---7----7---7---7---7---7---|-7---7---0---3---3---3---3---3---|-3---3---3---3---3---3---3---3---|


G|------------------------------|------------------------------|---------------------------------|
E|------------------------------|------------------------------|---------------------------------|
A|------------------------------|------------------------------|---------------------------------|
D|-3---3----7---7---7---7---7---|-7---7----7---7---7---7---7---|-7---7---0---3---3---3---3---3---|


G|---------------------------------|------------------------------|------------------------------|
E|---------------------------------|------------------------------|------------------------------|
A|---------------------------------|------------------------------|------------------------------|
D|-3---3---3---3---3---3---3---3---|-3---3----7---7---7---7---7---|-7---7----7---7---7---7---7---|


G|---------------------------------|---------------------------------|------------------------------|
E|---------------------------------|---------------------------------|------------------------------|
A|---------------------------------|---------------------------------|------------------------------|
D|-7---7---0---3---3---3---3---3---|-3---3---3---3---3---3---3---3---|-3---3----7---7---7---7---7---|


G|------------------------------|---------------------------------|---------------------------------|
E|------------------------------|---------------------------------|---------------------------------|
A|------------------------------|---------------------------------|---------------------------------|
D|-7---7----7---7---7---7---7---|-7---7---0---3---3---3---3---3---|-3---3---3---3---3---3---3---3---|


G|------------------------------|---------------------------------|---------------------------------|
E|------------------------------|---------------------------------|---------------------------------|
A|------------------------------|---------------------------------|-------------------------3---3---|
D|-3---3----5---7---7---7---7---|-7---5---7---7---7---7---7---7---|-0---5---7---3---3---3-----------|


G|---------------------------------|---------------------------------|---------------------------------|
E|---------------------------------|---------------------------------|---------------------------------|
A|---------------------------------|---------------------------------|---------------------------------|
D|-----3---0---0---3---3---3---3---|-0---3---5---5---7---7---7---7---|-7---5---7---7---7---7---7---7---|


G|---------------------------------|---------------------------------|---------------------------------|
E|---------------------------------|---------------------------------|---------------------------------|
A|-------------------------3---3---|---------------------------------|---------------------------------|
D|-0---5---7---3---3---3-----------|-----3---0---0---3---3---3---3---|-0---3---5---5---7---7---7---7---|


G|---------------------------------|---------------------------------|---------------------------------|
E|---------------------------------|---------------------------------|---------------------------------|
A|---------------------------------|-------------------------3---3---|---------------------------------|
D|-7---5---7---7---7---7---7---7---|-0---5---7---3---3---3-----------|-----3---0---0---3---3---3---3---|


G|---------------------------------|---------------------------------|---------------------------------|
E|---------------------------------|---------------------------------|---------------------------------|
A|---------------------------------|---------------------------------|-------------------------3---3---|
D|-0---3---5---5---7---7---7---7---|-7---5---7---7---7---7---7---7---|-0---5---7---3---3---3-----------|


G|---------------------------------|------------------------------|------------------------------|
E|---------------------------------|------------------------------|-----------------1----1---1---|
A|---------------------------------|-------------0---0----0---0---|-----0---0---0----------------|
D|-----3---0---0---3---3---3---3---|-0---3---5--------------------|------------------------------|


G|---------------------------------|---------------------------------|---------------------------------|
E|-0---0---0---0---1---------------|---------------------------------|---------------------------------|
A|---------------------------------|---------------------------------|-5---5---5---0---0---0---0---0---|
D|---------------------0---0---0---|-----0---0---0---0---0---0---0---|---------------------------------|


G|---------------------------------|---------------------------------|---------------------------------|
E|-----------------1---1---1---1---|-0---0---0---0---1---------------|---------------------------------|
A|-----0---0---0-------------------|---------------------------------|---------------------------------|
D|---------------------------------|---------------------0---0---0---|-----0---0---0---0---0---0---0---|


G|---------------------------------|---------------------------------|---------------------------------|
E|---------------------------------|---------------------------------|---------------------------------|
A|-5---5---5---0---0---0---0---0---|-----0---0---0-------------------|---------------------------------|
D|---------------------------------|-----------------3---3---3---3---|-3---3---3---0---0---0---0---0---|


G|------------------------------|---------------------------------|------------------------------|
E|------------------------------|---------------------------------|------------------------------|
A|------------------------------|-------------0---0---0---0---0---|-0---0----0-------------------|
D|-----0---0---0---0---0----0---|-0---0---0-----------------------|--------------3---3---3---3---|


G|---------------------------------|---------------------------------|------------------------------|
E|---------------------------------|---------------------------------|------------------------------|
A|---------------------------------|---------------------------------|----------0---0---0---0---0---|
D|-3---3---3---0---0---0---0---0---|-----0---0---0---0---0---0---0---|-0---0------------------------|


G|---------------------------------|---------------------------------|---------------------------------|
E|---------------------------------|---------------------------------|---------------------------------|
A|-0---0---0---0-------------------|---------------------------------|---------------------------------|
D|-----------------3---3---3---3---|-3---3---3---0---0---0---0---0---|-0---0---0---0---0---0---0---0---|


G|---------------------------------|---------------------------------|---------------------------------|
E|---------------------------------|---------------------------------|---------------------------------|
A|-------------0---0---0---0---0---|-0---0---0---0-------------------|---------------------------------|
D|-0---0---0-----------------------|-----------------3---3---3---3---|-3---3---3---0---0---0---0---0---|


G|---------------------------------|---------------------------------|------------------------------|
E|---------------------------------|---------------------------------|-----------------1---1----0---|
A|---------------------------------|-------------0---0---0-------0---|-0---0-------0----------------|
D|-0---0---0---0---0---0---0---0---|-0---0---0-----------------------|------------------------------|


G|---------------------------------|---------------------------------|---------------------------------|
E|-0---0---0-----------------------|---------------------------------|---------------------------------|
A|---------------------------------|---------------------------------|-------------0---0---0-------0---|
D|-------------0---0---0-------0---|-0---0-------0---0---0-------0---|-0---0---------------------------|


G|------------------------------|---------------------------------|---------------------------------|
E|-----------------1---1----0---|-0---0---0-----------------------|---------------------------------|
A|-0---0-------0----------------|---------------------------------|---------------------------------|
D|------------------------------|-------------0---0---0-------0---|-0---0-------0---0---0-------0---|


G|------------------------------|---------------------------|------------------------------|
E|------------------------------|---------------------------|------------------------------|
A|-------------0---0---0----0---|-----0----0----------------|------------------------------|
D|-0---0------------------------|--------------3---3----3---|-----3---3---0---0---0----0---|


G|------------------------|---------------------------|---------------------------|
E|------------------------|---------------------------|---------------------------|
A|---------------5--------|----------0---0---0----0---|-----0----0----------------|
D|-------0---0--------0---|-----0---------------------|--------------3---3----3---|


G|------------------------------|------------------------|------------------------------|
E|------------------------------|------------------------|------------------------------|
A|------------------------------|---------------5--------|----------0---0---0---0---0---|
D|-----3---3---0---0---0----0---|-------0---0--------0---|-----0------------------------|


G|---------------------------------|---------------------------------|---------------------------------|
E|---------------------------------|---------------------------------|---------------------------------|
A|-0---0---0---0-------------------|---------------------------------|---------------------------------|
D|-----------------3---3---3---3---|-3---3---3---0---0---0---0---0---|-0---0---0---0---0---0---0---0---|


G|---------------------------------|---------------------------------|---------------------------------|
E|---------------------------------|---------------------------------|---------------------------------|
A|-------------0---0---0---0---0---|-0---0---0---0-------------------|---------------------------------|
D|-0---0---0-----------------------|-----------------3---3---3---3---|-3---3---3---0---0---0---0---0---|


G|---------------------------------|---------------------------------|---------------------------------|
E|---------------------------------|---------------------------------|---------------------------------|
A|---------------------------------|-------------0---0---0-------0---|-0---0---------------------------|
D|-0---0---0---0---0---0---0---0---|-0---0---0-----------------------|-------------3---3---3-------3---|


G|---------------------------------|---------------------------------|---------------------------------|
E|---------------------------------|---------------------------------|---------------------------------|
A|---------------------------------|---------------------------------|-------------0---0---0-------0---|
D|-3---3-------0---0---0-------0---|-0---0-------0---0---0-------0---|-0---0---------------------------|


G|---------------------------------|---------------------------------|---------------------------------|
E|---------------------------------|---------------------------------|---------------------------------|
A|-0---0---------------------------|---------------------------------|---------------------------------|
D|-------------3---3---3-------3---|-3---3-------0---0---0-------0---|-0---0-------0---0---0-------0---|


G|---------------------------------|---------------------------------|---------------------------------|
E|---------------------------------|---------------------------------|---------------------------------|
A|-------------0---0---0-------0---|-0---0---------------------------|---------------------------------|
D|-0---0---------------------------|-------------3---3---3-------3---|-3---3-------0---0---0-------0---|


G|---------------------------------|---------------------------------|---------------------------------|
E|---------------------------------|---------------------------------|---------------------------------|
A|---------------------------------|-------------0---0---0-------0---|-0---0---------------------------|
D|-0---0-------0---0---0-------0---|-0---0---------------------------|-------------3---3---3-------3---|


G|---------------------------------|---------------------------------|--------------------|
E|---------------------------------|---------------------------------|--------------------|
A|---------------------------------|---------------------------------|-------------0------|
D|-3---3-------0---0---0-------0---|-0---0-------0---0---0-------0---|-0---0---0----------|


G|--------------|
E|--------------|
A|-------0------|
D|--------------|





Track 7: Drums

G|------------------------|------------------------|-----------------------------|
D|-0---0---------0--------|-0--------0--------0----|-----0---0--0-------0--------|
A|------------------------|------------------------|-----------------------------|
D|----------0---------0---|------0--------0--------|-0-------------0---------0---|


G|------------------------------|-----------------------------|------------------------|
D|-0--------0-----------0-------|-----0---0--0-------0--------|-0--------0--------0----|
A|------------------------------|-----------------------------|------------------------|
D|------0-------0---0-------0---|-0-------------0---------0---|------0--------0--------|


G|-----------------------------|------------------------------|-----------------------------|
D|-----0---0--0-------0--------|-0--------0-----------0-------|-----0---0--0-------0--------|
A|-----------------------------|------------------------------|-----------------------------|
D|-0-------------0---------0---|------0-------0---0-------0---|-0-------------0---------0---|


G|------------------------|-----------------------------|------------------------------|
D|-0--------0--------0----|-----0---0--0-------0--------|-0--------0-----------0-------|
A|------------------------|-----------------------------|------------------------------|
D|------0--------0--------|-0-------------0---------0---|------0-------0---0-------0---|


G|-----------------------------|------------------------|-----------------------------|
D|-----0---0--0-------0--------|-0--------0--------0----|-----0---0--0-------0--------|
A|-----------------------------|------------------------|-----------------------------|
D|-0-------------0---------0---|------0--------0--------|-0-------------0---------0---|


G|------------------------------|-----------------------------|------------------------|
D|-0--------0-----------0-------|-----0---0--0----------------|------------------------|
A|------------------------------|-----------------------------|------------------------|
D|------0-------0---0-------0---|-0-------------0----0----0---|-----0----0----0----0---|


G|------------------------|------------------------|------------------------------|
D|------------------------|------------------------|---------0-------0--------0---|
A|------------------------|------------------------|------------------------------|
D|-----0----0----0----0---|-----0----0----0----0---|-----0-------0-------0--------|


G|---------------------|------------------------|--------------------------|------------------------|
D|-----------------0---|-----------0--------0---|----------------------0---|-----------0--------0---|
A|---------------------|------------------------|--------------------------|------------------------|
D|------------0--------|-0-----0-------0--------|-------0----0----0--------|-------0-------0--------|


G|---------------------|------------------------|--------------------------|------------------------|
D|-----------------0---|-----------0--------0---|----------------------0---|-----------0--------0---|
A|---------------------|------------------------|--------------------------|------------------------|
D|------------0--------|-0-----0-------0--------|-------0----0----0--------|-------0-------0--------|


G|---------------------|------------------------|--------------------------|------------------------|
D|-----------------0---|-----------0--------0---|----------------------0---|-----------0--------0---|
A|---------------------|------------------------|--------------------------|------------------------|
D|------------0--------|-0-----0-------0--------|-------0----0----0--------|-------0-------0--------|


G|---------------------|------------------------|--------------------------|------------------------|
D|-----------------0---|-----------0--------0---|----------------------0---|-----0---------0--------|
A|---------------------|------------------------|--------------------------|------------------------|
D|------------0--------|-0-----0-------0--------|-------0----0----0--------|-0--------0---------0---|


G|------------------------|-----------------------------|------------------------------|
D|-0--------0--------0----|-----0---0--0-------0--------|-0--------0-----------0-------|
A|------------------------|-----------------------------|------------------------------|
D|------0--------0--------|-0-------------0---------0---|------0-------0---0-------0---|


G|-----------------------------|------------------------|-----------------------------|
D|-----0---0--0-------0--------|-0--------0--------0----|-----0---0--0-------0--------|
A|-----------------------------|------------------------|-----------------------------|
D|-0-------------0---------0---|------0--------0--------|-0-------------0---------0---|


G|------------------------------|-----------------------------|------------------------|
D|-0--------0-----------0-------|-----0---0--0-------0--------|-0--------0--------0----|
A|------------------------------|-----------------------------|------------------------|
D|------0-------0---0-------0---|-0-------------0---------0---|------0--------0--------|


G|-----------------------------|------------------------------|-----------------------------|
D|-----0---0--0-------0--------|-0--------0-----------0-------|-----0---0--0-------0--------|
A|-----------------------------|------------------------------|-----------------------------|
D|-0-------------0---------0---|------0-------0---0-------0---|-0-------------0---------0---|


G|------------------------|-----------------------------|------------------------------|
D|-0--------0--------0----|-----0---0--0-------0--------|-0--------0-----------0-------|
A|------------------------|-----------------------------|------------------------------|
D|------0--------0--------|-0-------------0---------0---|------0-------0---0-------0---|


G|-----------------------------------|---------------------------------|---------------------------------|
D|-----0---0--0----------0-----------|-----0---------------0-----------|-----0---------------0-----------|
A|-----------------------------------|---------------------------------|---------------------------------|
D|-0-------------0---0-------0---0---|-0-------0---0---0-------0---0---|-0-------0---0---0-------0---0---|


G|---------------------------------|---------------------------|---------------------------------|
D|-----0---------------0-----------|-----0------------0--------|-----0---------------0-----------|
A|---------------------------------|---------------------------|---------------------------------|
D|-0-------0---0---0-------0---0---|-0-------0---0---------0---|-0-------0---0---0-------0---0---|


G|---------------------------------|---------------------------------|------------------------------|
D|-----0---------------0-----------|-----0---------------0-----------|-0---0------------0-----------|
A|---------------------------------|---------------------------------|------------------------------|
D|-0-------0---0---0-------0---0---|-0-------0---0---0-------0---0---|----------0---0-------0---0---|


G|---------------------------------|---------------------------------|---------------------------------|
D|-----0---------------0-----------|-----0---------------0-----------|-----0---------------0-----------|
A|---------------------------------|---------------------------------|---------------------------------|
D|-0-------0---0---0-------0---0---|-0-------0---0---0-------0---0---|-0-------0---0---0-------0---0---|


G|-----------------------------------|------------------------------|---------------------------------|
D|-----0---0--0----------0-----------|-----0------------0-----------|-----0---------------0-----------|
A|-----------------------------------|------------------------------|---------------------------------|
D|-0-------------0---0-------0---0---|-0--------0---0-------0---0---|-0-------0---0---0-------0---0---|


G|---------------------------------|---------------------------|---------------------|
D|-----0---------------0-----------|-0---0--------0--------0---|-----------------0---|
A|---------------------------------|---------------------------|---------------------|
D|-0-------0---0---0-------0---0---|----------0-------0--------|------------0--------|


G|------------------------|--------------------------|------------------------|---------------------|
D|-----------0--------0---|----------------------0---|-----------0--------0---|-----------------0---|
A|------------------------|--------------------------|------------------------|---------------------|
D|-0-----0-------0--------|-------0----0----0--------|-------0-------0--------|------------0--------|


G|------------------------|--------------------------|---------------------------|
D|-----------0--------0---|----------------------0---|---------------0-----------|
A|------------------------|--------------------------|---------------------------|
D|-0-----0-------0--------|-------0----0----0--------|-------0---0-------0---0---|


G|---------------------------------|---------------------------------|---------------------------------|
D|-----0---------------0-----------|-----0---------------0-----------|-----0---------------0-----------|
A|---------------------------------|---------------------------------|---------------------------------|
D|-0-------0---0---0-------0---0---|-0-------0---0---0-------0---0---|-0-------0---0---0-------0---0---|


G|-----------------------------------|---------------------------------|---------------------------------|
D|-----0---0--0----------0-----------|-----0---------------0-----------|-----0---------------0-----------|
A|-----------------------------------|---------------------------------|---------------------------------|
D|-0-------------0---0-------0---0---|-0-------0---0---0-------0---0---|-0-------0---0---0-------0---0---|


G|---------------------------------|-----------------------------------|---------------------------------|
D|-----0---------------0-----------|-----0---0--0----------0-----------|-----0---------------0-----------|
A|---------------------------------|-----------------------------------|---------------------------------|
D|-0-------0---0---0-------0---0---|-0-------------0---0-------0---0---|-0-------0---0---0-------0---0---|


G|---------------------------------|---------------------------------|-----------------------------------|
D|-----0---------------0-----------|-----0---------------0-----------|-----0---0--0----------0-----------|
A|---------------------------------|---------------------------------|-----------------------------------|
D|-0-------0---0---0-------0---0---|-0-------0---0---0-------0---0---|-0-------------0---0-------0---0---|


G|---------------------------------|---------------------------------|---------------------------------|
D|-----0---------------0-----------|-----0---------------0-----------|-----0---------------0-----------|
A|---------------------------------|---------------------------------|---------------------------------|
D|-0-------0---0---0-------0---0---|-0-------0---0---0-------0---0---|-0-------0---0---0-------0---0---|


G|-----------------------------|------------------------|-----------------------------|
D|-----0---0--0-------0--------|-0--------0--------0----|-----0---0--0-------0--------|
A|-----------------------------|------------------------|-----------------------------|
D|-0-------------0---------0---|------0--------0--------|-0-------------0---------0---|


G|------------------------------|-----------------------------|------------------------|
D|-0--------0-----------0-------|-----0---0--0-------0--------|-0--------0--------0----|
A|------------------------------|-----------------------------|------------------------|
D|------0-------0---0-------0---|-0-------------0---------0---|------0--------0--------|


G|-----------------------------|------------------------------|-----------------------------|
D|-----0---0--0-------0--------|-0--------0-----------0-------|-----0---0--0-------0--------|
A|-----------------------------|------------------------------|-----------------------------|
D|-0-------------0---------0---|------0-------0---0-------0---|-0-------------0---------0---|


G|------------------------|-----------------------------|------------------------------|
D|-0--------0--------0----|-----0---0--0-------0--------|-0--------0-----------0-------|
A|------------------------|-----------------------------|------------------------------|
D|------0--------0--------|-0-------------0---------0---|------0-------0---0-------0---|


G|-----------------------------|------------------------|-----------------------------|
D|-----0---0--0-------0--------|-0--------0--------0----|-----0---0--0-------0--------|
A|-----------------------------|------------------------|-----------------------------|
D|-0-------------0---------0---|------0--------0--------|-0-------------0---------0---|


G|------------------------------|-----------------------------------|---------------------------------|
D|-0--------0-----------0-------|-----0---0--0----------0-----------|-----0---------------0-----------|
A|------------------------------|-----------------------------------|---------------------------------|
D|------0-------0---0-------0---|-0-------------0---0-------0---0---|-0-------0---0---0-------0---0---|


G|---------------------------------|---------------------------------|---------------------------|
D|-----0---------------0-----------|-----0---------------0-----------|-----0------------0--------|
A|---------------------------------|---------------------------------|---------------------------|
D|-0-------0---0---0-------0---0---|-0-------0---0---0-------0---0---|-0-------0---0---------0---|


G|---------------------------------|---------------------------------|---------------------------------|
D|-----0---------------0-----------|-----0---------------0-----------|-----0---------------0-----------|
A|---------------------------------|---------------------------------|---------------------------------|
D|-0-------0---0---0-------0---0---|-0-------0---0---0-------0---0---|-0-------0---0---0-------0---0---|


G|------------------------------|---------------------------------|---------------------------------|
D|-0---0------------0-----------|-----0---------------0-----------|-----0---------------0-----------|
A|------------------------------|---------------------------------|---------------------------------|
D|----------0---0-------0---0---|-0-------0---0---0-------0---0---|-0-------0---0---0-------0---0---|


G|---------------------------------|-----------------------------------|------------------------------|
D|-----0---------------0-----------|-----0---0--0----------0-----------|-----0------------0-----------|
A|---------------------------------|-----------------------------------|------------------------------|
D|-0-------0---0---0-------0---0---|-0-------------0---0-------0---0---|-0--------0---0-------0---0---|


G|---------------------------------|---------------------------------|------------------------------|
D|-----0---------------0-----------|-----0---------------0-----------|-0---0------------0-----------|
A|---------------------------------|---------------------------------|------------------------------|
D|-0-------0---0---0-------0---0---|-0-------0---0---0-------0---0---|----------0---0-------0---0---|


G|------------------------------|---------------------------------|---------------------------------|
D|-----0------------0-----------|-----0---------------0-----------|-----0---------------0-----------|
A|------------------------------|---------------------------------|---------------------------------|
D|-0--------0---0-------0---0---|-0-------0---0---0-------0---0---|-0-------0---0---0-------0---0---|


G|------------------------------|------------------------------|---------------------------------|
D|-0---0------------0-----------|-----0------------0-----------|-----0---------------0-----------|
A|------------------------------|------------------------------|---------------------------------|
D|----------0---0-------0---0---|-0--------0---0-------0---0---|-0-------0---0---0-------0---0---|


G|---------------------------------------|------------------------------------|---------------------------|
D|-----0-----------0--0--0--0--0--0------|-0--0--0--0--0--0---------------0---|-----------------------0---|
A|---------------------------------------|------------------------------------|---------------------------|
D|-0-------0---0---------------------0---|-------------------0---0---0--------|-----0----0---0---0--------|


G|---------------------------|---------------------------|------------------------------|
D|-----------------------0---|--------------0--------0---|---------0----------------0---|
A|---------------------------|---------------------------|------------------------------|
D|-----0----0---0---0--------|-----0----0--------0-------|-----0-------0---0---0--------|


G|---------------------------|---------------------------|---------------------------|
D|-----------------------0---|-----------------------0---|--------------0--------0---|
A|---------------------------|---------------------------|---------------------------|
D|-----0----0---0---0--------|-----0----0---0---0--------|-----0----0--------0-------|


G|------------------------------|---------------------------|---------------------------|
D|---------0----------------0---|-----------------------0---|-----------------------0---|
A|------------------------------|---------------------------|---------------------------|
D|-----0-------0---0---0--------|-----0----0---0---0--------|-----0----0---0---0--------|


G|---------------------------|------------------------------|---------------------------|
D|--------------0--------0---|---------0----------------0---|-----------------------0---|
A|---------------------------|------------------------------|---------------------------|
D|-----0----0--------0-------|-----0-------0---0---0--------|-----0----0---0---0--------|


G|---------------------------|---------------------------|---------------------------------|
D|-----------------------0---|--------------0--------0---|---------0-----------0-----------|
A|---------------------------|---------------------------|---------------------------------|
D|-----0----0---0---0--------|-----0----0--------0-------|-----0-------0---0-------0---0---|


G|------------------------------|---------------------------------|---------------------------------|
D|-----0------------0-----------|-----0---------------0-----------|-----0---------------0-----------|
A|------------------------------|---------------------------------|---------------------------------|
D|-0--------0---0-------0---0---|-0-------0---0---0-------0---0---|-0-------0---0---0-------0---0---|


G|------------------------------|------------------------------|---------------------------------|
D|-0---0------------0-----------|-----0------------0-----------|-----0---------------0-----------|
A|------------------------------|------------------------------|---------------------------------|
D|----------0---0-------0---0---|-0--------0---0-------0---0---|-0-------0---0---0-------0---0---|


G|---------------------------------------|------------------------------------|---------------------------|
D|-----0-----------0--0--0--0--0--0------|-0--0--0--0--0--0---------------0---|-----------------------0---|
A|---------------------------------------|------------------------------------|---------------------------|
D|-0-------0---0---------------------0---|-------------------0---0---0--------|-----0----0---0---0--------|


G|---------------------------|---------------------------|------------------------------|
D|-----------------------0---|--------------0--------0---|---------0----------------0---|
A|---------------------------|---------------------------|------------------------------|
D|-----0----0---0---0--------|-----0----0--------0-------|-----0-------0---0---0--------|


G|---------------------------|---------------------------|---------------------------|
D|-----------------------0---|-----------------------0---|--------------0--------0---|
A|---------------------------|---------------------------|---------------------------|
D|-----0----0---0---0--------|-----0----0---0---0--------|-----0----0--------0-------|


G|------------------------------|---------------------------|---------------------------|
D|---------0----------------0---|-----------------------0---|-----------------------0---|
A|------------------------------|---------------------------|---------------------------|
D|-----0-------0---0---0--------|-----0----0---0---0--------|-----0----0---0---0--------|


G|---------------------------|------------------------------|---------------------------|
D|--------------0--------0---|---------0----------------0---|-----------------------0---|
A|---------------------------|------------------------------|---------------------------|
D|-----0----0--------0-------|-----0-------0---0---0--------|-----0----0---0---0--------|


G|---------------------------|------------------------|-----------------|--------------|
D|-----------------------0---|--------------------0---|-----0----0------|--------------|
A|---------------------------|------------------------|-----------------|--------------|
D|-----0----0---0---0--------|-----0----0----0--------|-0--------0------|--------------|