Site menu:

    

Browse: 0-9 A B C D E F G H I J K L N O P Q R S T U V W X Y Z

thursday - tomorrow ill be you:



Title: Tomorrow I'll Be You
Artist: 
Album: War All The Time
Author: Thursday


Track 1: Guitar 1

E|-----------------------------------------------|-------------------------------------------------|
B|-----------------------------------------------|-------------------------------------------------|
G|-----11-11-11-11-11-11-11-11-11-11-11-11-11-11-|-11-11-11-11-11-11-11-11-11-11-11-11-11-11-11-11-|
D|-----9--9--9--9--9--9--9--9--9--9--9--9--9--9--|-9--9--9--9--9--9--9--9--9--9--9--9--9--9--9--9--|
A|-----------------------------------------------|-------------------------0-----------10-10-10-10-|
D|-----------------------------------------------|-------------------------------------------------|


E|-------------------------------------------------|-------------------------------------------------|
B|-------------------------------------------------|-------------------------------------------------|
G|-11-11-11-11-11-11-11-11-11-11-11-11-11-11-11-11-|-11-11-11-11-11-11-11-11-11-11-11-11-11-11-11-11-|
D|-9--9--9--9--9--9--9--9--9--9--9--9--9--9--9--9--|-9--9--9--9--9--9--9--9--9--9--9--9--9--9--9--9--|
A|-10-10-10-10-10-10-10-10-10-10-10-10-10-10-10-10-|-10-10-10-10-10-10-10-10-10-10-10-10-0--0--0--0--|
D|-------------------------------------------------|-------------------------------------------------|


E|-------------------------------------------------|-------------------------------------------------|
B|-------------------------------------------------|-------------------------------------------------|
G|-11-11-11-11-11-11-11-11-11-11-11-11-11-11-11-11-|-11-11-11-11-11-11-11-11-11-11-11-11-11-11-11-11-|
D|-9--9--9--9--9--9--9--9--9--9--9--9--9--9--9--9--|-9--9--9--9--9--9--9--9--9--9--9--9--9--9--9--9--|
A|-0--0--0--0--0--0--0--0--0--0--0--0--0--0--0--0--|-0--0--0--0--0--0--0--0--0--0--0--0--10-10-10-10-|
D|-------------------------------------------------|-------------------------------------9--9--9--9--|


E|-------------------------------------------------|-------------------------14---14---|
B|-------------------------------------------------|-------------------------10---10---|
G|-11-11-11-11-11-11-11-11-11-11-11-11-11-11-11-11-|-11-11-11-11-11-11-11-11-11---11---|
D|-9--9--9--9--9--9--9--9--9--9--9--9--9--9--9--9--|-9--9--9--9--9--9--9--9--9----9----|
A|-10-10-10-10-10-10-10-10-10-10-10-10-10-10-10-10-|-10-10-10-10-10-10-10-10-10---10---|
D|-9--9--9--9--9--9--9--9--9--9--9--9--9--9--9--9--|-9--9--9--9--9--9--9--9--9----9----|


E|-------------|--------|--------|--------|--------|--------|--------|--------|--------|
B|-------------|--------|--------|--------|--------|--------|--------|--------|--------|
G|-------------|--------|--------|--------|--------|--------|--------|--------|--------|
D|-------------|--------|--------|--------|--------|--------|--------|--------|--------|
A|-------------|--------|--------|--------|--------|--------|--------|--------|--------|
D|-------------|--------|--------|--------|--------|--------|--------|--------|--------|


E|--------|--------|--------|--------|--------|--------|--------|--------|--------|
B|--------|--------|--------|--------|--------|--------|--------|--------|--------|
G|--------|--------|--------|--------|--------|--------|--------|--------|--------|
D|--------|--------|--------|--------|--------|--------|--------|--------|--------|
A|--------|--------|--------|--------|--------|--------|--------|--------|--------|
D|--------|--------|--------|--------|--------|--------|--------|--------|--------|


E|--------|--------|--------|--------|--------|--------|--------|--------|--------|
B|--------|--------|--------|--------|--------|--------|--------|--------|--------|
G|--------|--------|--------|--------|--------|--------|--------|--------|--------|
D|--------|--------|--------|--------|--------|--------|--------|--------|--------|
A|--------|--------|--------|--------|--------|--------|--------|--------|--------|
D|--------|--------|--------|--------|--------|--------|--------|--------|--------|


E|--------|--------|--------|--------|--------|--------|--------|--------|--------|
B|--------|--------|--------|--------|--------|--------|--------|--------|--------|
G|--------|--------|--------|--------|--------|--------|--------|--------|--------|
D|--------|--------|--------|--------|--------|--------|--------|--------|--------|
A|--------|--------|--------|--------|--------|--------|--------|--------|--------|
D|--------|--------|--------|--------|--------|--------|--------|--------|--------|


E|--------|--------|--------|--------|--------|--------|--------|--------|--------|
B|--------|--------|--------|--------|--------|--------|--------|--------|--------|
G|--------|--------|--------|--------|--------|--------|--------|--------|--------|
D|--------|--------|--------|--------|--------|--------|--------|--------|--------|
A|--------|--------|--------|--------|--------|--------|--------|--------|--------|
D|--------|--------|--------|--------|--------|--------|--------|--------|--------|


E|--------|--------|--------|--------|--------|--------|--------|--------|--------|
B|--------|--------|--------|--------|--------|--------|--------|--------|--------|
G|--------|--------|--------|--------|--------|--------|--------|--------|--------|
D|--------|--------|--------|--------|--------|--------|--------|--------|--------|
A|--------|--------|--------|--------|--------|--------|--------|--------|--------|
D|--------|--------|--------|--------|--------|--------|--------|--------|--------|


E|--------|--------|--------|--------|--------|--------|--------|--------|--------|
B|--------|--------|--------|--------|--------|--------|--------|--------|--------|
G|--------|--------|--------|--------|--------|--------|--------|--------|--------|
D|--------|--------|--------|--------|--------|--------|--------|--------|--------|
A|--------|--------|--------|--------|--------|--------|--------|--------|--------|
D|--------|--------|--------|--------|--------|--------|--------|--------|--------|


E|--------|--------|--------|--------|--------|--------|--------|--------|--------|
B|--------|--------|--------|--------|--------|--------|--------|--------|--------|
G|--------|--------|--------|--------|--------|--------|--------|--------|--------|
D|--------|--------|--------|--------|--------|--------|--------|--------|--------|
A|--------|--------|--------|--------|--------|--------|--------|--------|--------|
D|--------|--------|--------|--------|--------|--------|--------|--------|--------|


E|--------|--------|--------|--------|--------|--------|--------|--------|--------|
B|--------|--------|--------|--------|--------|--------|--------|--------|--------|
G|--------|--------|--------|--------|--------|--------|--------|--------|--------|
D|--------|--------|--------|--------|--------|--------|--------|--------|--------|
A|--------|--------|--------|--------|--------|--------|--------|--------|--------|
D|--------|--------|--------|--------|--------|--------|--------|--------|--------|


E|--------|--------|--------|--------|--------|--------|--------|--------|--------|
B|--------|--------|--------|--------|--------|--------|--------|--------|--------|
G|--------|--------|--------|--------|--------|--------|--------|--------|--------|
D|--------|--------|--------|--------|--------|--------|--------|--------|--------|
A|--------|--------|--------|--------|--------|--------|--------|--------|--------|
D|--------|--------|--------|--------|--------|--------|--------|--------|--------|


E|--------|--------|--------|--------|--------|--------|--------|--------|--------|
B|--------|--------|--------|--------|--------|--------|--------|--------|--------|
G|--------|--------|--------|--------|--------|--------|--------|--------|--------|
D|--------|--------|--------|--------|--------|--------|--------|--------|--------|
A|--------|--------|--------|--------|--------|--------|--------|--------|--------|
D|--------|--------|--------|--------|--------|--------|--------|--------|--------|


E|--------|--------|--------|--------|--------|--------|--------|--------|--------|
B|--------|--------|--------|--------|--------|--------|--------|--------|--------|
G|--------|--------|--------|--------|--------|--------|--------|--------|--------|
D|--------|--------|--------|--------|--------|--------|--------|--------|--------|
A|--------|--------|--------|--------|--------|--------|--------|--------|--------|
D|--------|--------|--------|--------|--------|--------|--------|--------|--------|


E|--------|--------|--------|--------|--------|--------|--------|--------|--------|
B|--------|--------|--------|--------|--------|--------|--------|--------|--------|
G|--------|--------|--------|--------|--------|--------|--------|--------|--------|
D|--------|--------|--------|--------|--------|--------|--------|--------|--------|
A|--------|--------|--------|--------|--------|--------|--------|--------|--------|
D|--------|--------|--------|--------|--------|--------|--------|--------|--------|


E|--------|--------|--------|--------|--------|--------|--------|--------|--------|
B|--------|--------|--------|--------|--------|--------|--------|--------|--------|
G|--------|--------|--------|--------|--------|--------|--------|--------|--------|
D|--------|--------|--------|--------|--------|--------|--------|--------|--------|
A|--------|--------|--------|--------|--------|--------|--------|--------|--------|
D|--------|--------|--------|--------|--------|--------|--------|--------|--------|


E|--------|--------|--------|--------|--------|--------|--------|
B|--------|--------|--------|--------|--------|--------|--------|
G|--------|--------|--------|--------|--------|--------|--------|
D|--------|--------|--------|--------|--------|--------|--------|
A|--------|--------|--------|--------|--------|--------|--------|
D|--------|--------|--------|--------|--------|--------|--------|





Track 2: Guitar 2

E|--------|----------------|---------------------|----------------------9---10--|-9-------10--9-------9---10------|
B|--------|----------------|------12-------------|----------12------------------|-----12----------12----------12--|
G|--------|----------------|-11---------11--11---|-11---11------11--------------|---------------------------------|
D|--------|------------9---|---------------------|------------------9-----------|---------------------------------|
A|--------|----------------|---------------------|------------------------------|---------------------------------|
E|--------|----------------|---------------------|------------------------------|---------------------------------|


E|-----10--9---10----------12--14--|-12------14----------15------14--|-----14------14------14-------|
B|-----------------12--------------|-----12----------12------15------|-15------15------15-----------|
G|-11------------------11----------|-------------12------------------|------------------------------|
D|---------------------------------|---------------------------------|------------------------------|
A|---------------------------------|---------------------------------|------------------------------|
E|---------------------------------|---------------------------------|------------------------------|


E|--------|--------|--------|--------|--------|--------|--------|--------|--------|
B|--------|--------|--------|--------|--------|--------|--------|--------|--------|
G|--------|--------|--------|--------|--------|--------|--------|--------|--------|
D|--------|--------|--------|--------|--------|--------|--------|--------|--------|
A|--------|--------|--------|--------|--------|--------|--------|--------|--------|
E|--------|--------|--------|--------|--------|--------|--------|--------|--------|


E|--------|--------|--------|--------|--------|--------|--------|--------|--------|
B|--------|--------|--------|--------|--------|--------|--------|--------|--------|
G|--------|--------|--------|--------|--------|--------|--------|--------|--------|
D|--------|--------|--------|--------|--------|--------|--------|--------|--------|
A|--------|--------|--------|--------|--------|--------|--------|--------|--------|
E|--------|--------|--------|--------|--------|--------|--------|--------|--------|


E|--------|--------|--------|--------|--------|--------|--------|--------|--------|
B|--------|--------|--------|--------|--------|--------|--------|--------|--------|
G|--------|--------|--------|--------|--------|--------|--------|--------|--------|
D|--------|--------|--------|--------|--------|--------|--------|--------|--------|
A|--------|--------|--------|--------|--------|--------|--------|--------|--------|
E|--------|--------|--------|--------|--------|--------|--------|--------|--------|


E|--------|--------|--------|--------|--------|--------|--------|--------|--------|
B|--------|--------|--------|--------|--------|--------|--------|--------|--------|
G|--------|--------|--------|--------|--------|--------|--------|--------|--------|
D|--------|--------|--------|--------|--------|--------|--------|--------|--------|
A|--------|--------|--------|--------|--------|--------|--------|--------|--------|
E|--------|--------|--------|--------|--------|--------|--------|--------|--------|


E|--------|--------|--------|--------|--------|--------|--------|--------|--------|
B|--------|--------|--------|--------|--------|--------|--------|--------|--------|
G|--------|--------|--------|--------|--------|--------|--------|--------|--------|
D|--------|--------|--------|--------|--------|--------|--------|--------|--------|
A|--------|--------|--------|--------|--------|--------|--------|--------|--------|
E|--------|--------|--------|--------|--------|--------|--------|--------|--------|


E|--------|--------|--------|--------|--------|--------|--------|--------|--------|
B|--------|--------|--------|--------|--------|--------|--------|--------|--------|
G|--------|--------|--------|--------|--------|--------|--------|--------|--------|
D|--------|--------|--------|--------|--------|--------|--------|--------|--------|
A|--------|--------|--------|--------|--------|--------|--------|--------|--------|
E|--------|--------|--------|--------|--------|--------|--------|--------|--------|


E|--------|--------|--------|--------|--------|--------|--------|--------|--------|
B|--------|--------|--------|--------|--------|--------|--------|--------|--------|
G|--------|--------|--------|--------|--------|--------|--------|--------|--------|
D|--------|--------|--------|--------|--------|--------|--------|--------|--------|
A|--------|--------|--------|--------|--------|--------|--------|--------|--------|
E|--------|--------|--------|--------|--------|--------|--------|--------|--------|


E|--------|--------|--------|--------|--------|--------|--------|--------|------------0---|
B|--------|--------|--------|--------|--------|--------|--------|--------|------------14--|
G|--------|--------|--------|--------|--------|--------|--------|--------|----------------|
D|--------|--------|--------|--------|--------|--------|--------|--------|----------------|
A|--------|--------|--------|--------|--------|--------|--------|--------|----------------|
E|--------|--------|--------|--------|--------|--------|--------|--------|----------------|


E|-0---0---0---0---0---0---0---0---|-0---0---0---0---0---0---0---0---|-0---0---0---0---0---0---0---0---|
B|-14--14--14--7---7---7---7---8---|-8---8---8---7---7---7---7---14--|-14--14--14--7---7---7---7---8---|
G|---------------------------------|---------------------------------|---------------------------------|
D|---------------------------------|---------------------------------|---------------------------------|
A|---------------------------------|---------------------------------|---------------------------------|
E|---------------------------------|---------------------------------|---------------------------------|


E|-0---0---0---0---0---0---0---0---|-0---0---0---0---0---0---0---0---|-0---0---0---0---0---0---0---0---|
B|-8---8---8---7---7---7---7---14--|-14--14--14--7---7---7---7---8---|-8---8---8---7---7---7---7---14--|
G|---------------------------------|---------------------------------|---------------------------------|
D|---------------------------------|---------------------------------|---------------------------------|
A|---------------------------------|---------------------------------|---------------------------------|
E|---------------------------------|---------------------------------|---------------------------------|


E|-0---0---0---0---0---0---0-------|-----------------|--------|--------|--------|--------|
B|-14--14--14--7---7---8-------8---|------8----------|--------|--------|--------|--------|
G|---------------------------------|-----------------|--------|--------|--------|--------|
D|---------------------------------|-----------------|--------|--------|--------|--------|
A|---------------------------------|-----------------|--------|--------|--------|--------|
E|---------------------------------|-----------------|--------|--------|--------|--------|


E|--------|--------|--------|--------|--------|--------|--------|----------------|
B|--------|--------|--------|--------|--------|--------|--------|----------------|
G|--------|--------|--------|--------|--------|--------|--------|--------11--11--|
D|--------|--------|--------|--------|--------|--------|--------|--------9---9---|
A|--------|--------|--------|--------|--------|--------|--------|----------------|
E|--------|--------|--------|--------|--------|--------|--------|----------------|


E|---------------------------------|---------------------------------|---------------------------------|
B|---------------------------------|---------------------------------|---------------------------------|
G|-11------------------------------|-------------------------11--11--|-11------------------------------|
D|-9---9---9---9---9---9---9---9---|-9---9---9---9---9---9---9---9---|-9---9---9---9---9---9---9---9---|
A|-----7---7---7---10--10--10--10--|-10--10--10--10--10--10----------|-----7---7---7---10--10--10--10--|
E|---------------------------------|---------------------------------|---------------------------------|


E|---------------------------------|---------------------------------|---------------------------------|
B|---------------------------------|---------------------------------|---------------------------------|
G|-------------------------11--11--|-11------------------------------|-------------------------11--11--|
D|-9---9---9---9---9---9---9---9---|-9---9---9---9---9---9---9---9---|-9---9---9---9---9---9---9---9---|
A|-10--10--10--10--10--10----------|-----7---7---7---10--10--10--10--|-10--10--10--10--10--10----------|
E|---------------------------------|---------------------------------|---------------------------------|


E|---------------------------------|---------------------------------|---------------------------------|
B|---------------------------------|---------------------------------|---------------------------------|
G|-11------------------------------|-------------------------11--11--|-11------------------------------|
D|-9---9---9---9---9---9---9---9---|-9---9---9---9---9---9---9---9---|-9---9---9---9---9---9---9---9---|
A|-----7---7---7---10--10--10--10--|-10--10--10--10--10--10----------|-----7---7---7---10--10--10--10--|
E|---------------------------------|---------------------------------|---------------------------------|


E|---------------------------------|---------------------------------|---------------------------------|
B|---------------------------------|---------------------------------|---------------------------------|
G|-------------------------11--11--|-11------------------------------|-------------------------11--11--|
D|-9---9---9---9---9---9---9---9---|-9---9---9---9---9---9---9---9---|-9---9---9---9---9---9---9---9---|
A|-10--10--10--10--10--10----------|-----7---7---7---10--10--10--10--|-10--10--10--10--10--10----------|
E|---------------------------------|---------------------------------|---------------------------------|


E|---------------------------------|---------------------------------|---------------------------------|
B|---------------------------------|---------------------------------|---------------------------------|
G|-11------------------------------|-------------------------11--11--|-11------------------------------|
D|-9---9---9---9---9---9---9---9---|-9---9---9---9---9---9---9---9---|-9---9---9---9---9---9---9---9---|
A|-----7---7---7---10--10--10--10--|-10--10--10--10--10--10----------|-----7---7---7---10--10--10--10--|
E|---------------------------------|---------------------------------|---------------------------------|


E|------------------------------|--------|--------|--------|--------|--------|--------|
B|------------------------------|--------|--------|--------|--------|--------|--------|
G|------------------------------|--------|--------|--------|--------|--------|--------|
D|-9---9---9---9---9---9--------|--------|--------|--------|--------|--------|--------|
A|-10--10--10--10--10--10-------|--------|--------|--------|--------|--------|--------|
E|------------------------------|--------|--------|--------|--------|--------|--------|


E|--------|--------|--------|--------|--------|--------|--------|--------|--------|
B|--------|--------|--------|--------|--------|--------|--------|--------|--------|
G|--------|--------|--------|--------|--------|--------|--------|--------|--------|
D|--------|--------|--------|--------|--------|--------|--------|--------|--------|
A|--------|--------|--------|--------|--------|--------|--------|--------|--------|
E|--------|--------|--------|--------|--------|--------|--------|--------|--------|


E|--------|--------|--------|--------|--------|--------|--------|--------|--------|
B|--------|--------|--------|--------|--------|--------|--------|--------|--------|
G|--------|--------|--------|--------|--------|--------|--------|--------|--------|
D|--------|--------|--------|--------|--------|--------|--------|--------|--------|
A|--------|--------|--------|--------|--------|--------|--------|--------|--------|
E|--------|--------|--------|--------|--------|--------|--------|--------|--------|


E|--------|
B|--------|
G|--------|
D|--------|
A|--------|
E|--------|





Track 3: Guitar 3

E|--------|--------|--------|----------------|------------------------------|----------0------------0---|
B|--------|--------|--------|------------7---|---------7--------7---7-------|-7-------------------------|
G|--------|--------|--------|--------4-------|-----4--------4-----------4---|------4--------4---7-------|
D|--------|--------|--------|----------------|------------------------------|---------------------------|
A|--------|--------|--------|----------------|------------------------------|---------------------------|
E|--------|--------|--------|----------------|------------------------------|---------------------------|


E|---------0--------0---0-------|-0---------------|--------|--------|--------|--------|
B|------------------------------|------10---------|--------|--------|--------|--------|
G|-----7--------7-----------7---|-----------------|--------|--------|--------|--------|
D|------------------------------|-----------------|--------|--------|--------|--------|
A|------------------------------|-----------------|--------|--------|--------|--------|
E|------------------------------|-----------------|--------|--------|--------|--------|


E|--------|--------|--------|--------|--------|--------|--------|--------|--------|
B|--------|--------|--------|--------|--------|--------|--------|--------|--------|
G|--------|--------|--------|--------|--------|--------|--------|--------|--------|
D|--------|--------|--------|--------|--------|--------|--------|--------|--------|
A|--------|--------|--------|--------|--------|--------|--------|--------|--------|
E|--------|--------|--------|--------|--------|--------|--------|--------|--------|


E|--------|--------|--------|--------|--------|--------|--------|--------|--------|
B|--------|--------|--------|--------|--------|--------|--------|--------|--------|
G|--------|--------|--------|--------|--------|--------|--------|--------|--------|
D|--------|--------|--------|--------|--------|--------|--------|--------|--------|
A|--------|--------|--------|--------|--------|--------|--------|--------|--------|
E|--------|--------|--------|--------|--------|--------|--------|--------|--------|


E|--------|--------|--------|--------|--------|--------|--------|--------|--------|
B|--------|--------|--------|--------|--------|--------|--------|--------|--------|
G|--------|--------|--------|--------|--------|--------|--------|--------|--------|
D|--------|--------|--------|--------|--------|--------|--------|--------|--------|
A|--------|--------|--------|--------|--------|--------|--------|--------|--------|
E|--------|--------|--------|--------|--------|--------|--------|--------|--------|


E|--------|--------|--------|--------|--------|--------|--------|--------|--------|
B|--------|--------|--------|--------|--------|--------|--------|--------|--------|
G|--------|--------|--------|--------|--------|--------|--------|--------|--------|
D|--------|--------|--------|--------|--------|--------|--------|--------|--------|
A|--------|--------|--------|--------|--------|--------|--------|--------|--------|
E|--------|--------|--------|--------|--------|--------|--------|--------|--------|


E|--------|--------|--------|--------|--------|--------|--------|--------|--------|
B|--------|--------|--------|--------|--------|--------|--------|--------|--------|
G|--------|--------|--------|--------|--------|--------|--------|--------|--------|
D|--------|--------|--------|--------|--------|--------|--------|--------|--------|
A|--------|--------|--------|--------|--------|--------|--------|--------|--------|
E|--------|--------|--------|--------|--------|--------|--------|--------|--------|


E|--------|--------|--------|--------|--------|--------|--------|--------|--------|
B|--------|--------|--------|--------|--------|--------|--------|--------|--------|
G|--------|--------|--------|--------|--------|--------|--------|--------|--------|
D|--------|--------|--------|--------|--------|--------|--------|--------|--------|
A|--------|--------|--------|--------|--------|--------|--------|--------|--------|
E|--------|--------|--------|--------|--------|--------|--------|--------|--------|


E|--------|--------|--------|--------|--------|--------|--------|--------|--------|
B|--------|--------|--------|--------|--------|--------|--------|--------|--------|
G|--------|--------|--------|--------|--------|--------|--------|--------|--------|
D|--------|--------|--------|--------|--------|--------|--------|--------|--------|
A|--------|--------|--------|--------|--------|--------|--------|--------|--------|
E|--------|--------|--------|--------|--------|--------|--------|--------|--------|


E|--------|--------|--------|--------|--------|--------|--------|--------|--------|
B|--------|--------|--------|--------|--------|--------|--------|--------|--------|
G|--------|--------|--------|--------|--------|--------|--------|--------|--------|
D|--------|--------|--------|--------|--------|--------|--------|--------|--------|
A|--------|--------|--------|--------|--------|--------|--------|--------|--------|
E|--------|--------|--------|--------|--------|--------|--------|--------|--------|


E|--------|--------|--------|--------|--------|--------|--------|--------|--------|
B|--------|--------|--------|--------|--------|--------|--------|--------|--------|
G|--------|--------|--------|--------|--------|--------|--------|--------|--------|
D|--------|--------|--------|--------|--------|--------|--------|--------|--------|
A|--------|--------|--------|--------|--------|--------|--------|--------|--------|
E|--------|--------|--------|--------|--------|--------|--------|--------|--------|


E|--------|--------|--------|--------|--------|--------|----------------|---------------------------------|
B|--------|--------|--------|--------|--------|--------|--------10--10--|-10--10--10--10--10--12--12--12--|
G|--------|--------|--------|--------|--------|--------|--------11--11--|-11--11--11--11--11--------------|
D|--------|--------|--------|--------|--------|--------|--------9---9---|-9---9---9---9---9---9---9---9---|
A|--------|--------|--------|--------|--------|--------|----------------|---------------------------------|
E|--------|--------|--------|--------|--------|--------|----------------|---------------------------------|


E|---------------------------------|---------------------------------|---------------------------------|
B|-12--12--12--12--12--12--10--10--|-10--10--10--10--10--12--12--12--|-12--12--12--12--12--12--10--10--|
G|-------------------------11--11--|-11--11--11--11--11--------------|-------------------------11--11--|
D|-9---9---9---9---9---9---9---9---|-9---9---9---9---9---9---9---9---|-9---9---9---9---9---9---9---9---|
A|---------------------------------|---------------------------------|---------------------------------|
E|---------------------------------|---------------------------------|---------------------------------|


E|---------------------------------|---------------------------------|---------------------------------|
B|-10--10--10--10--10--12--12--12--|-12--12--12--12--12--12--10--10--|-10--10--10--10--10--12--12--12--|
G|-11--11--11--11--11--------------|-------------------------11--11--|-11--11--11--11--11--------------|
D|-9---9---9---9---9---9---9---9---|-9---9---9---9---9---9---9---9---|-9---9---9---9---9---9---9---9---|
A|---------------------------------|---------------------------------|---------------------------------|
E|---------------------------------|---------------------------------|---------------------------------|


E|---------------------------------|---------------------------------|---------------------------------|
B|-12--12--12--12--12--12--10--10--|-10--10--10--10--10--12--12--12--|-12--12--12--12--12--12--10--10--|
G|-------------------------11--11--|-11--11--11--11--11--------------|-------------------------11--11--|
D|-9---9---9---9---9---9---9---9---|-9---9---9---9---9---9---9---9---|-9---9---9---9---9---9---9---9---|
A|---------------------------------|---------------------------------|---------------------------------|
E|---------------------------------|---------------------------------|---------------------------------|


E|---------------------------------|---------------------------------|---------------------------------|
B|-10--10--10--10--10--12--12--12--|-12--12--12--12--12--12--10--10--|-10--10--10--10--10--12--12--12--|
G|-11--11--11--11--11--------------|-------------------------11--11--|-11--11--11--11--11--------------|
D|-9---9---9---9---9---9---9---9---|-9---9---9---9---9---9---9---9---|-9---9---9---9---9---9---9---9---|
A|---------------------------------|---------------------------------|---------------------------------|
E|---------------------------------|---------------------------------|---------------------------------|


E|---------------------------------|---------------------------------|------------------------------|
B|-12--12--12--12--12--12--10--10--|-10--10--10--10--10--12--12--12--|-12--12--12--12--12--12-------|
G|-------------------------11--11--|-11--11--11--11--11--------------|------------------------------|
D|-9---9---9---9---9---9---9---9---|-9---9---9---9---9---9---9---9---|-9---9---9---9---9---9--------|
A|---------------------------------|---------------------------------|------------------------------|
E|---------------------------------|---------------------------------|------------------------------|


E|--------|--------|--------|--------|--------|--------|--------|--------|--------|
B|--------|--------|--------|--------|--------|--------|--------|--------|--------|
G|--------|--------|--------|--------|--------|--------|--------|--------|--------|
D|--------|--------|--------|--------|--------|--------|--------|--------|--------|
A|--------|--------|--------|--------|--------|--------|--------|--------|--------|
E|--------|--------|--------|--------|--------|--------|--------|--------|--------|


E|--------|--------|--------|--------|--------|--------|--------|--------|--------|
B|--------|--------|--------|--------|--------|--------|--------|--------|--------|
G|--------|--------|--------|--------|--------|--------|--------|--------|--------|
D|--------|--------|--------|--------|--------|--------|--------|--------|--------|
A|--------|--------|--------|--------|--------|--------|--------|--------|--------|
E|--------|--------|--------|--------|--------|--------|--------|--------|--------|


E|--------|--------|--------|--------|--------|--------|--------|
B|--------|--------|--------|--------|--------|--------|--------|
G|--------|--------|--------|--------|--------|--------|--------|
D|--------|--------|--------|--------|--------|--------|--------|
A|--------|--------|--------|--------|--------|--------|--------|
E|--------|--------|--------|--------|--------|--------|--------|





Track 4: Distortion Guitar 2

E|--------|--------|--------|--------|--------|--------|--------|------------------|
B|--------|--------|--------|--------|--------|--------|--------|--------3---3--3--|
G|--------|--------|--------|--------|--------|--------|--------|------------------|
D|--------|--------|--------|--------|--------|--------|--------|--------4---4--4--|
A|--------|--------|--------|--------|--------|--------|--------|--------2---2--2--|
D|--------|--------|--------|--------|--------|--------|--------|------------------|


E|-------------------------------------------|-----------------------------------------|
B|-3--3--3---3--3--3--3--3---------3---3--3--|-3--3--3---3--3--3--3--3-----------------|
G|-------------------------------------------|-------------------------------7---7--7--|
D|-4--4--4---4--4--4--4--4---------4---4--4--|-4--4--4---4--4--4--4--4-------5---5--5--|
A|-2--2--2---2--2--2--2--2---0--2--2---2--2--|-2--2--2---2--2--2--2--2---0---5---5--5--|
D|---------------------------0--2--2---2--2--|-2--2--2---2--2--2--2--2---0---5---5--5--|


E|-------------------------------------------|-----------------------------------------|
B|-------------------------------------------|-------------------------------3---3--3--|
G|-7--7--7---7--7--7--7--7---7--7--7---7--7--|-7--7--7---7--7--7--7--7-----------------|
D|-5--5--5---5--5--5--5--5---5--5--5---5--5--|-5--5--5---5--5--5--5--5-------4---4--4--|
A|-5--5--5---5--5--5--5--5---5--5--5---5--5--|-5--5--5---5--5--5--5--5---0---2---2--2--|
D|-5--5--5---5--5--5--5--5---5--5--5---5--5--|-5--5--5---5--5--5--5--5---0-------------|


E|-----------------------------------------|-----------------------------------------|
B|-3--3--3---3--3--3--3--3-------3---3--3--|-3--3--3---3--3--3--3--3-----------------|
G|-----------------------------------------|-------------------------------7---7--7--|
D|-4--4--4---4--4--4--4--4-------4---4--4--|-4--4--4---4--4--4--4--4-------5---5--5--|
A|-2--2--2---2--2--2--2--2---0---2---2--2--|-2--2--2---2--2--2--2--2---0---5---5--5--|
D|---------------------------0---2---2--2--|-2--2--2---2--2--2--2--2---0---5---5--5--|


E|---------------------------------------|---------------------------------|---------------------------------|
B|---------------------------------------|-------------------------3----3--|-3---3---3-----------------------|
G|-7--7--7---7--7--7--7--7---7---7---7---|-7---7---7---7---7---------------|-----------------7----7--7---7---|
D|-5--5--5---5--5--5--5--5---5---8---8---|-8---8---8---8---8-------4----4--|-4---4---4-------4----4--4---4---|
A|-5--5--5---5--5--5--5--5---5---8---8---|-8---8---8---8---8---0---2----2--|-2---2---2---0---4----4--4---4---|
D|-5--5--5---5--5--5--5--5---5---8---8---|-8---8---8---8---8---0-----------|-------------0---4----4--4---4---|


E|---------------------------------|---------------------------------|---------------------------------|
B|---------------------------------|-3----3--3---3---3-------3----3--|-3---3---3-----------------------|
G|-7---7---7----7--7---7---6---6---|-6----6--6---6---6---------------|-----------------7----7--7---7---|
D|-4---4---5----5--5---5---5---5---|-5----5--5---5---5-------4----4--|-4---4---4-------4----4--4---4---|
A|-4---4---5----5--5---5---5---5---|-5----5--5---5---5---0---2----2--|-2---2---2---0---4----4--4---4---|
D|-4---4---5----5--5---5---5---5---|-5----5--5---5---5---0-----------|-------------0---4----4--4---4---|


E|---------5----5--5---5---5---5---|-5----5--5---5---5---------------|---------------------------------|
B|---------3----3--3---3---3---3---|-3----3--3---3---3-------3----3--|-3---3---3-----------------------|
G|-7---7---------------------------|---------------------------------|-----------------7----7--7---7---|
D|-4---4---5----5--5---5---5---5---|-5----5--5---5---5-------4----4--|-4---4---4-------4----4--4---4---|
A|-4---4---5----5--5---5---5---5---|-5----5--5---5---5---0---2----2--|-2---2---2---0---4----4--4---4---|
D|-4---4---5----5--5---5---5---5---|-5----5--5---5---5---0-----------|-------------0---4----4--4---4---|


E|---------------------------------|---------------------------------|---------------------------------|
B|---------------------------------|-------------------------3----3--|-3---3---3-----------------------|
G|-7---7---7----7--7---7---7---7---|-7----7--7---7---7---------------|-----------------7----7--7---7---|
D|-4---4---5----5--5---5---5---5---|-5----5--5---5---5-------4----4--|-4---4---4-------4----4--4---4---|
A|-4---4---5----5--5---5---5---5---|-5----5--5---5---5---0---2----2--|-2---2---2---0---4----4--4---4---|
D|-4---4---5----5--5---5---5---5---|-5----5--5---5---5---0-----------|-------------0---4----4--4---4---|


E|---------------------------------|------------------------------|-------------|---------------------------|
B|---------------------------------|------------------------------|-------------|---------------------------|
G|-7---7---7----7--7---7---7---7---|-7----7--7---7---7------------|-------------|---------------------------|
D|-4---4---5----5--5---5---5---5---|-5----5--5---5---5-------4----|--------4----|------2---4---4---7---7----|
A|-4---4---5----5--5---5---5---5---|-5----5--5---5---5---0---2----|--------2----|------2-------2---5---5----|
D|-4---4---5----5--5---5---5---5---|-5----5--5---5---5------------|-------------|---------------------------|


E|------------------------------|------------------------------|-----10--10----10---|
B|------------------------------|------------------------------|-----0---0-----0----|
G|------------------------------|------------------------------|--------------------|
D|------7---7---7---7---7---7---|-7---7---7---7---7------------|--------------------|
A|------5---5---5---5---5---5---|-5---5---5---5---5------------|--------------------|
D|------------------------------|------------------------------|--------------------|


E|-----9---9----------|-----0--------------|-----0--------------|-----10--10---------|
B|-----0---0----------|-----5---7----------|-----5---3----------|-----0---0----------|
G|--------------------|--------------------|--------------------|--------------------|
D|--------------------|--------------------|--------------------|--------------------|
A|--------------------|--------------------|--------------------|--------------------|
D|--------------------|--------------------|--------------------|--------------------|


E|-----9---9----------|-----0--------------|-----0---------10--10--|-10--10--10--10--10--10--9---9---|
B|-----0---0----------|-----5---7----------|-----7---10----0---0---|-0---0---0---0---0---0---0---0---|
G|--------------------|--------------------|-----------------------|---------------------------------|
D|--------------------|--------------------|-----------------------|---------------------------------|
A|--------------------|--------------------|-----------------------|---------------------------------|
D|--------------------|--------------------|-----------------------|---------------------------------|


E|-9---9---9---9---9---0---0-------|-0---0---0---0---0---0---0-------|-0---0-------0---0-------0---0---|
B|-0---0---0---0---0---5---5---7---|-7---7---7---7---7---5---5---3---|-3---3---2---2---2---14--15--15--|
G|---------------------------------|---------------------------------|---------------------------------|
D|---------------------------------|---------------------------------|---------------------------------|
A|---------------------------------|---------------------------------|---------------------------------|
D|---------------------------------|---------------------------------|---------------------------------|


E|-0---0---0---0---0---0---0---0---|-0---0---0---0---0-------0---0---|-0---0---0---0---0---0---0---0---|
B|-15--15--15--17--17--17--14--14--|-14--14--14--14--14--19--19--19--|-19--19--19--19--19--19--19--19--|
G|---------------------------------|---------------------------------|---------------------------------|
D|---------------------------------|---------------------------------|---------------------------------|
A|---------------------------------|---------------------------------|---------------------------------|
D|---------------------------------|---------------------------------|---------------------------------|


E|-0---0---0---0---0---0-----10--10--|-10--10--10--10--10--10--9---9---|-9---9---9---9---9---9---10--10--|
B|-19--19--19--19--19--19-0--7---7---|-7---7---7---7---7---7---7---7---|-7---7---7---7---7---8---8---8---|
G|---------------------------7---7---|-7---7---7---7---7---7---7---7---|-7---7---7---7---7---7---7---7---|
D|-----------------------------------|---------------------------------|---------------------------------|
A|-----------------------------------|---------------------------------|---------------------------------|
D|-----------------------------------|---------------------------------|---------------------------------|


E|-10--10--10--10--10--10--10--10--|-10--10--10--10--10--10----------|---------------------------------|
B|-8---8---8---8---8---8---7---7---|-7---7---7---7---7---7---7---7---|-7---7---7---7---7---7---10--10--|
G|-7---7---7---7---7---7---7---7---|-7---7---9---9---9---9---7---7---|-7---7---7---7---7---7---9---9---|
D|---------------------------------|---------------------------------|---------------------------------|
A|---------------------------------|---------------------------------|---------------------------------|
D|---------------------------------|---------------------------------|---------------------------------|


E|---------------------------------|---------------------------------|---------------------------------|
B|-10--10--10--10--10--10--10--10--|-10--10--7---8---7---8---7---7---|-7---8---7---7---7---7---7---7---|
G|-9---9---9---9---9---9---7---7---|-7---7---7---7---7---7---7---7---|-7---7---7---7---7---7---7---7---|
D|---------------------------------|---------------------------------|---------------------------------|
A|---------------------------------|---------------------------------|---------------------------------|
D|---------------------------------|---------------------------------|---------------------------------|


E|-------------------------9-------|-9---9---9---9---9---9---10--10--|-10--10--10--10--10--10--10--10--|
B|-7---7---7---7---7---7---7---7---|-7---7---7---7---7---7---8---8---|-8---8---8---8---8---8---7---7---|
G|-7---7---7---7---7---7---7---7---|-7---7---7---7---7---7---7---7---|-7---7---7---7---7---7---7---7---|
D|---------------------------------|---------------------------------|---------------------------------|
A|---------------------------------|---------------------------------|---------------------------------|
D|---------------------------------|---------------------------------|---------------------------------|


E|-10--10--10--10--10--10----------|---------------------------------|---------------------------------|
B|-7---7---7---7---7---7---10--10--|-10--10--10--10--10--10--10--10--|-10--10--10--10--10--7---7---7---|
G|-7---7---9---9---9---9---7---7---|-7---7---7---7---7---7---9---9---|-9---9---9---9---9---7---7---7---|
D|---------------------------------|---------------------------------|---------------------------------|
A|---------------------------------|---------------------------------|---------------------------------|
D|---------------------------------|---------------------------------|---------------------------------|


E|------------------------------|---------------------------|---------------------------------|
B|-7---7---7---8---7----7---8---|-7----7---8---7----3----3--|-3---3---3----3--3---------------|
G|-7---7---7---7---7----7---7---|-7----7---7---7------------|-------------------------7----7--|
D|------------------------------|-------------------4----4--|-4---4---4----4--4-------4----4--|
A|------------------------------|-------------------2----2--|-2---2---2----2--2---0---4----4--|
D|------------------------------|---------------------------|---------------------0---4----4--|


E|---------------------------------|---------------------------------|---------------------------------|
B|---------------------------------|---------------------------------|-------------------------3----3--|
G|-7---7---7----7--7---7---7----7--|-7---7---7----7--7---7---6----6--|-6---6---6----6--6---------------|
D|-4---4---4----4--4---4---5----5--|-5---5---5----5--5---5---5----5--|-5---5---5----5--5---0---4----4--|
A|-4---4---4----4--4---4---5----5--|-5---5---5----5--5---5---5----5--|-5---5---5----5--5---0---2----2--|
D|-4---4---4----4--4---4---5----5--|-5---5---5----5--5---5---5----5--|-5---5---5----5--5---0-----------|


E|---------------------------------|------------------------------5--|-5---5---5----5--5---5---5----5--|
B|-3---3---3----3--3---------------|-------------------------3----3--|-3---3---3----3--3---3---3----3--|
G|-------------------------7----7--|-7---7---7----7--7---7-----------|---------------------------------|
D|-4---4---4----4--4-------4----4--|-4---4---4----4--4---4---5----5--|-5---5---5----5--5---5---5----5--|
A|-2---2---2----2--2---0---4----4--|-4---4---4----4--4---4---5----5--|-5---5---5----5--5---5---5----5--|
D|---------------------0---4----4--|-4---4---4----4--4---4---5----5--|-5---5---5----5--5---5---5----5--|


E|-5---5---5----5--5------------|-------------|--------2----|-------2----2----|--------|
B|-3---3---3----3--3-------3----|--------3----|--------3----|-------3----3----|--------|
G|------------------------------|-------------|-------------|-----------------|--------|
D|-5---5---5----5--5---0---4----|--------4----|--------4----|-------4----4----|--------|
A|-5---5---5----5--5---0---2----|--------2----|--------2----|-------2----2----|--------|
D|-5---5---5----5--5---0--------|-------------|-------------|-----------------|--------|


E|--------|--------|--------|--------|--------|--------|--------|--------|--------|
B|--------|--------|--------|--------|--------|--------|--------|--------|--------|
G|--------|--------|--------|--------|--------|--------|--------|--------|--------|
D|--------|--------|--------|--------|--------|--------|--------|--------|--------|
A|--------|--------|--------|--------|--------|--------|--------|--------|--------|
D|--------|--------|--------|--------|--------|--------|--------|--------|--------|


E|--------|--------|----------------|---------------------------------|---------------------------------|
B|--------|--------|--------3----3--|-3---3---3-----------------------|---------------------------------|
G|--------|--------|----------------|-----------------7----7--7---7---|-7---7---7----7--7---7---6---6---|
D|--------|--------|--------4----4--|-4---4---4-------4----4--4---4---|-4---4---5----5--5---5---5---5---|
A|--------|--------|--------2----2--|-2---2---2---0---4----4--4---4---|-4---4---5----5--5---5---5---5---|
D|--------|--------|----------------|-------------0---4----4--4---4---|-4---4---5----5--5---5---5---5---|


E|---------------------------------|---------------------------------|---------5----5--5---5---5---5---|
B|-------------------------3----3--|-3---3---3-----------------------|---------3----3--3---3---3---3---|
G|-6----6--6---6---6---------------|-----------------7----7--7---7---|-7---7---------------------------|
D|-5----5--5---5---5-------4----4--|-4---4---4-------4----4--4---4---|-4---4---5----5--5---5---5---5---|
A|-5----5--5---5---5---0---2----2--|-2---2---2---0---4----4--4---4---|-4---4---5----5--5---5---5---5---|
D|-5----5--5---5---5---0-----------|-------------0---4----4--4---4---|-4---4---5----5--5---5---5---5---|


E|-5----5--5---5---5---------------|------------------------------|---------------------------|
B|-3----3--3---3---3-------3----3--|-3---3------------------------|------3----3--3---3--------|
G|---------------------------------|--------------7----7--7---7---|------4----4--4---4--------|
D|-5----5--5---5---5-------4----4--|-4---4--------4----4--4---4---|------5----5--5---5--------|
A|-5----5--5---5---5---0---2----2--|-2---2--------4----4--4---4---|------5----5--5---5--------|
D|-5----5--5---5---5---0-----------|--------------4----4--4---4---|------5----5--5---5--------|


E|---------------------------|--------|--------|--------|--------|--------|--------|
B|-3----3--3---3-------------|--------|--------|--------|--------|--------|--------|
G|-4----4--4---4-------------|--------|--------|--------|--------|--------|--------|
D|-5----5--5---5-------------|--------|--------|--------|--------|--------|--------|
A|-5----5--5---5-------------|--------|--------|--------|--------|--------|--------|
D|-5----5--5---5-------------|--------|--------|--------|--------|--------|--------|


E|--------|--------|--------|--------|--------|--------|--------|--------|--------|
B|--------|--------|--------|--------|--------|--------|--------|--------|--------|
G|--------|--------|--------|--------|--------|--------|--------|--------|--------|
D|--------|--------|--------|--------|--------|--------|--------|--------|--------|
A|--------|--------|--------|--------|--------|--------|--------|--------|--------|
D|--------|--------|--------|--------|--------|--------|--------|--------|--------|


E|--------|--------|--------|--------0---0---|-0---0---0---0---0---0---0---0---|-0---0---0---0---0---0---0---0---|
B|--------|--------|--------|--------5---5---|-5---5---5---5---5---5---5---5---|-5---5---5---5---5---5---3---3---|
G|--------|--------|--------|----------------|---------------------------------|---------------------------------|
D|--------|--------|--------|----------------|---------------------------------|---------------------------------|
A|--------|--------|--------|----------------|---------------------------------|---------------------------------|
D|--------|--------|--------|----------------|---------------------------------|---------------------------------|


E|-0---0---0---0---0---0---0---0---|-0---0---0---0---0---0---0---0---|-0---0---0---0---0---0---0---0---|
B|-3---3---3---3---3---3---3---3---|-3---3---3---3---3---3---5---5---|-5---5---5---5---5---5---5---5---|
G|---------------------------------|---------------------------------|---------------------------------|
D|---------------------------------|---------------------------------|---------------------------------|
A|---------------------------------|---------------------------------|---------------------------------|
D|---------------------------------|---------------------------------|---------------------------------|


E|-0---0---0---0---0---0---0---0---|-0---0---0---0---0---0---0---0---|-0---0---0---0---0---0---0---0---|
B|-5---5---5---5---5---5---3---3---|-3---3---3---3---3---3---3---3---|-3---3---3---3---3---3---5---5---|
G|---------------------------------|---------------------------------|---------------------------------|
D|---------------------------------|---------------------------------|---------------------------------|
A|---------------------------------|---------------------------------|---------------------------------|
D|---------------------------------|---------------------------------|---------------------------------|


E|-0---0---0---0---0---0---0---0---|-0---0---0---0---0---0---0---0---|-0---0---0---0---0---0---0---0---|
B|-5---5---5---5---5---5---5---5---|-5---5---5---5---5---5---3---3---|-3---3---3---3---3---3---3---3---|
G|---------------------------------|---------------------------------|---------------------------------|
D|---------------------------------|---------------------------------|---------------------------------|
A|---------------------------------|---------------------------------|---------------------------------|
D|---------------------------------|---------------------------------|---------------------------------|


E|-0---0---0---0---0---0---0---0---|-0---0---0---0---0---0---0---0---|-0---0---0---0---0---0---0---0---|
B|-3---3---3---3---3---3---5---5---|-5---5---5---5---5---5---5---5---|-5---5---5---5---5---5---3---3---|
G|---------------------------------|---------------------------------|---------------------------------|
D|---------------------------------|---------------------------------|---------------------------------|
A|---------------------------------|---------------------------------|---------------------------------|
D|---------------------------------|---------------------------------|---------------------------------|


E|-0---0---2---0---2---0---0---2---|-0---0---2---0---0---0---10--10--|-10--10--10--10--10--10--9---9---|
B|-3---3---3---3---3---3---3---3---|-3---3---3---3---3---0---7---7---|-7---7---7---7---7---7---7---7---|
G|---------------------------------|-------------------------7---7---|-7---7---7---7---7---7---7---7---|
D|---------------------------------|---------------------------------|---------------------------------|
A|---------------------------------|---------------------------------|---------------------------------|
D|---------------------------------|---------------------------------|---------------------------------|


E|-9---9---9---9---9---9---10--10--|-10--10--10--10--10--10----------|---------------------------------|
B|-7---7---7---7---7---7---8---8---|-8---8---8---8---8---8---7---7---|-7---7---7---7---7---7---10--10--|
G|-7---7---7---7---7---7---7---7---|-7---7---7---7---7---7---7---7---|-7---7---7---9---9---9---7---7---|
D|---------------------------------|---------------------------------|---------------------------------|
A|---------------------------------|---------------------------------|---------------------------------|
D|---------------------------------|---------------------------------|---------------------------------|


E|---------------------------------|---------------------------------|------------------------------|
B|-10--10--10--10--10--10--10--10--|-10--10--10--10--10--7---7---7---|-7---8---7----7---10--7---10--|
G|-7---7---7---7---7---7---9---9---|-9---9---9---9---9---7---7---7---|-7---7---7----7---7---7---7---|
D|---------------------------------|---------------------------------|------------------------------|
A|---------------------------------|---------------------------------|------------------------------|
D|---------------------------------|---------------------------------|------------------------------|


E|---------------------0--------|-------------|
B|-7---10--10--10--10--0---3----|--------3----|
G|-7---7---7---7---7------------|-------------|
D|-------------------------4----|--------4----|
A|-------------------------2----|--------2----|
D|------------------------------|-------------|





Track 5: Distortion Guitar 1 

E|--------|--------|--------|--------|--------|--------|--------|------------------|
B|--------|--------|--------|--------|--------|--------|--------|--------3---3--3--|
G|--------|--------|--------|--------|--------|--------|--------|--------2---2--2--|
D|--------|--------|--------|--------|--------|--------|--------|--------4---4--4--|
A|--------|--------|--------|--------|--------|--------|--------|--------2---2--2--|
D|--------|--------|--------|--------|--------|--------|--------|------------------|


E|-------------------------------------------|-----------------------------------------|
B|-3--3--3---3--3--3--3--3---3--3--3---3--3--|-3--3----------------------3-------------|
G|-2--2--2---2--2--2--2--2---2--2--2---2--2--|-2--2--2---2--2--2--2--2---2-------------|
D|-4--4--4---4--4--4--4--4---4--4--4---4--4--|-4--4--4---4--4--4--4--4---4---7---7--7--|
A|-2--2--2---2--2--2--2--2---2--2--2---2--2--|-2--2--2---2--2--2--2--2---2---5---5--5--|
D|---------------------------------2---2--2--|-2--2--2---2--2--2--2--2---2---5---5--5--|


E|-------------------------------------------|-----------------------------------------|
B|-------------------------------------------|-------------------------------3---3--3--|
G|-------------------------------------------|-------------------------------2---2--2--|
D|-7--7--7---7--7--7--7--7---7--7--7---7--7--|-7--7--7---7--7--7--7--7---7---4---4--4--|
A|-5--5--5---5--5--5--5--5---5--5--5---5--5--|-5--5--5---5--5--5--5--5---5---2---2--2--|
D|-5--5--5---5--5--5--5--5---5--5--5---5--5--|-5--5--5---5--5--5--5--5---5-------------|


E|-------------------------------------------|-----------------------------------------|
B|-3--3--3---3--3--3--3--3---3--3--3---3--3--|-3--3------------------------------------|
G|-2--2--2---2--2--2--2--2---2--2--2---2--2--|-2--2--2---2--2--2--2--2---2-------------|
D|-4--4--4---4--4--4--4--4---4--4--4---4--4--|-4--4--4---4--4--4--4--4---4---7---7--7--|
A|-2--2--2---2--2--2--2--2---2--2--2---2--2--|-2--2--2---2--2--2--2--2---2---5---5--5--|
D|---------------------------------2---2--2--|-2--2--2---2--2--2--2--2---2---5---5--5--|


E|---------------------------------------|---------------------------------|---------------------------------|
B|---------------------------------------|---------------------0-----------|---------3-----------------------|
G|-------------------------------7---7---|-7---7---7---7---7---0-----------|-----------------7----7--7---7---|
D|-7--7--7---7--7--7--7--7---7---8---8---|-8---8---8---8---8---0---4----4--|-4---4---4---4---4----4--4---4---|
A|-5--5--5---5--5--5--5--5---5---8---8---|-8---8---8---8---8---0---2----2--|-2---2---2---0-------------------|
D|-5--5--5---5--5--5--5--5---5---8---8---|-8---8---8---8---8---------------|-------------0---4----4--4---4---|


E|---------------------------------|---------------------------------|---------------------------------|
B|---------3----3--3---3---3---3---|-3----3--3---3---3---------------|---------3-------3----3--3---3---|
G|-7-------4----4--4---4---4---4---|-4----4--4---4---4---------------|-------------2---2----2--2---2---|
D|-4-------5----5--5---5---5---5---|-5----5--5---5---5-------4----4--|-4---4---4---0---4----4--4---4---|
A|-----0---5----5--5---5---5---5---|-5----5--5---5---5---0---2----2--|-2---2---2---0-------------------|
D|-4---0---5----5--5---5---5---5---|-5----5--5---5---5---0-----------|-------------0---4----4--4---4---|


E|---------------------5---5---5---|-5----5--5---5---5---5-----------|-----------------------------------|
B|-3-------3----3--3---3---3---3---|-3----3--3---3---3---3-----------|---------3--------------15-15------|
G|-2---2---4----4--4---4---4---4---|-4----4--4---4---4---4-----------|-------------2---18--18--------18--|
D|-4---0---5----5--5---5---5---5---|-5----5--5---5---5---5---4----4--|-4---4---4---0---------------------|
A|-----0---5----5--5---5---5---5---|-5----5--5---5---5---5---2----2--|-2---2---2---0---------------------|
D|-4---0---5----5--5---5---5---5---|-5----5--5---5---5---5-----------|-------------0---------------------|


E|------------------------------|---------------------------------|---------------------------------|
B|-15-------------------15------|-----------------15--------------|---------15----------------------|
G|-----------0--0-----------0---|------0--0-----------0--------0--|-0-----------0--------0--0-------|
D|------16----------16----------|-16----------16----------16------|-----16----------16----------16--|
A|------------------------------|---------------------------------|---------------------------------|
D|------------------------------|---------------------------------|---------------------------------|


E|---------------------------------|---------------------------|-------------|-------------|
B|-15----------------------15------|-----------------15--------|-------------|-------------|
G|-----0--------0--0-----------0---|------0--0-----------------|-------------|-------------|
D|---------16----------16----------|-16----------16------------|-------------|-------------|
A|---------------------------------|----------------------2----|--------2----|--------2----|
D|---------------------------------|---------------------------|-------------|-------------|


E|-------------|------------------|----------------------|----------------------|----------------------|
B|-------------|--------3---3--3--|------------3---3--3--|----------------------|----------------------|
G|-------------|------------------|----------------------|------------7---7--7--|------------7---7--7--|
D|-------------|--------4---4--4--|------------4---4--4--|------------5---5--5--|------------5---5--5--|
A|--------2----|--------2---2--2--|------------2---2--2--|------------5---5--5--|------------5---5--5--|
D|-------------|------------------|----------------------|------------5---5--5--|------------5---5--5--|


E|----------------------|----------------------|----------------------|----------------------|
B|------------3---3--3--|------------3---3--3--|----------------------|----------------------|
G|----------------------|----------------------|------------7---7--7--|------------7---7--7--|
D|------------4---4--4--|------------4---4--4--|------------5---5--5--|------------5---5--5--|
A|------------2---2--2--|------------2---2--2--|------------5---5--5--|------------5---5--5--|
D|----------------------|----------------------|------------5---5--5--|------------5---5--5--|


E|----------------------|-----------------------------------------|-----------------------------------------|
B|------------3---3--3--|-3--3--3---3--3--3--3--3-----------------|-----------------------------------------|
G|----------------------|-----------------------------------------|-----------------------------------------|
D|------------4---4--4--|-4--4--4---4--4--4--4--4-------4---4--4--|-4--4--4---4--4--4--4--4---4---7---7--7--|
A|------------2---2--2--|-2--2--2---2--2--2--2--2---0---2---2--2--|-2--2--2---2--2--2--2--2---2---5---5--5--|
D|----------------------|---------------------------0---2---2--2--|-2--2--2---2--2--2--2--2---2---5---5--5--|


E|-----------------------------------------|-----------------------------------------|
B|-----------------------------------------|-------------------------------3---3--3--|
G|-----------------------------------------|-----------------------------------------|
D|-7--7--7---7--7--7--7--7---7---7---7--7--|-7--7--7---7--7--7--7--7-------4---4--4--|
A|-5--5--5---5--5--5--5--5---5---5---5--5--|-5--5--5---5--5--5--5--5---0---2---2--2--|
D|-5--5--5---5--5--5--5--5---5---5---5--5--|-5--5--5---5--5--5--5--5---0-------------|


E|-----------------------------------------|-----------------------------------------|
B|-3--3--3---3--3--3--3--3-----------------|-----------------------------------------|
G|-----------------------------------------|-----------------------------------------|
D|-4--4--4---4--4--4--4--4-------4---4--4--|-4--4--4---4--4--4--4--4---4---7---7--7--|
A|-2--2--2---2--2--2--2--2---0---2---2--2--|-2--2--2---2--2--2--2--2---2---5---5--5--|
D|---------------------------0---2---2--2--|-2--2--2---2--2--2--2--2---2---5---5--5--|


E|-----------------------------------------|---------------------------------------|
B|-----------------------------------------|-------------------------------2---3---|
G|-----------------------------------------|-------------------------------4---4---|
D|-7--7--7---7--7--7--7--7---7---7---7--7--|-7--7--7---7--7--7--7--7-------4---4---|
A|-5--5--5---5--5--5--5--5---5---5---5--5--|-5--5--5---5--5--5--5--5---0---2---2---|
D|-5--5--5---5--5--5--5--5---5---5---5--5--|-5--5--5---5--5--5--5--5---0-----------|


E|---------------------------------|---------------------------------|---------------------------------|
B|-2---3---2---3---2---2---2---3---|-2---3---2---3---2---0-----------|---------------------------------|
G|-4---4---4---4---4---4---2---2---|-2---2---2---2---2---2---6---7---|-6---7---6---7---6---7---6---7---|
D|-4---4---4---4---4---4---2---2---|-2---2---2---2---2---2---5---5---|-5---5---5---5---5---5---5---5---|
A|-2---2---2---2---2---2---0---0---|-0---0---0---0---0---0---5---5---|-5---5---5---5---5---5---5---5---|
D|---------------------------------|-------------------------5---5---|-5---5---5---5---5---5---5---5---|


E|---------------------------------|---------------------------------|---------------------------------|
B|-------------------------2---3---|-2---3---2---3---2---2---2---3---|-2---3---2---3---2---0-----------|
G|-6---7---6---7---6-------4---4---|-4---4---4---4---4---4---2---2---|-2---2---2---2---2---2---6---7---|
D|-5---5---5---5---5---7---4---4---|-4---4---4---4---4---4---2---2---|-2---2---2---2---2---2---5---5---|
A|-5---5---5---5---5---5---2---2---|-2---2---2---2---2---2---0---0---|-0---0---0---0---0---0---5---5---|
D|-5---5---5---5---5---5-----------|---------------------------------|-------------------------5---5---|


E|---------------------------------|---------------------------------|---------------------------------|
B|---------------------------------|-------------------------2---3---|-2---3---2---3---2---2---2---3---|
G|-6---7---6---7---6---7---6---7---|-6---7---6---7---6-------4---4---|-4---4---4---4---4---4---2---2---|
D|-5---5---5---5---5---5---5---5---|-5---5---5---5---5---7---4---4---|-4---4---4---4---4---4---2---2---|
A|-5---5---5---5---5---5---5---5---|-5---5---5---5---5---5---2---2---|-2---2---2---2---2---2---0---0---|
D|-5---5---5---5---5---5---5---5---|-5---5---5---5---5---5-----------|---------------------------------|


E|---------------------------------|---------------------------------|---------------------------------|
B|-2---3---2---3---2---0-----------|---------------------------------|-------------------------2---3---|
G|-2---2---2---2---2---2---6---7---|-6---7---6---7---6---7---6---7---|-6---7---6---7---6-------4---4---|
D|-2---2---2---2---2---2---5---5---|-5---5---5---5---5---5---5---5---|-5---5---5---5---5---7---4---4---|
A|-0---0---0---0---0---0---5---5---|-5---5---5---5---5---5---5---5---|-5---5---5---5---5---5---2---2---|
D|-------------------------5---5---|-5---5---5---5---5---5---5---5---|-5---5---5---5---5---5-----------|


E|---------------------------------|---------------------------------|---------------------------------|
B|-2---3---2---3---2---2---2---3---|-2---3---2---3---2---0-----------|---------------------------------|
G|-4---4---4---4---4---4---2---2---|-2---2---2---2---2---2---6---7---|-6---7---6---7---6---7---6---7---|
D|-4---4---4---4---4---4---2---2---|-2---2---2---2---2---2---5---5---|-5---5---5---5---5---5---5---5---|
A|-2---2---2---2---2---2---0---0---|-0---0---0---0---0---0---5---5---|-5---5---5---5---5---5---5---5---|
D|---------------------------------|-------------------------5---5---|-5---5---5---5---5---5---5---5---|


E|---------------------------------|---------------------------------|---------------------------------|
B|-------------------------3----3--|-3---3---3----3--3---------------|-------------------------3----3--|
G|-6---7---6---7---6---------------|-------------------------7----7--|-7---7---7----7--7---7---4----4--|
D|-5---5---5---5---5---7---4----4--|-4---4---4----4--4-------4----4--|-4---4---4----4--4---4---5----5--|
A|-5---5---5---5---5---5---2----2--|-2---2---2----2--2---0-----------|-------------------------5----5--|
D|-5---5---5---5---5---5-----------|---------------------0---4----4--|-4---4---4----4--4---4---5----5--|


E|---------------------------------|---------------------------------|---------------------------------|
B|-3---3---3----3--3---3---3----3--|-3---3---3----3--3-------3----3--|-3---3---3----3--3---------------|
G|-4---4---4----4--4---4---4----4--|-4---4---4----4--4---------------|-------------------------7----7--|
D|-5---5---5----5--5---5---5----5--|-5---5---5----5--5---0---4----4--|-4---4---4----4--4-------4----4--|
A|-5---5---5----5--5---5---5----5--|-5---5---5----5--5---0---2----2--|-2---2---2----2--2---0-----------|
D|-5---5---5----5--5---5---5----5--|-5---5---5----5--5---0-----------|---------------------0---4----4--|


E|---------------------------------|---------------------------------|------------------------------|
B|-------------------------3----3--|-3---3---3----3--3---3---3----3--|-3---3---3----3--3------------|
G|-7---7---7----7--7---7---4----4--|-4---4---4----4--4---4---4----4--|-4---4---4----4--4------------|
D|-4---4---4----4--4---4---5----5--|-5---5---5----5--5---5---5----5--|-5---5---5----5--5---0--------|
A|-------------------------5----5--|-5---5---5----5--5---5---5----5--|-5---5---5----5--5---0---2----|
D|-4---4---4----4--4---4---5----5--|-5---5---5----5--5---5---5----5--|-5---5---5----5--5---0--------|


E|-------------|-------------|-------------|--------|--------|--------|--------|--------|
B|-------------|-------------|-------------|--------|--------|--------|--------|--------|
G|-------------|-------------|-------------|--------|--------|--------|--------|--------|
D|-------------|-------------|-------------|--------|--------|--------|--------|--------|
A|-------------|-------------|-------------|--------|--------|--------|--------|--------|
D|-------------|-------------|-------------|--------|--------|--------|--------|--------|


E|--------|--------|--------|--------|--------|--------|--------|----------------|
B|--------|--------|--------|--------|--------|--------|--------|----------------|
G|--------|--------|--------|--------|--------|--------|--------|----------------|
D|--------|--------|--------|--------|--------|--------|--------|--------4----4--|
A|--------|--------|--------|--------|--------|--------|--------|--------2----2--|
D|--------|--------|--------|--------|--------|--------|--------|----------------|


E|---------------------------------|---------------------------------|---------------------------------|
B|---------3-----------------------|---------3----3--3---3---3---3---|-3----3--3---3---3---------------|
G|-----------------7----7--7---7---|-7-------4----4--4---4---4---4---|-4----4--4---4---4---------------|
D|-4---4---4---4---4----4--4---4---|-4-------5----5--5---5---5---5---|-5----5--5---5---5-------4----4--|
A|-2---2---2---0-------------------|-----0---5----5--5---5---5---5---|-5----5--5---5---5---0---2----2--|
D|-------------0---4----4--4---4---|-4---0---5----5--5---5---5---5---|-5----5--5---5---5---0-----------|


E|-----------------------------------|-----------------------------|-----------------------------------|
B|---------3--------------15-15------|-15----------15-15------15---|--------15-15----------15--3----3--|
G|-------------2---18--18--------18--|------18--18--------18-------|-18--18--------18--18--------------|
D|-4---4---4---0---------------------|-----------------------------|---------------------------4----4--|
A|-2---2---2---0---------------------|-----------------------------|---------------------------2----2--|
D|-------------0---------------------|-----------------------------|-----------------------------------|


E|------------------------------|---------------------------|------------------------------|
B|-3---3------------------------|------3----3--3---3--------|-3----3--3---3--------3----3--|
G|--------------7----7--7---7---|------4----4--4---4--------|-4----4--4---4----------------|
D|-4---4--------4----4--4---4---|------5----5--5---5--------|-5----5--5---5--------4----4--|
A|-2---2--------4----4--4---4---|------5----5--5---5--------|-5----5--5---5--------2----2--|
D|--------------4----4--4---4---|------5----5--5---5--------|-5----5--5---5----------------|


E|------------------------------|---------------------------|---------------------------|
B|-3---3------------------------|------3----3--3---3--------|-3----3--3---3-------------|
G|--------------7----7--7---7---|------4----4--4---4--------|-4----4--4---4-------------|
D|-4---4--------4----4--4---4---|------5----5--5---5--------|-5----5--5---5-------------|
A|-2---2--------4----4--4---4---|------5----5--5---5--------|-5----5--5---5-------------|
D|--------------4----4--4---4---|------5----5--5---5--------|-5----5--5---5-------------|


E|--------|--------|--------|--------|--------|--------|--------|----------------|
B|--------|--------|--------|--------|--------|--------|--------|--------5---5---|
G|--------|--------|--------|--------|--------|--------|--------|----------------|
D|--------|--------|--------|--------|--------|--------|--------|----------------|
A|--------|--------|--------|--------|--------|--------|--------|----------------|
D|--------|--------|--------|--------|--------|--------|--------|----------------|


E|---------------------------------|---------------------------------|---------------------------------|
B|-5---5---5---5---5---5---5---5---|-5---5---5---5---5---5---3---3---|-3---3---3---3---3---3---3---3---|
G|---------------------------------|---------------------------------|---------------------------------|
D|---------------------------------|---------------------------------|---------------------------------|
A|---------------------------------|---------------------------------|---------------------------------|
D|---------------------------------|---------------------------------|---------------------------------|


E|---------------------------------|---------------------------------|---------------------------------|
B|-3---3---3---3---3---3---3---5---|-5---5---5---5---5---5---5---5---|-5---5---5---5---5---5---3---3---|
G|---------------------------------|---------------------------------|---------------------------------|
D|---------------------------------|---------------------------------|---------------------------------|
A|---------------------------------|---------------------------------|---------------------------------|
D|---------------------------------|---------------------------------|---------------------------------|


E|---------------------------------|------------------------------|--------|--------|
B|-3---3---3---3---3---3---3---3---|-3---3---3---3---3---3--------|--------|--------|
G|---------------------------------|------------------------------|--------|--------|
D|---------------------------------|------------------------------|--------|--------|
A|---------------------------------|------------------------------|--------|--------|
D|---------------------------------|------------------------------|--------|--------|


E|--------|--------14--14--|-14--14--14--14--14--14--14--14--|-14--14--14--14--14--14----------|
B|--------|--------0---0---|-0---0---0---0---0---0---15--15--|-15--15--15--15--15--15--15--15--|
G|--------|----------------|---------------------------------|-------------------------18--18--|
D|--------|----------------|---------------------------------|---------------------------------|
A|--------|----------------|---------------------------------|---------------------------------|
D|--------|----------------|---------------------------------|---------------------------------|


E|---------------------------------|---------------------------------|---------------------------------|
B|-15--15--15--15--15--15--15--15--|-15--15--15--15--7---------------|---------------------------------|
G|-18--18--18--18--18--18--18--18--|-18--18--18--18--7---7-----------|---------------------------------|
D|---------------------------------|---------------------7---9---9---|-9---9---9---9---9---9---7---7---|
A|---------------------------------|-------------------------9---9---|-9---9---9---9---9---9---7---7---|
D|---------------------------------|-------------------------9---9---|-9---9---9---9---9---9---7---7---|


E|---------------------------------|---------------------------------|---------------------------------|
B|---------------------------------|---------------------------------|---------------------------------|
G|---------------------------------|---------------------------------|---------------------------------|
D|-7---7---7---7---7---7---5---5---|-5---5---5---5---5---5---5---5---|-5---5---5---5---5---5---9---9---|
A|-7---7---7---7---7---7---5---5---|-5---5---5---5---5---5---5---5---|-5---5---5---5---5---5---9---9---|
D|-7---7---7---7---7---7---5---5---|-5---5---5---5---5---5---5---5---|-5---5---5---5---5---5---9---9---|


E|---------------------------------|---------------------------------|---------------------------------|
B|---------------------------------|---------------------------------|---------------------------------|
G|---------------------------------|---------------------------------|---------------------------------|
D|-9---9---9---9---9---9---7---7---|-7---7---7---7---7---7---5---5---|-5---5---5---5---5---5---5---5---|
A|-9---9---9---9---9---9---7---7---|-7---7---7---7---7---7---5---5---|-5---5---5---5---5---5---5---5---|
D|-9---9---9---9---9---9---7---7---|-7---7---7---7---7---7---5---5---|-5---5---5---5---5---5---5---5---|


E|---------------------------------|---------------------------------|---------------------------------|
B|-------------------------2---3---|-2---3---2---3---2---2---2---3---|-2---3---2---3---2---0-----------|
G|-------------------------4---4---|-4---4---4---4---4---4---2---2---|-2---2---2---2---2---2---6---7---|
D|-5---5---5---5---5---5---4---4---|-4---4---4---4---4---4---2---2---|-2---2---2---2---2---2---5---5---|
A|-5---5---5---5---5---5---2---2---|-2---2---2---2---2---2---0---0---|-0---0---0---0---0---0---5---5---|
D|-5---5---5---5---5---5-----------|---------------------------------|-------------------------5---5---|


E|---------------------------------|---------------------------------|---------------------------------|
B|---------------------------------|-------------------------2---3---|-2---3---2---3---2---2---2---3---|
G|-6---7---6---7---6---7---6---7---|-6---7---6---7---6-------4---4---|-4---4---4---4---4---4---2---2---|
D|-5---5---5---5---5---5---5---5---|-5---5---5---5---5---7---4---4---|-4---4---4---4---4---4---2---2---|
A|-5---5---5---5---5---5---5---5---|-5---5---5---5---5---5---2---2---|-2---2---2---2---2---2---0---0---|
D|-5---5---5---5---5---5---5---5---|-5---5---5---5---5---5-----------|---------------------------------|


E|---------------------------------|---------------------------------|------------------------------|
B|-2---3---2---3---2---0-----------|---------------------------------|------------------------------|
G|-2---2---2---2---2---2---6---7---|-6---7---6---7---6---7---6---7---|-6---7---6---7---6-------6----|
D|-2---2---2---2---2---2---5---5---|-5---5---5---5---5---5---5---5---|-5---5---5---5---5---7---9----|
A|-0---0---0---0---0---0---5---5---|-5---5---5---5---5---5---5---5---|-5---5---5---5---5---5---9----|
D|-------------------------5---5---|-5---5---5---5---5---5---5---5---|-5---5---5---5---5---5---9----|


E|-------------|
B|-------------|
G|--------6----|
D|--------9----|
A|--------9----|
D|--------9----|





Track 6: Keyboards

E|--------|--------|--------|--------|--------|--------|--------|--------|--------|
B|--------|--------|--------|--------|--------|--------|--------|--------|--------|
G|--------|--------|--------|--------|--------|--------|--------|--------|--------|
D|--------|--------|--------|--------|--------|--------|--------|--------|--------|
A|--------|--------|--------|--------|--------|--------|--------|--------|--------|
D|--------|--------|--------|--------|--------|--------|--------|--------|--------|


E|--------|--------|--------|--------|--------|--------|--------|--------|--------|
B|--------|--------|--------|--------|--------|--------|--------|--------|--------|
G|--------|--------|--------|--------|--------|--------|--------|--------|--------|
D|--------|--------|--------|--------|--------|--------|--------|--------|--------|
A|--------|--------|--------|--------|--------|--------|--------|--------|--------|
D|--------|--------|--------|--------|--------|--------|--------|--------|--------|


E|--------|--------|--------|--------|--------|--------|--------|--------|--------|
B|--------|--------|--------|--------|--------|--------|--------|--------|--------|
G|--------|--------|--------|--------|--------|--------|--------|--------|--------|
D|--------|--------|--------|--------|--------|--------|--------|--------|--------|
A|--------|--------|--------|--------|--------|--------|--------|--------|--------|
D|--------|--------|--------|--------|--------|--------|--------|--------|--------|


E|--------|--------|--------|--------|--------|--------|--------|--------|--------|
B|--------|--------|--------|--------|--------|--------|--------|--------|--------|
G|--------|--------|--------|--------|--------|--------|--------|--------|--------|
D|--------|--------|--------|--------|--------|--------|--------|--------|--------|
A|--------|--------|--------|--------|--------|--------|--------|--------|--------|
D|--------|--------|--------|--------|--------|--------|--------|--------|--------|


E|--------|--------|--------|--------|--------|--------|--------|--------|--------|
B|--------|--------|--------|--------|--------|--------|--------|--------|--------|
G|--------|--------|--------|--------|--------|--------|--------|--------|--------|
D|--------|--------|--------|--------|--------|--------|--------|--------|--------|
A|--------|--------|--------|--------|--------|--------|--------|--------|--------|
D|--------|--------|--------|--------|--------|--------|--------|--------|--------|


E|--------|--------|--------|--------|--------|--------|--------|--------|--------|
B|--------|--------|--------|--------|--------|--------|--------|--------|--------|
G|--------|--------|--------|--------|--------|--------|--------|--------|--------|
D|--------|--------|--------|--------|--------|--------|--------|--------|--------|
A|--------|--------|--------|--------|--------|--------|--------|--------|--------|
D|--------|--------|--------|--------|--------|--------|--------|--------|--------|


E|--------|--------|--------|--------|--------|--------|--------|--------|--------|
B|--------|--------|--------|--------|--------|--------|--------|--------|--------|
G|--------|--------|--------|--------|--------|--------|--------|--------|--------|
D|--------|--------|--------|--------|--------|--------|--------|--------|--------|
A|--------|--------|--------|--------|--------|--------|--------|--------|--------|
D|--------|--------|--------|--------|--------|--------|--------|--------|--------|


E|--------|--------|--------|--------|--------|--------|--------|--------|-------------|
B|--------|--------|--------|--------|--------|--------|--------|--------|--------10---|
G|--------|--------|--------|--------|--------|--------|--------|--------|--------7----|
D|--------|--------|--------|--------|--------|--------|--------|--------|--------9----|
A|--------|--------|--------|--------|--------|--------|--------|--------|-------------|
D|--------|--------|--------|--------|--------|--------|--------|--------|-------------|


E|------------5---5----|-------------|------------5---5----|-------------|------------5---5----|
B|------7-----8---8----|--------10---|------7-----8---8----|--------10---|------7-----8---8----|
G|------9-----7---7----|--------7----|------9-----7---7----|--------7----|------9-----7---7----|
D|------9-----5---5----|--------9----|------9-----5---5----|--------9----|------9-----5---5----|
A|------7--------------|-------------|------7--------------|-------------|------7--------------|
D|---------------------|-------------|---------------------|-------------|---------------------|


E|-------------|------------5---5----|-------------|------------5---5----|-------------|
B|--------10---|------7-----8---8----|--------10---|------7-----8---8----|--------10---|
G|--------7----|------9-----7---7----|--------7----|------9-----7---7----|--------7----|
D|--------9----|------9-----5---5----|--------9----|------9-----5---5----|--------9----|
A|-------------|------7--------------|-------------|------7--------------|-------------|
D|-------------|---------------------|-------------|---------------------|-------------|


E|------------5---5----|-------------|------------5---5----|-------------|------------5---5----|
B|------7-----8---8----|--------10---|------7-----8---8----|--------10---|------7-----8---8----|
G|------9-----7---7----|--------7----|------9-----7---7----|--------7----|------9-----7---7----|
D|------9-----5---5----|--------9----|------9-----5---5----|--------9----|------9-----5---5----|
A|------7--------------|-------------|------7--------------|-------------|------7--------------|
D|---------------------|-------------|---------------------|-------------|---------------------|


E|--------|--------|--------|--------|--------|--------|--------|--------|--------|
B|--------|--------|--------|--------|--------|--------|--------|--------|--------|
G|--------|--------|--------|--------|--------|--------|--------|--------|--------|
D|--------|--------|--------|--------|--------|--------|--------|--------|--------|
A|--------|--------|--------|--------|--------|--------|--------|--------|--------|
D|--------|--------|--------|--------|--------|--------|--------|--------|--------|


E|--------|--------|--------|--------|--------|--------|--------|--------|--------|
B|--------|--------|--------|--------|--------|--------|--------|--------|--------|
G|--------|--------|--------|--------|--------|--------|--------|--------|--------|
D|--------|--------|--------|--------|--------|--------|--------|--------|--------|
A|--------|--------|--------|--------|--------|--------|--------|--------|--------|
D|--------|--------|--------|--------|--------|--------|--------|--------|--------|


E|--------|--------|--------|--------|--------|--------|--------|--------|--------|
B|--------|--------|--------|--------|--------|--------|--------|--------|--------|
G|--------|--------|--------|--------|--------|--------|--------|--------|--------|
D|--------|--------|--------|--------|--------|--------|--------|--------|--------|
A|--------|--------|--------|--------|--------|--------|--------|--------|--------|
D|--------|--------|--------|--------|--------|--------|--------|--------|--------|


E|--------|--------|--------|--------|--------|--------|--------|--------|--------|
B|--------|--------|--------|--------|--------|--------|--------|--------|--------|
G|--------|--------|--------|--------|--------|--------|--------|--------|--------|
D|--------|--------|--------|--------|--------|--------|--------|--------|--------|
A|--------|--------|--------|--------|--------|--------|--------|--------|--------|
D|--------|--------|--------|--------|--------|--------|--------|--------|--------|


E|--------|--------|--------|--------|--------|--------|--------|--------|--------|
B|--------|--------|--------|--------|--------|--------|--------|--------|--------|
G|--------|--------|--------|--------|--------|--------|--------|--------|--------|
D|--------|--------|--------|--------|--------|--------|--------|--------|--------|
A|--------|--------|--------|--------|--------|--------|--------|--------|--------|
D|--------|--------|--------|--------|--------|--------|--------|--------|--------|


E|--------|--------|--------|--------|--------|--------|--------|--------|--------|
B|--------|--------|--------|--------|--------|--------|--------|--------|--------|
G|--------|--------|--------|--------|--------|--------|--------|--------|--------|
D|--------|--------|--------|--------|--------|--------|--------|--------|--------|
A|--------|--------|--------|--------|--------|--------|--------|--------|--------|
D|--------|--------|--------|--------|--------|--------|--------|--------|--------|





Track 7: Untitled

G|--------|--------|--------|--------|--------|--------|--------|--------|--------|
D|--------|--------|--------|--------|--------|--------|--------|--------|--------|
A|--------|--------|--------|--------|--------|--------|--------|--------|--------|
E|--------|--------|--------|--------|--------|--------|--------|--------|--------|


G|--------|--------|--------|--------|--------|--------|--------|--------|--------|
D|--------|--------|--------|--------|--------|--------|--------|--------|--------|
A|--------|--------|--------|--------|--------|--------|--------|--------|--------|
E|--------|--------|--------|--------|--------|--------|--------|--------|--------|


G|--------|--------|--------|--------|--------|--------|--------|--------|--------|
D|--------|--------|--------|--------|--------|--------|--------|--------|--------|
A|--------|--------|--------|--------|--------|--------|--------|--------|--------|
E|--------|--------|--------|--------|--------|--------|--------|--------|--------|


G|--------|--------|--------|--------|--------|--------|--------|--------|--------|
D|--------|--------|--------|--------|--------|--------|--------|--------|--------|
A|--------|--------|--------|--------|--------|--------|--------|--------|--------|
E|--------|--------|--------|--------|--------|--------|--------|--------|--------|


G|--------|--------|--------|--------|--------|--------|--------|--------|--------|
D|--------|--------|--------|--------|--------|--------|--------|--------|--------|
A|--------|--------|--------|--------|--------|--------|--------|--------|--------|
E|--------|--------|--------|--------|--------|--------|--------|--------|--------|


G|--------|--------|--------|--------|--------|--------|--------|--------|--------|
D|--------|--------|--------|--------|--------|--------|--------|--------|--------|
A|--------|--------|--------|--------|--------|--------|--------|--------|--------|
E|--------|--------|--------|--------|--------|--------|--------|--------|--------|


G|--------|--------|--------|--------|--------|--------|--------|--------|--------|
D|--------|--------|--------|--------|--------|--------|--------|--------|--------|
A|--------|--------|--------|--------|--------|--------|--------|--------|--------|
E|--------|--------|--------|--------|--------|--------|--------|--------|--------|


G|--------|--------|--------|--------|--------|--------|--------|--------|--------|
D|--------|--------|--------|--------|--------|--------|--------|--------|--------|
A|--------|--------|--------|--------|--------|--------|--------|--------|--------|
E|--------|--------|--------|--------|--------|--------|--------|--------|--------|


G|--------|--------|--------|--------|--------|--------|--------|--------|--------|
D|--------|--------|--------|--------|--------|--------|--------|--------|--------|
A|--------|--------|--------|--------|--------|--------|--------|--------|--------|
E|--------|--------|--------|--------|--------|--------|--------|--------|--------|


G|--------|--------|--------|--------|--------|--------|--------|--------|--------|
D|--------|--------|--------|--------|--------|--------|--------|--------|--------|
A|--------|--------|--------|--------|--------|--------|--------|--------|--------|
E|--------|--------|--------|--------|--------|--------|--------|--------|--------|


G|--------|--------|--------|--------|--------|--------|--------|--------|--------|
D|--------|--------|--------|--------|--------|--------|--------|--------|--------|
A|--------|--------|--------|--------|--------|--------|--------|--------|--------|
E|--------|--------|--------|--------|--------|--------|--------|--------|--------|


G|--------|--------|--------|--------|--------|--------|--------|--------|--------|
D|--------|--------|--------|--------|--------|--------|--------|--------|--------|
A|--------|--------|--------|--------|--------|--------|--------|--------|--------|
E|--------|--------|--------|--------|--------|--------|--------|--------|--------|


G|--------|--------|--------|--------|--------|--------|--------|--------|--------|
D|--------|--------|--------|--------|--------|--------|--------|--------|--------|
A|--------|--------|--------|--------|--------|--------|--------|--------|--------|
E|--------|--------|--------|--------|--------|--------|--------|--------|--------|


G|--------|--------|--------|--------|--------|--------|--------|--------|--------|
D|--------|--------|--------|--------|--------|--------|--------|--------|--------|
A|--------|--------|--------|--------|--------|--------|--------|--------|--------|
E|--------|--------|--------|--------|--------|--------|--------|--------|--------|


G|--------|--------|--------|--------|--------|--------|--------|--------|--------|
D|--------|--------|--------|--------|--------|--------|--------|--------|--------|
A|--------|--------|--------|--------|--------|--------|--------|--------|--------|
E|--------|--------|--------|--------|--------|--------|--------|--------|--------|


G|--------|--------|--------|--------|--------|--------|
D|--------|--------|--------|--------|--------|--------|
A|--------|--------|--------|--------|--------|--------|
E|--------|--------|--------|--------|--------|--------|