Site menu:

    

Browse: 0-9 A B C D E F G H I J K L N O P Q R S T U V W X Y Z

the rolling stones - wild horses:



Title: Wild Horses
Artist: 
Album: Sticky Finger
Author: Mick Jagger and Keith Richards


Track 1: 12 String Open G tuning

D|--------|--------|-0----0---0------------------------------|--------------0------0---0-------|
B|--------|--------|-1----1---1---0--------1-----------------|-----------------1---1---0---0---|
G|--------|--------|-2----2---2------0--2-----0-----0--------|-----------------------------0---|
D|--------|--------|--------------------------0--2-----2--0--|---------------------------------|
G|--------|--------|-----------------------------------------|-0----0---0----------------------|
D|--------|--------|-----------------------------------------|---------------------------------|


D|-0-------------------------|--------------0--0---0---0---0---|-4----4---4---4------------------|
B|-1-----1--0------------0---|--------------0--1---1---0---0---|-3----3---3---3------------------|
G|-2-----2--0------0--2------|-----------------0---0---0---0---|-4----4---4---4----------4---4---|
D|---------------------------|---------------------------------|-4----4---4----------4---4---4---|
G|---------------------------|-0----0---0----------------------|-4----4---4------4---------------|
D|---------------------------|---------------------------------|---------------------------------|


D|-0----0----0--0---0---0---0---|-4----4----4--4---4---4---4---|-0----0----0--0---0---0---0---|
B|-0----0----0--1---1---0---0---|-3----3----3--3---3---3---3---|-0----0----0--1---1---0---1---|
G|-0----0-------0---0---0---0---|-4----4----4--4---4---4---4---|-0----0-------0---0---0---0---|
D|-0----0---------------0---0---|-4----4----4--4---4---4---4---|-0----0-------0---0---0---0---|
G|-0----------------------------|-4----4----4--4---4---4---4---|-0------------0---0-----------|
D|-0----------------------------|------------------------------|------------------------------|


D|-0----0----0--0---------------|-5----5----5--5---5-------7---|-0----0----0--0--0--0---0---0---|
B|-1----1----1--1---------------|-5----5----5--5---5-------7---|-0----0----0--0--1--1---1---0---|
G|-2----2----2--2-------2---0---|-5----5----5--5---5-------7---|-0----0-------0--0--0---0---0---|
D|-2----2----2--2---2-------0---|-5----5----5--5---5-------7---|-0------------------------------|
G|-2----2----2--2---------------|-5----5----5--5---5-------7---|-0------------------------------|
D|------------------------------|----------------------0-------|-0------------------------------|


D|------2----2------7-----------|-4----4-----------------------|------0----0--0--0--0---0---0---|
B|------3----3------7-------5---|-3----3-----------------------|------0----0--1--1--1---0---0---|
G|------2----2------7-------5---|-4----4----4--4-------4---4---|-0----0-------0--0--0---0---0---|
D|------0-----------7-------5---|-4----4----4--4---4---4---4---|-0----0---------------------0---|
G|------------------7---5-------|-4----4-------4-------4---4---|-0--------------------------0---|
D|-0------------0-------5-------|------------------------------|-0------------------------------|


D|-4----4----4----------4-------|------0----0--0---0---0---0---|-2----2----2----------0---0---|
B|-3----3----3----------3-------|-0----0----0--1---1---0---1---|-1----1----1----------1---0---|
G|-4----4---------------4-------|-0----0-------0---0---0---0---|-2----2----2----------2---0---|
D|-4----------------4---4---4---|-0----0-----------------------|-2----2-----------2-------0---|
G|-4------------4-------4---4---|-0----------------------------|-2----2-------2---------------|
D|------------------------------|-0----------------------------|------------------------------|


D|-5----5----5------5-------7---|-0----0----0--0---0---0---0---|------4----4------------------|
B|-5----5----5------5-------7---|-0----0----0--1---1---1---0---|------3----3----------7---0---|
G|-5----5----5--5---5-------7---|-0----0----0--0---0---0---0---|------2----2------2---7---0---|
D|-5----5-------5---5-------7---|-0----0-------0---------------|------0-----------0---7-------|
G|-5----5-------5---5-------7---|-0----0-------0---------------|----------------------7-------|
D|----------------------0-------|-0----0-----------------------|-0------------0---------------|


D|-2---2---2----2--2---2---2---0-----|-5---5---5----5--5---5-------7---|-0----0----0------------------|
B|-1---1---1----1--1---1---1---0-----|-5---5---5----5--5---5-------7---|-0----0----0------10--10------|
G|-2---2---2----2--2---2---2---0--0--|-5---5---5----5--5---5-------7---|-0----0----0------10--10--0---|
D|-2---2---2----2--2---2---2---------|-5---5---5----5--5---5-------7---|-0----0-------10--10--10--0---|
G|-----------------------------------|-5---5---5----5--5---5-------7---|-0----0-------10--10----------|
D|-----------------------------------|-------------------------0-------|-0----0-------10--------------|


D|-5----5----5--5---5---4----|-2----0----0------0---0---------|-5---5---5---5---5--5---5-----------|
B|-5----5----5--5---5---3----|-1----1----1------1---1---0--0--|-5---5---5---5---5--5---5-----------|
G|-5----5----5--5---5---4----|-2----2----2------2---2---0--0--|-5---5---5---5---5--5---5---7---7---|
D|-5----5-------5---5---4----|-2----2----2------2---2---------|-5---5---5----------5---5---7---7---|
G|-5----5-------5---5---4----|-2----2----2--0-------2---------|-5---5---5----------5-------7---7---|
D|-5----5--------------------|--------------------------------|-5----------------------------------|


D|-0----5---------------3-------|-5----5---------------5---5---|-4----4---4---4------------------|
B|-0----0----0--1---1---1---0---|-5----5----5----------5---5---|-3----3---3---3------------------|
G|-0----0----0--2-----------0---|-5----5----5----------5---5---|-4----4---4---4----------4---4---|
D|-0----0-------3-----------0---|-5----5----5------5-----------|-4----4---4----------4---4---4---|
G|-0----------------------------|-5----5-------5---------------|-4----4---4------4---------------|
D|-0----------------------------|------------------------------|---------------------------------|


D|-0----0----0--0---0---0---0---|-4----4----4--4---4---4---4---|-0----0----0--0---0---0---0---|
B|-0----0----0--1---1---0---0---|-3----3----3--3---3---3---3---|-0----0----0--1---1---0---1---|
G|-0----0-------0---0---0---0---|-4----4----4--4---4---4---4---|-0----0-------0---0---0---0---|
D|-0----0---------------0---0---|-4----4----4--4---4---4---4---|-0----0-------0---0---0---0---|
G|-0----------------------------|-4----4----4--4---4---4---4---|-0------------0---0-----------|
D|-0----------------------------|------------------------------|------------------------------|


D|-0----0----0--0---------------|-5----5----5--5---5-------7---|-0----0----0--0--0--0---0---0---|
B|-1----1----1--1---------------|-5----5----5--5---5-------7---|-0----0----0--0--1--1---1---0---|
G|-2----2----2--2-------2---0---|-5----5----5--5---5-------7---|-0----0-------0--0--0---0---0---|
D|-2----2----2--2---2-------0---|-5----5----5--5---5-------7---|-0----0-------------------------|
G|-2----2----2--2---------------|-5----5----5--5---5-------7---|-0------------------------------|
D|------------------------------|----------------------0-------|-0------------------------------|


D|------2----2------7-----------|-4----4-----------------------|------0----0--0--0--0---0---0---|
B|------3----3------7-------5---|-3----3-----------------------|------0----0--1--1--1---0---0---|
G|------2----2------7-------5---|-4----4----4--4-------4---4---|-0----0-------0--0--0---0---0---|
D|------------------7-------5---|-4----4----4--4---4---4---4---|-0----0---------------------0---|
G|------------------7---5-------|-4----4-------4-------4---4---|-0--------------------------0---|
D|-0------------0-------5-------|------------------------------|-0------------------------------|


D|-4----4----4----------4-------|------0----0--0---0---0---0---|-2----2----2----------0---0---|
B|-3----3----3----------3-------|------0----0--1---1---1---1---|-1----1----1----------1---0---|
G|-4----4---------------4-------|-0----0-------0---0---0---0---|-2----2----2----------2---0---|
D|-4----4-----------4---4---4---|-0----0-----------------------|-2----2-----------2-------0---|
G|-4------------4-------4---4---|-0----------------------------|-2----2-------2---------------|
D|------------------------------|-0----------------------------|------------------------------|


D|-5----5----5------5-------7---|-0----0----0--0---0---0---0---|------4----4------------------|
B|-5----5----5------5-------7---|-0----0----0--1---1---1---0---|------3----3----------7---0---|
G|-5----5----5--5---5-------7---|-0----0----0--0---0---0---0---|------2----2------2---7---0---|
D|-5----5-------5---5-------7---|-0----0-------0---------------|------0-----------0---7-------|
G|-5----5-------5---5-------7---|-0----0-------0---------------|----------------------7-------|
D|----------------------0-------|-0----0-----------------------|-0------------0---------------|


D|-2---2---2----2--2---2---2---0-----|-5---5---5----5--5---5-------7---|-0----0----0------------------|
B|-1---1---1----1--1---1---1---0-----|-5---5---5----5--5---5-------7---|-0----0----0------10--10------|
G|-2---2---2----2--2---2---2---0--0--|-5---5---5----5--5---5-------7---|-0----0----0------10--10--0---|
D|-2---2---2----2--2---2---2---------|-5---5---5----5--5---5-------7---|-0----0-------10--10--10--0---|
G|-----------------------------------|-5---5---5----5--5---5-------7---|-0----0-------10--10----------|
D|-----------------------------------|-------------------------0-------|-0----0-------10--------------|


D|-5----5----5--5---5---4----|-2----2----0------0---0---------|-5---5---5---5---5--5---5-----------|
B|-5----5----5--5---5---3----|-1----1----1------1---1---0--0--|-5---5---5---5---5--5---5-----------|
G|-5----5----5--5---5---4----|-2----2----2------2---2---0--0--|-5---5---5---5---5--5---5---7---7---|
D|-5----5-------5---5---4----|-2----2----2------2---2---------|-5---5---5----------5---5---7---7---|
G|-5----5-------5---5---4----|-2----2----2--0-------2---------|-5---5---5----------5-------7---7---|
D|-5----5--------------------|--------------------------------|-5----------------------------------|


D|-0----5---------------3-------|-5----5---------------5---5---|-----5---5----5------5---5--5--5---|
B|-0----0----0--1---1---1---0---|-5----5----5----------5---5---|-----6---6----6------6---6--6--6---|
G|-0----0----0--2-----------0---|-5----5----5----------5---5---|-----5---5----5------5---5--5--5---|
D|-0----0-------3-----------0---|-5----5----5------5-----------|-7-------7----7--7-------7--7------|
G|-0----------------------------|-5----5-------5---------------|-5-------5----5--5-------5--5------|
D|-0----------------------------|------------------------------|-----------------------------------|


D|-5----5----5----------5---5--5--|-5----5----5--5---5---5----5--|-5----5----5--------------7---|
B|-5----5----5----------5---5--5--|-6----6----6--6---6---6----5--|-5----5----5--------------7---|
G|-5----5----5----------5---5--5--|-5----5----5--5---5---5----5--|-5----5----5------5-------7---|
D|-5----5-------5---5---5---5--5--|-7----7-------7---7---7----5--|-5----5-------5---5---7---7---|
G|-5----5-------5-------5---5--5--|-5----5-------5---5---5----5--|-5----5-------5---5---7---7---|
D|--------------------------------|------------------------------|----------------------0---0---|


D|-0----0----0--0---0---------------|-0----0----0--0---5---5---5---|-4----4---4---4------------------|
B|-0----0----0--1---0---------------|-0----0----0----------0---0---|-3----3---3---3------------------|
G|-0----0-------0---0---------------|-0----0---------------0---0---|-4----4---4---4----------4---4---|
D|-0--------------------2--0--------|-0--------------------0---0---|-4----4---4---4------4---4---4---|
G|-0--------------------------2--0--|-0--------------------0---0---|-4----4---4---4--4---------------|
D|-0--------------------------------|------------------------------|---------------------------------|


D|-0----0----0--0---0---0---0---|-4----4----4--4---4---4---4---|-0----0----0--0---0---0---0---|
B|-0----0----0--1---1---0---0---|-3----3----3--3---3---3---3---|-0----0----0--1---1---0---1---|
G|-0----0-------0---0---0---0---|-4----4----4--4---4---4---4---|-0----0-------0---0---0---0---|
D|-0----0---------------0---0---|-4----4----4--4---4---4---4---|-0----0-------0---0---0---0---|
G|-0----------------------------|-4----4----4--4---4---4---4---|-0------------0---0-----------|
D|-0----------------------------|------------------------------|------------------------------|


D|-0----0----0--0---------------|-5----5----5--5---5-------7---|-0----0----0--0--0--0---0---0---|
B|-1----1----1--1---------------|-5----5----5--5---5-------7---|-0----0----0--0--1--1---1---0---|
G|-2----2----2--2-------2---0---|-5----5----5--5---5-------7---|-0----0-------0--0--0---0---0---|
D|-2----2----2--2---2-------0---|-5----5----5--5---5-------7---|-0----0-------------------------|
G|-2----2----2--2---------------|-5----5----5--5---5-------7---|-0------------------------------|
D|------------------------------|----------------------0-------|-0------------------------------|


D|------2----2------7-----------|-4----4-----------------------|------0----0--0--0--0---0---0---|
B|------3----3------7-------5---|-3----3-----------------------|------0----0--1--1--1---0---0---|
G|------2----2------7-------5---|-4----4----4--4-------4---4---|-0----0-------0--0--0---0---0---|
D|------0-----------7-------5---|-4----4----4--4---4---4---4---|-0----0---------------------0---|
G|------------------7---5-------|-4----4-------4-------4---4---|-0--------------------------0---|
D|-0------------0-------5-------|------------------------------|-0------------------------------|


D|-4----4----4----------4-------|------0----0--0---0---0---0---|-2----2----2----------0---0---|
B|-3----3----3----------3-------|------0----0--1---1---1---1---|-1----1----1----------1---0---|
G|-4----4---------------4-------|-0----0-------0---0---0---0---|-2----2----2----------2---0---|
D|-4----4-----------4---4---4---|-0----0-----------------------|-2----2-----------2-------0---|
G|-4------------4-------4---4---|-0----------------------------|-2----2-------2---------------|
D|------------------------------|-0----------------------------|------------------------------|


D|-5----5----5------5-------7---|-0----0----0--0---0---0---0---|------4----4------------------|
B|-5----5----5------5-------7---|-0----0----0--1---1---1---0---|------3----3----------7---0---|
G|-5----5----5--5---5-------7---|-0----0----0--0---0---0---0---|------2----2------2---7---0---|
D|-5----5-------5---5-------7---|-0----0-------0---------------|------0-----------0---7-------|
G|-5----5-------5---5-------7---|-0----0-------0---------------|----------------------7-------|
D|----------------------0-------|-0----0-----------------------|-0------------0---------------|


D|-2---2---2----2--2---2---2---0-----|-5---5---5----5--5---5-------7---|-0----0----0------------------|
B|-1---1---1----1--1---1---1---0-----|-5---5---5----5--5---5-------7---|-0----0----0------10--10------|
G|-2---2---2----2--2---2---2---0--0--|-5---5---5----5--5---5-------7---|-0----0----0------10--10--0---|
D|-2---2---2----2--2---2---2---------|-5---5---5----5--5---5-------7---|-0----0-------10--10--10--0---|
G|-----------------------------------|-5---5---5----5--5---5-------7---|-0----0-------10--10----------|
D|-----------------------------------|-------------------------0-------|-0----0-------10--------------|


D|-5----5----5--5---5---4----|-2----0----0------0---0---------|-5---5---5---5---5--5---5-----------|
B|-5----5----5--5---5---3----|-1----1----1------1---1---0--0--|-5---5---5---5---5--5---5-----------|
G|-5----5----5--5---5---4----|-2----2----2------2---2---0--0--|-5---5---5---5---5--5---5---7---7---|
D|-5----5-------5---5---4----|-2----2----2------2---2---------|-5---5---5----------5---5---7---7---|
G|-5----5-------5---5---4----|-2----2----2--0-------2---------|-5---5---5----------5-------7---7---|
D|-5----5--------------------|--------------------------------|-5----------------------------------|


D|-0----5---------------3-------|-5-----5--5--------------0---|-4----4---4---4------------------|
B|-0----0----0--1---1---1---0---|-5-----5--5--5-------5---0---|-3----3---3---3------------------|
G|-0----0----0--2-----------0---|-5-----5-----5-------5-------|-4----4---4---4----------4---4---|
D|-0----0-------3-----------0---|-5-----5---------5---5-------|-4----4---4----------4---4---4---|
G|-0----------------------------|-5-----5---------------------|-4----4---4------4---------------|
D|-0----------------------------|-----------------------------|---------------------------------|


D|-0----0----0--0---0---0---0---|-4----4----4--4---4---4---4---|-0----0----0--0---0---0---0---|
B|-0----0----0--1---1---0---0---|-3----3----3--3---3---3---3---|-0----0----0--1---1---0---1---|
G|-0----0-------0---0---0---0---|-4----4----4--4---4---4---4---|-0----0-------0---0---0---0---|
D|-0----0---------------0---0---|-4----4----4--4---4---4---4---|-0----0-------0---0---0---0---|
G|-0----------------------------|-4----4----4--4---4---4---4---|-0------------0---0-----------|
D|-0----------------------------|------------------------------|------------------------------|


D|-0----0----0--0---------------|-5----5----5--5---5-------7---|-0----0----0--0--0--0---0---0---|
B|-1----1----1--1---------------|-5----5----5--5---5-------7---|-0----0----0--0--1--1---1---1---|
G|-2----2----2--2-------2---0---|-5----5----5--5---5-------7---|-0----0-------0--0--0---0---0---|
D|-2----2----2--2---2-------0---|-5----5----5--5---5-------7---|-0----0-------------------------|
G|-2----2----2--2---------------|-5----5----5--5---5-------7---|-0------------------------------|
D|------------------------------|----------------------0-------|-0------------------------------|


D|-7----7----7------7---7---0---|-2---2---2----2--2---2---2---0-----|-5---5---5----5--5---5-------7---|
B|-7----7----7------7---7---0---|-1---1---1----1--1---1---1---0-----|-5---5---5----5--5---5-------7---|
G|-7----7----7--7---7---7---0---|-2---2---2----2--2---2---2---0--0--|-5---5---5----5--5---5-------7---|
D|-7----7-------7---7---7-------|-2---2---2----2--2---2---2---------|-5---5---5----5--5---5-------7---|
G|-7----7-------7---7---7-------|-----------------------------------|-5---5---5----5--5---5-------7---|
D|-0----0-------0---0---0-------|-----------------------------------|-------------------------0-------|


D|-0----0----0------------------|-5----5----5--5---5---4----|-2----0----0------0---0---------|
B|-0----0----0------10--10------|-5----5----5--5---5---3----|-1----1----1------1---1---0--0--|
G|-0----0----0------10--10--0---|-5----5----5--5---5---4----|-2----2----2------2---2---0--0--|
D|-0----0-------10--10--10--0---|-5----5-------5---5---4----|-2----2----2------2---2---------|
G|-0----0-------10--10----------|-5----5-------5---5---4----|-2----2----2--0-------2---------|
D|-0----0-------10--------------|-5----5--------------------|--------------------------------|


D|-5---5---5---5---5--5---5-----------|-0----5---------------3-------|-5---------5--5---5---0--0--0---|
B|-5---5---5---5---5--5---5-----------|-0----0----0--1---1---1---0---|-5----5----5--5---5---1--1--1---|
G|-5---5---5---5---5--5---5---7---7---|-0----0----0--2-----------0---|-5------------5---5---0--0--0---|
D|-5---5---5----------5---5---7---7---|-0----0-------3-----------0---|-5------------5-------0--0--0---|
G|-5---5---5----------5-------7---7---|-0----------------------------|-5------------5-----------------|
D|-5----------------------------------|-0----------------------------|--------------------------------|


D|-0------|
B|-0------|
G|-0------|
D|-0------|
G|--------|
D|--------|





Track 2: 6 String Nashville Tuning (6-4 tuned up 1 octave)

E|-----------------3--|-3----3---3---3--3---3---3---3--3--3--|-3----3---3------3---3---3---3--3-----|
B|-----------------0--|-0----0---0---0--0---0---0---0--0--0--|-1----1---1------1---1---1---1--1--0--|
G|-----------------0--|-0----0---0---0--0---0---0---0--0--0--|-0----0---0---0--0---0---0---0--0--0--|
D|-----------------0--|-0----0---0---0--0---0---0---0--0--0--|-2----2---2---2--2---2---2---2--2--0--|
A|-----------------2--|-2----2---2---2--2---2---2---2--2--2--|-0----0---0---0--0---0---0---0--0--0--|
E|-----------------3--|-3----3---3---3--3---3---3---3--3--3--|--------------------------------------|


E|-3----3---3---3--3---3---3---3--3--0--|-3----3-------------------------------|------3----3------3---3--3--3---|
B|-0----0---0---0--0---0---0---0--0--0--|-1----1-------------------------------|------0----0------0---0--0--0---|
G|-0----0---0---0--0---0---0---0--0-----|-0----0------------------0--0---------|------0----0------0---0--0--0---|
D|-0----0---0---0--0---0---0---0--0-----|-2----2------2--------2--------2------|------0-----------0---0--0--0---|
A|-2----2---2---2--2---2---2---2--2-----|-0----0---0-----0--3--------------3---|------2-------2---2---2--2--2---|
E|-3----3---3---3--3---3---3---3--3-----|--------------------------------------|-3----3-------3---3---3--3--3---|


E|-2------|----------------------|--------|--------|--------|-0------2----|-3------|
B|-3------|-----------12---------|-7------|--------|--------|-1------3----|-0------|
G|-4------|-12----12-----12------|--------|-12-----|--------|-0------2----|-0------|
D|-4------|-----------------12---|--------|--------|--------|-2------0----|-0------|
A|-2------|----------------------|--------|--------|-12-----|-3-----------|-2------|
E|--------|----------------------|--------|--------|-12-----|-------------|-3------|


E|-2------|-2------|-------------------|-7-----------|--------|--------------------|
B|-3------|-3------|-------12----------|-7-----------|-12-----|--------------------|
G|-2------|-4------|-4--------12-------|-7-----------|-12-----|-------5------------|
D|-0------|-4------|-5-----------12----|-------------|-12-----|-----------5--------|
A|--------|-2------|-------------------|-------------|--------|-12-------------12--|
E|--------|--------|-------------------|-------------|--------|-12-------------12--|


E|-------------------------|---------------------------|-------------------------------|
B|---------------------7---|-12------------------------|-------------------------------|
G|---------------12--------|-12-------5---------5------|-11----11------------------11--|
D|-------7----------12-----|-12----5-----5---5-----5---|-12----12---------------12-----|
A|-12--------7-------------|---------------------------|-12----12-12-12--12--12--------|
E|-12----------------------|---------------------------|-10----10----------------------|


E|-0----0----0--0---0---0---0---|-0----0----0--0---0---2--2--2---|-3----3---3--3--1---1---1---1--1--|
B|-1----1----1--1---1---1---1---|-1----1----1--1---1---3--3--3---|-0----0---0--0--1---1---1---1--1--|
G|-2----2----2--2---2---2---2---|-0----0----0--0---2---2--2--2---|-0----0---0--0--2---2---2---2--2--|
D|-2----2----2--2---2---2---2---|-2----2----2--2---0---0--0--0---|-0----0---0--0--3---3---3---3--3--|
A|-0----0----0--0---0---0---0---|-3----3----3--3---3-------------|-2----2---2--2--3---3---3---3--3--|
E|------------------------------|--------------------------------|-3----3---3--3--1---1---1---1--1--|


E|-0---0---0----0--0---0---2--2--2---|-0----0----0--0---0---0---0---|-0----0----0--0---0---2--2--2-----|
B|-1---1---1----1--1---1---3--3--3---|-1----1----1--1---1---1---1---|-1----1----1--1---1---3--3--3-----|
G|-0---0---0----0--0---0---4--4--4---|-2----2----2--2---2---2---2---|-0----0----0--0---0---2--2--2--0--|
D|-2---2---2----2--2---2---4--4--4---|-2----2----2--2---2---2---2---|-2----2----2--2---2---0--0--0--0--|
A|-3---3---3----3--3---3---2--2--2---|-0----0----0--0---0---0---0---|-3----3----3--3---3---------------|
E|-------------------------2--2--2---|------------------------------|----------------------------------|


E|-3----3---3---1----1---1--1--|-0-----------------------------|-7----------------|
B|-0----0---0---1----1---1--1--|-1-----------------------------|-7----------------|
G|-0----0---0---2----2---2--2--|-0---0---------0-----------0---|-7----------0-----|
D|-0----0---0---3----3---3--3--|-2-------2--------3--------0---|---------------0--|
A|-2----2---2---3----3---3--3--|-3----------3--------3-----0---|------------------|
E|-3----3---3---1----1---1--1--|-------------------------------|------------------|


E|-------------------------------|-7------------------|-----------------------------------|
B|-12------------------------5---|-7------------------|---------5---------------------5---|
G|-12-----------5--------5-------|-7-----11------11---|-12--5-----------7----------5------|
D|-12----5---5-----5-----5-------|-----------12--12---|-12----------7-------7---5---------|
A|-----------5--------3----------|--------------------|-----------------------------------|
E|-------------------------------|--------------------|-----------------------------------|


E|----------------|------------------|-----------------------|-----------------|-7-----7-----------------14--|
B|-5--------------|------------------|-12----------------12--|-7---------------|-7-----7---------12------15--|
G|-5----------9---|-9------------11--|-12--------12----------|-----------7-----|-7-----7--7--7---------------|
D|-5------10------|-10--------12-----|-12------------12------|-7-----7---------|---------------------12------|
A|----------------|--------12--------|-----------------------|-----------------|-----------------------------|
E|----------------|------------------|-----------------------|-----------------|-----------------------------|


E|-15-----------10--|-7------------------|-----------------------------------------|
B|-15--------12-----|-7--------------7---|-12----------------------------10--10-10-|
G|------------------|-------7------------|----12------------------12---------------|
D|------------------|------------12------|-------12--12-12-12--12----12------------|
A|------------------|--------------------|-----------------------------------------|
E|------------------|--------------------|-----------------------------------------|


E|-8-----------------8---|-8-----8---------8---10-10-10--|-10-----10------|-2----2----2--2---2---2--2--2---|
B|-10------------10------|-8-----8--8--8---8---10-10-10--|-12---------12--|-3----3----3--3---3---3--3--3---|
G|-9---------------------|---------------------11-11-11--|-12-------------|-2----2----2--2---2---2--2--2---|
D|-----------------------|-------------------------------|----------------|-0----0----0--0---0---0--0--0---|
A|-----------0-----------|-------------------------------|----------------|--------------------------------|
E|-----------------------|-------------------------------|----------------|--------------------------------|


E|-0----0----0--0---0---0---0---|-0----0----0--0---0---2--2--2---|-3----3---3--3--1---1---1---1--1--|
B|-1----1----1--1---1---1---1---|-1----1----1--1---1---3--3--3---|-0----0---0--0--1---1---1---1--1--|
G|-2----2----2--2---2---2---2---|-0----0----0--0---0---2--2--2---|-0----0---0--0--2---2---2---2--2--|
D|-2----2----2--2---2---2---2---|-2----2----2--2---2---0--0--0---|-0----0---0--0--3---3---3---3--3--|
A|-0----0----0--0---0---0---0---|-3----3----3--3---3-------------|-2----2---2--2--3---3---3---3--3--|
E|------------------------------|--------------------------------|-3----3---3--3--1---1---1---1--1--|


E|-0---0---0----0--0---0---2--2--2---|-0----0----0--0---0---0---0---|-0----0----0--0---0---2--2--2-----|
B|-1---1---1----1--1---1---3--3--3---|-1----1----1--1---1---1---1---|-1----1----1--1---1---3--3--3-----|
G|-0---0---0----0--0---0---4--4--4---|-2----2----2--2---2---2---2---|-0----0----0--0---0---2--2--2--0--|
D|-2---2---2----2--2---2---4--4--4---|-2----2----2--2---2---2---2---|-2----2----2--2---2---0--0--0--0--|
A|-3---3---3----3--3---3---2--2--2---|-0----0----0--0---0---0---0---|-3----3----3--3---3---------------|
E|-------------------------2--2--2---|------------------------------|----------------------------------|


E|-3----3---3---1----1---1--1--|-8---8---8---8--8--8---8---8--8--8--8--|-----------------------------------------|
B|-0----0---0---1----1---1--1--|-8---8---8---8--8--8---8---8--8--8--8--|-10-10-10--10--10-10-10-10--10-10--10-10-|
G|-0----0---0---2----2---2--2--|-9---9---9---9--9--9---9---9--9--9--9--|-10-10-10--10--10-10-10-10--10-10--10-10-|
D|-0----0---0---3----3---3--3--|-10--10--10--10-10-10--10--10-10-10-10-|-10-10-10--10--10-10-10-10--10-10--10-10-|
A|-2----2---2---3----3---3--3--|-10--10--10--10-10-10--10--10-10-10-10-|-10-10-10--10--10-10-10-10--10-10--10-10-|
E|-3----3---3---1----1---1--1--|-8---8---8---8--8--8---8---8--8--8--8--|-8--8--8---8---8--8--8--8---8--8---8--8--|


E|-8---8---8---8--8--8--8---8--8---8--8--|---------------------------------------|
B|-8---8---8---8--8--8--8---8--8---8--8--|-10--10--10--10-10-10-10--10-10--10-10-|
G|-9---9---9---9--9--9--9---9--9---9--9--|-10--10--10--10-10-10-10--10-10--10-10-|
D|-10--10--10--10-10-10-10--10-10--10-10-|-10--10--10--10-10-10-10--10-10--10-10-|
A|-10--10--10--10-10-10-10--10-10--10-10-|-10--10--10--10-10-10-10--10-10--10-10-|
E|-8---8---8---8--8--8--8---8--8---8--8--|-8---8---8---8--8--8--8---8--8---8--8--|


E|-0---0---0----0--0---0---2--2--2---|-3-----3----0----|-3------|-2------|----------------------|
B|-1---1---1----1--1---1---3--3--3---|-0-----0----1----|-0------|-3------|-----------12---------|
G|-0---0---0----0--0---0---2--2--2---|-0-----0----0----|-0------|-4------|-12----12-----12------|
D|-2---2---2----2--2---2---0--0------|-0-----0----2----|-0------|-4------|-----------------12---|
A|-3---3---3----3--3---3-------------|-2-----2----0----|-2------|-2------|----------------------|
E|-----------------------------------|-3-----3---------|-3------|--------|----------------------|


E|--------|--------|--------|-0------2----|-3------|-2------|-2------|-------------------|
B|-7------|--------|--------|-1------3----|-0------|-3------|-3------|-------------------|
G|--------|-12-----|--------|-0------2----|-0------|-2------|-4------|-4-----12----------|
D|--------|--------|--------|-2------0----|-0------|-0------|-4------|-5--------12-------|
A|--------|--------|-12-----|-3-----------|-2------|--------|-2------|-------------12----|
E|--------|--------|-12-----|-------------|-3------|--------|--------|-------------------|


E|-7-----------|--------|--------------------|-------------------------|---------------------------|
B|-7-----------|-12-----|--------------------|---------------------7---|-12------------------------|
G|-7-----------|-12-----|-------5------------|---------------12--------|-12-------5---------5------|
D|-------------|-12-----|-----------5--------|-------7----------12-----|-12----5-----5---5-----5---|
A|-------------|--------|-12-------------12--|-12--------7-------------|---------------------------|
E|-------------|--------|-12-------------12--|-12----------------------|---------------------------|


E|-------------------------------|-0----0----0--0---0---0---0---|-0----0----0--0---0---2--2--2---|
B|-------------------------------|-1----1----1--1---1---1---1---|-1----1----1--1---1---3--3--3---|
G|-11----11------------------11--|-2----2----2--2---2---2---2---|-0----0----0--0---0---2--2--2---|
D|-12----12---------------12-----|-2----2----2--2---2---2---2---|-2----2----2--2---2---0--0--0---|
A|-12----12-12-12--12--12--------|-0----0----0--0---0---0---0---|-3----3----3--3---3-------------|
E|-10----10----------------------|------------------------------|--------------------------------|


E|-3----3---3--3--1---1---1---1--1--|-0---0---0----0--0---0---2--2--2---|-0----0----0--0---0---0---0---|
B|-0----0---0--0--1---1---1---1--1--|-1---1---1----1--1---1---3--3--3---|-1----1----1--1---1---1---1---|
G|-0----0---0--0--2---2---2---2--2--|-0---0---0----0--0---0---4--4--4---|-2----2----2--2---2---2---2---|
D|-0----0---0--0--3---3---3---3--3--|-2---2---2----2--2---2---4--4--4---|-2----2----2--2---2---2---2---|
A|-2----2---2--2--3---3---3---3--3--|-3---3---3----3--3---3---2--2--2---|-0----0----0--0---0---0---0---|
E|-3----3---3--3--1---1---1---1--1--|-------------------------2--2--2---|------------------------------|


E|-0----0----0--0---0---2--2--2-----|-3----3---3---1----1---1--1--|-0--------------------------|
B|-1----1----1--1---1---3--3--3-----|-0----0---0---1----1---1--1--|-1--------------------------|
G|-0----0----0--0---0---2--2--2--0--|-0----0---0---2----2---2--2--|-0----------0---------------|
D|-2----2----2--2---2---0--0--0--0--|-0----0---0---3----3---3--3--|-2----2--------3------------|
A|-3----3----3--3---3---------------|-2----2---2---3----3---3--3--|-3-------3--------3---------|
E|----------------------------------|-3----3---3---1----1---1--1--|----------------------------|


E|-7-------------7-------|-7--------------------10--|-7--------------------7---7---|
B|-7---------------------|-8--------------10-12-----|-7--------------------7-------|
G|-7---------------------|--------------------------|-7--------------------7-------|
D|-----------7-------7---|--------------------------|------------------------------|
A|-----------------------|--------------------------|------2-----------------------|
E|-----------------------|--------------------------|-----------1--1---2-----------|


E|--------|-----------5-----------|-----------------12----------|--------------------|
B|--------|-------5---------------|-----------------------------|--------------------|
G|-5------|-----------------------|----------12-12------12------|----------5---5-----|
D|-5------|-----------------------|-------------------------12--|-12---5-------------|
A|--------|-12----------------12--|-12----12--------------------|--------------------|
E|--------|-12----------------12--|-12----12--------------------|--------------------|


E|--------------------------------|-0----0----0--0---0---0---0---|-0----0----0--0---0---2--2--2---|
B|--------------------------------|-1----1----1--1---1---1---1---|-1----1----1--1---1---3--3--3---|
G|-11---------------------11------|-2----2----2--2---2---2---2---|-0----0----0--0---0---2--2--2---|
D|-------------12-12------12------|-2----2----2--2---2---2---2---|-2----2----2--2---2---0--0--0---|
A|-12--12---12--------------------|-0----0----0--0---0---0---0---|-3----3----3--3---3-------------|
E|--------------------10------10--|------------------------------|--------------------------------|


E|-3----3---3--3--1---1---1---1--1--|-0---0---0----0--0---0---2--2--2---|-0----0----0--0---0---0---0---|
B|-0----0---0--0--1---1---1---1--1--|-1---1---1----1--1---1---3--3--3---|-1----1----1--1---1---1---1---|
G|-0----0---0--0--2---2---2---2--2--|-0---0---0----0--0---0---4--4--4---|-2----2----2--2---2---2---2---|
D|-0----0---0--0--3---3---3---3--3--|-2---2---2----2--2---2---4--4--4---|-2----2----2--2---2---2---2---|
A|-2----2---2--2--3---3---3---3--3--|-3---3---3----3--3---3---2--2--2---|-0----0----0--0---0---0---0---|
E|-3----3---3--3--1---1---1---1--1--|-------------------------2--2--2---|------------------------------|


E|-0----0----0--0---0---2--2--2-----|-3----3---3---1----1---1--1--|-0----------------|
B|-1----1----1--1---1---3--3--3-----|-0----0---0---1----1---1--1--|-1----------------|
G|-0----0----0--0---0---2--2--2--0--|-0----0---0---2----2---2--2--|-0------------0---|
D|-2----2----2--2---2---0--0--0--0--|-0----0---0---3----3---3--3--|-2------0--2------|
A|-3----3----3--3---3---------------|-2----2---2---3----3---3--3--|-3----------------|
E|----------------------------------|-3----3---3---1----1---1--1--|------------------|


E|-3------|
B|-0------|
G|-0------|
D|-0------|
A|-2------|
E|-3------|





Track 3: 6 String Electric Standard Tuning

E|--------|--------|-------10-10-10--10-10-10-8--8--7--|-7------|-------10-10-10--10-10-10-8--8--7--|
B|--------|--------|-------12-12-12--12-12-12-10-10-8--|-8------|-------12-12-12--12-12-12-10-10-8--|
G|--------|--------|-----------------------------------|--------|-----------------------------------|
D|--------|--------|-----------------------------------|--------|-----------------------------------|
A|--------|--------|-----------------------------------|--------|-----------------------------------|
E|--------|--------|-----------------------------------|--------|-----------------------------------|


E|-7------|-----------------------------|-7---------7-----------------|-7------|-7------|
B|-8------|-7-----7---7-----8-----10----|-----------------10----8-----|-7------|-8------|
G|--------|-7-----7------7-----7-----7--|-7------------7-----7-----7--|-7------|-7------|
D|--------|-9-----9---------------------|-----------------------------|--------|--------|
A|--------|-----------------------------|-----------------------------|--------|--------|
E|--------|-----------------------------|-----------------------------|--------|--------|


E|-5-----------|-8------------------|------------------|-2---------0----------2--------0-------|
B|-5-----------|-8------7-----------|-8----------------|----3----------3---3-----3---------3---|
G|-5-----------|-9---------7--------|------------------|-------2--------------------2----------|
D|-------------|-10-----------7--9--|-9---9------------|---------------------------------------|
A|-------------|--------------------|--------10-10-----|---------------------------------------|
E|-------------|--------------------|------------------|---------------------------------------|


E|---------------------2---------|-----------7-----------------|--------------------|
B|-3----3----3---3---------------|-12--------7--7-----10-8-----|-7------8-----10----|
G|------------------4------4--4--|-12--------------7--------7--|-7---------7-----7--|
D|-------------------------------|-12--------------------------|-9------------------|
A|-------------------------------|-----------------------------|--------------------|
E|-------------------------------|-----------------------------|--------------------|


E|-7------------------7---|-5-----------|-8-----8-----------------|-----3-----3---------|
B|-8----------------------|-5-----------|-8-----8-------7---------|-----3-----3---------|
G|-7---7-----7------------|-5-----------|-9-----9----------7------|-----4-----4---------|
D|------------------------|-------------|---------------------7---|-5-------------------|
A|------------------------|-------------|-------------------------|---------------------|
E|------------------------|-------------|-------------------------|---------------------|


E|---------0-----------2-------------7--7--|-5------|-----------------------------7-----5---|
B|------------3-----3-----3----------------|--------|-----5---5---5--5----------------------|
G|-----2---------2-----------2---7------7--|-5------|-----5---5---5--5--5---5--7--7--5------|
D|-0---------------------------------------|--------|-----5---5-----------------------------|
A|-----------------------------------------|--------|---------------------------------------|
E|-----------------------------------------|--------|---------------------------------------|


E|-3-----3--0--1--3--1----3---|-0---------------7----|-5----------------|-------------------------------7-------|
B|-3-----------1--3--1----1---|-1--------------------|------------8-----|-8-----8-------5--5--------------------|
G|-4--------------------------|-0---------5--7--7----|-5-------------9--|-9--9--9-------5--5--5---5--7--7---5---|
D|----------------------------|----------------------|------------------|---------------------------------------|
A|----------------------------|----------------------|------------------|---------------------------------------|
E|----------------------------|----------------------|------------------|---------------------------------------|


E|---------------3--0--1--3--1----1---|-3----3-----3--------3-----------|-7------------------|
B|-3-------------------1--3--1----1---|-5----5--------5-----------------|-7------8-----10----|
G|-4---0------------------------------|-5----5--5--------5--------------|-7---------7-----7--|
D|--------0--0------------------------|---------------------------------|--------------------|
A|------------------------------------|---------------------------------|--------------------|
E|------------------------------------|---------------------------------|--------------------|


E|-7-----7-----7-----------------|-7-----7-----7---------------------|-7--7----7----7---------|
B|-8-----8-----------10----8-----|-8-----8---------7-----8-----10----|-7--8----8----8---------|
G|-7-----7--7-----7-----7-----7--|-7-----7--7---------7-----7-----7--|-7--7----7----7-----7---|
D|-------------------------------|-----------------------------------|------------------------|
A|-------------------------------|-----------------------------------|------------------------|
E|-------------------------------|-----------------------------------|------------------------|


E|-5------|-8-----8-------------------|-----------------|-----2--0--0---------2---------0-------|
B|-5------|-8-----8-------7-----------|-----0-----0-----|-3-------------3--------3----------3---|
G|-5------|-9-----9----------7--------|-0---------------|-2----------------2--------2-----------|
D|--------|-10----10------------7--0--|-0---------------|-0-------------------------------------|
A|--------|---------------------------|-----------------|---------------------------------------|
E|--------|---------------------------|-----------------|---------------------------------------|


E|-------------|----------------------|-------------|---------------10--------------|
B|-3-----------|------------10-10-8---|-7-----------|-----------10------10-10-8-----|
G|-------------|----------------------|-------------|----------------------------9--|
D|-------------|----------------------|-------------|-------------------------------|
A|-------------|----------------------|-------------|-------------------------------|
E|-------------|----------------------|-------------|-------------------------------|


E|-----------------------------|----------------------------------|--------------------|
B|-8---------------------8-----|-8----------------8-----8-----8---|-10-10---10---------|
G|--------------------------9--|---------------------9-----9------|--------------------|
D|-----------------------------|----------------------------------|--------------------|
A|-----------------------------|----------------------------------|--------------------|
E|-----------------------------|----------------------------------|--------------------|


E|----------------7---------7---7-----|-5-----5-----------------|-----------------------------7-----5---|
B|------------------------------0-----|-------------------8-----|-8--8--------8-----8-------------------|
G|----------5--7--7---5--7--7------7--|-5-----5--------------9--|----------------9------5--7--7--5--5---|
D|------------------------------------|-------------------------|---------------------------------------|
A|------------------------------------|-------------------------|---------------------------------------|
E|------------------------------------|-------------------------|---------------------------------------|


E|-3-----3--0-----3----------------|-3---------------7-----7--5--|-5-----------|----3--3---3--3--3-------------7-----5---|
B|----------------3--6---------6---|-5---------------------------|-------------|----3--5---5--3--5-----------------------|
G|-4--------------------5------5---|-5---------5--7-----7-----5--|-5-----------|-------------------------5--7--7--5------|
D|---------------------------------|-----------------------------|-------------|-----------------------------------------|
A|---------------------------------|-----------------------------|-------------|-----------------------------------------|
E|---------------------------------|-----------------------------|-------------|-----------------------------------------|


E|-3----------------------------------|-----------------------------------|-8---------8-----------8----------|
B|-3-----------8--8--8-------------8--|-8-----8-----8--8-----8--------8---|-----------------11-------11------|
G|-4--------9-------------------9-----|----------9-----------------9------|----------------------------------|
D|------------------------------------|-----------------------------------|----------------------------------|
A|------------------------------------|-----------------------------------|----------------------------------|
E|------------------------------------|-----------------------------------|----------------------------------|


E|-------12----8--------8--8-------|-12-8--------------------------------|-12----12--------------------|
B|----------------11---------------|-------8-----------------------------|----------13--------10-------|
G|-10-12-12------------------------|----------10-10-10-8-----------10-12-|-12----------12--11----11-7--|
D|---------------------------------|----------------------10-10----------|-----------------------------|
A|---------------------------------|-------------------------------------|-----------------------------|
E|---------------------------------|-------------------------------------|-----------------------------|


E|-------------------------|-----------------------|--------------------|-----------------------|
B|-------------------------|----------------10--10-|----10---10---------|-----------10--10--8---|
G|-7-----7-------9--7---7--|-7-----7---------------|--------------------|-----------------------|
D|-------------------------|-----------------------|--------------------|-----------------------|
A|-------------------------|-----------------------|--------------------|-----------------------|
E|-------------------------|-----------------------|--------------------|-----------------------|


E|----------------|---------------10-------------|-------------|------------------------|
B|-7------7---7---|-----------10--10-10-10-8-----|-------------|------------10-10-8-----|
G|----------------|---------------------------9--|-9-----------|---------------------9--|
D|----------------|------------------------------|-------------|------------------------|
A|----------------|------------------------------|-------------|------------------------|
E|----------------|------------------------------|-------------|------------------------|


E|-----------------|-----------------------|--------------------|---------------------------------|
B|-8---------------|-----------10--10--10--|-10-----10-10-8-----|-8--10-10--------10-10-10-10-8---|
G|-----------------|-----------------------|-----------------9--|---------------------------------|
D|-----------------|-----------------------|--------------------|---------------------------------|
A|-----------------|-----------------------|--------------------|---------------------------------|
E|-----------------|-----------------------|--------------------|---------------------------------|


E|----------------|----------------10--|--------------------------------------|-------------------10--|
B|-7------7-------|-10---------10------|-10-10-8--------8-----10----8----8----|-----------10--10------|
G|------------9---|--------------------|----------9---------------------------|-----------------------|
D|----------------|--------------------|--------------------------------------|-----------------------|
A|----------------|--------------------|--------------------------------------|-----------------------|
E|----------------|--------------------|--------------------------------------|-----------------------|


E|-------------|------------------------7-----7-----|-------------|-----------------7-----5---|
B|-10----------|-10--10-----------------------------|-------------|---------------------------|
G|-------------|------------------5--7--7--7-----5--|-5-----------|-----------5--7--7--5------|
D|-------------|------------------------------------|-------------|---------------------------|
A|-------------|------------------------------------|-------------|---------------------------|
E|-------------|------------------------------------|-------------|---------------------------|


E|-3---------8-----------------|-------------------------|------------------------|
B|--------------8--8-----10----|-8---------10-----10--10-|-----8------------------|
G|-4---------9--------------9--|-------------------------|---------9---9----------|
D|--------------------10-------|-------------------------|------------------------|
A|-----------------------------|-------------------------|------------------------|
E|-----------------------------|-------------------------|------------------------|


E|-----------------7-----5---|-3-----------------------------|-----------10--10--------|
B|---------------------------|----------8--8--10---8-----8---|-8-----8-----------10-10-|
G|-----------5--7--7--5------|-4-----9----------------9------|-------------------------|
D|---------------------------|-------------------------------|-------------------------|
A|---------------------------|-------------------------------|-------------------------|
E|---------------------------|-------------------------------|-------------------------|


E|---------------------------------10--------------|------------------10-------10-----|
B|-10-10-10-10-10-10-10-10-10--10------10-10-8-----|-8---10---10---10------10------8--|
G|----------------------------------------------9--|----------------------------------|
D|-------------------------------------------------|----------------------------------|
A|-------------------------------------------------|----------------------------------|
E|-------------------------------------------------|----------------------------------|


E|----------------------------10--|---------------------------|---------------------------------------|
B|----7----7----7------10-10------|-10----10--10--10--8-------|-8---10--8-------8---8----------10-10--|
G|--------------------------------|-----------------------9---|-------------9-------------------------|
D|--------------------------------|---------------------------|---------------------------------------|
A|--------------------------------|---------------------------|---------------------------------------|
E|--------------------------------|---------------------------|---------------------------------------|


E|-----------------10----------------------|-----------------------10--|-------------------------|
B|-10--10--8---10------10------10-10-8-----|-10----10-10-8-----10------|-10----10---10-10-10--10-|
G|--------------------------------------9--|----------------9----------|-------------------------|
D|-----------------------------------------|---------------------------|-------------------------|
A|-----------------------------------------|---------------------------|-------------------------|
E|-----------------------------------------|---------------------------|-------------------------|


E|-10----------------10-|------------------------7-----5---|-3-------------------------|
B|----------------10----|-10-------------------------------|-----------------8--10-8---|
G|----------------------|-----9---9----9---5--7--7--5------|-4---------7--9--------9---|
D|----------------------|----------------------------------|---------------------------|
A|----------------------|----------------------------------|---------------------------|
E|----------------------|----------------------------------|---------------------------|


E|------------------------|----------------------|----------------------10-------|
B|-8----------------------|----------------8-----|-8-----------------10-10-10-10-|
G|------------------------|-------------------9--|-------------------------------|
D|------------9--9--9--7--|-7--------------------|-------------------------------|
A|------------------------|----------------------|-------------------------------|
E|------------------------|----------------------|-------------------------------|


E|-----------------------------------|------------------------|-7--------------|
B|-8-----8--8--10-10-8-----10--8-----|------------------------|-8--------------|
G|----------------------9---------9--|-----9-----9------------|-----7---7------|
D|-----------------------------------|------------------------|----------------|
A|-----------------------------------|------------------------|----------------|
E|-----------------------------------|------------------------|----------------|