Site menu:

    

Browse: 0-9 A B C D E F G H I J K L N O P Q R S T U V W X Y Z

the rolling stones - surprisesurprise:



Title: Surprise, Surprise
Artist: 
Album: 
Author: Mick Jagger and Keith Richards


Track 1: Guitar 1

E|------------------------|---------------------------|------------------------|---------------------------|
B|------0----0---2--------|-------2---2---0-----------|------0----0---2--------|---------------0-----------|
G|------1----1---2--------|-1-----2---2-------0---1---|-1----1----1---2----2---|-1-----2---2-------0---1---|
D|------2----2---2----2---|-2-----2---2-------2-------|-2----2----2---2----2---|-2-----2---2-------2-------|
A|------2----2------------|-2-------------------------|-2----2----2------------|-2-----2---2---------------|
E|------0----0------------|-0-------------------------|-0----------------------|-0-------------------------|


E|------------------------|------------------------------|------------------------|
B|------0----0---2--------|----------2---2---0-----------|------0----0---2--------|
G|-1----1----1---2--------|-1--------2---2-------0---1---|-1----1----1---2--------|
D|-2----2----2---2--------|-2--------2---2-------2-------|-2----2----2---2--------|
A|-2----2----2------------|-2----------------------------|-2----2----2------------|
E|-0----------------------|------------------------------|-0----------------------|


E|------------------------------|------------------------|------------------------------|
B|----------2---2---0-----------|------0----0---2--------|----------2---2---0-----------|
G|-1--------2---2-------0---1---|-1----1----1---2--------|-1--------2---2-------0---1---|
D|-2--------2---2-------2-------|-2----2----2---2--------|-2--------2---2-------2-------|
A|-2----------------------------|-2----2----2------------|-2----------------------------|
E|------------------------------|-0----------------------|------------------------------|


E|------------------------|------------------------------|------------------------|
B|------0----0---2--------|----------2---2---0-----------|------0----0---2--------|
G|-1----1----1---2--------|-1--------2---2-------0---1---|-1----1----1---2--------|
D|-2----2----2---2--------|-2--------2---2-------2-------|-2----2----2---2--------|
A|-2----2----2------------|-2----------------------------|-2----2----2------------|
E|-0----------------------|------------------------------|-0----------------------|


E|------------------------------|------------------------|------------------------------|
B|----------2---2---0-----------|------0----0---2--------|----------2---2---0-----------|
G|-1--------2---2-------0---1---|-1----1----1---2--------|-1--------2---2-------0---1---|
D|-2--------2---2-------2-------|-2----2----2---2--------|-2--------2---2-------2-------|
A|-2----------------------------|-2----2----2------------|-2----------------------------|
E|------------------------------|-0----------------------|------------------------------|


E|------------------------|------------------------------|------------------------|
B|------------------------|------------------------------|------------------------|
G|-2----2--------4--------|-5--------4---4---2---2---2---|-2----2--------4--------|
D|-2----2--------4--------|-5--------4---4---2---2---2---|-2----2--------4--------|
A|-0----0-----------------|------------------------------|-0----0-----------------|
E|------------------------|------------------------------|------------------------|


E|------------------------------|------------------------|------------------------------|
B|------------------------------|------0----0---2--------|----------2---2---0-----------|
G|-5--------4---4---2---2---2---|-1----1----1---2--------|-1--------2---2-------0---1---|
D|-5--------4---4---2---2---2---|-2----2----2---2--------|-2--------2---2-------2-------|
A|------------------------------|-2----2----2------------|-2----------------------------|
E|------------------------------|-0----------------------|------------------------------|


E|------------------------|------------------------------|---------------------------|
B|------0----0---2--------|----------2---2---0-----------|-5----5--------4-------4---|
G|-1----1----1---2--------|-1--------2---2-------0---1---|-6----6--------4-------4---|
D|-2----2----2---2--------|-2--------2---2-------2-------|-6----6--------4-----------|
A|-2----2----2------------|-2----------------------------|-4----4--------2-----------|
E|-0----------------------|------------------------------|---------------------------|


E|---------------------------|---------------------------|---------------------------|
B|-2-----4---4---4---4---4---|-5----5--------4-------4---|-2-----4---4---4---4---4---|
G|-2-----4---4---4---4---4---|-6----6--------4-------4---|-2-----4---4---4---4---4---|
D|-2-----4---4---4-----------|-6----6--------4-----------|-2-----4---4---4-----------|
A|-0-----2---2---------------|-4----4--------2-----------|-0-----2---2---------------|
E|---------------------------|---------------------------|---------------------------|


E|---------------------------|---------------------------|---------------------------------|
B|-5----5--------4-------4---|-2-----4---4---4---4---4---|-5---5---5---5---5---5---5---5---|
G|-6----6--------4-------4---|-2-----4---4---4---4---4---|-6---6---6---6---6---6---6---6---|
D|-6----6--------4-----------|-2-----4---4---4-----------|-6---6---6---6---6---6---6---6---|
A|-4----4--------2-----------|-0-----2---2---------------|-4---4---4---4---4---4---4---4---|
E|---------------------------|---------------------------|---------------------------------|


E|---------------------------|------------------------|------------------------------|
B|-4---4---4----4---4---4----|------0----0---2--------|----------2---2---0-----------|
G|-4---4---4----4---4---4----|-1----1----1---2--------|-1--------2---2-------0---1---|
D|-4---4---4----4---4---4----|-2----2----2---2--------|-2--------2---2-------2-------|
A|-2---2---2----2---2---2----|-2----2----2------------|-2----------------------------|
E|---------------------------|-0----------------------|------------------------------|


E|------------------------|------------------------------|------------------------|
B|------0----0---2--------|----------2---2---0-----------|------0----0---2--------|
G|-1----1----1---2--------|-1--------2---2-------0---1---|-1----1----1---2--------|
D|-2----2----2---2--------|-2--------2---2-------2-------|-2----2----2---2--------|
A|-2----2----2------------|-2----------------------------|-2----2----2------------|
E|-0----------------------|------------------------------|-0----------------------|


E|------------------------------|------------------------|------------------------------|
B|----------2---2---0-----------|------0----0---2--------|----------2---2---0-----------|
G|-1--------2---2-------0---1---|-1----1----1---2--------|-1--------2---2-------0---1---|
D|-2--------2---2-------2-------|-2----2----2---2--------|-2--------2---2-------2-------|
A|-2----------------------------|-2----2----2------------|-2----------------------------|
E|------------------------------|-0----------------------|------------------------------|


E|------------------------|------------------------------|------------------------|
B|------------------------|------------------------------|------------------------|
G|-2----2--------4--------|-5--------4---4---2---2---2---|-2----2--------4--------|
D|-2----2--------4--------|-5--------4---4---2---2---2---|-2----2--------4--------|
A|-0----0-----------------|------------------------------|-0----0-----------------|
E|------------------------|------------------------------|------------------------|


E|------------------------------|------------------------|------------------------------|
B|------------------------------|------0----0---2--------|----------2---2---0-----------|
G|-5--------4---4---2---2---2---|-1----1----1---2--------|-1--------2---2-------0---1---|
D|-5--------4---4---2---2---2---|-2----2----2---2--------|-2--------2---2-------2-------|
A|------------------------------|-2----2----2------------|-2----------------------------|
E|------------------------------|-0----------------------|------------------------------|


E|------------------------|------------------------------|---------------------------|
B|------0----0---2--------|----------2---2---0-----------|-5----5--------4-------4---|
G|-1----1----1---2--------|-1--------2---2-------0---1---|-6----6--------4-------4---|
D|-2----2----2---2--------|-2--------2---2-------2-------|-6----6--------4-----------|
A|-2----2----2------------|-2----------------------------|-4----4--------2-----------|
E|-0----------------------|------------------------------|---------------------------|


E|---------------------------|---------------------------|---------------------------|
B|-2-----4---4---4---4---4---|-5----5--------4-------4---|-2-----4---4---4---4---4---|
G|-2-----4---4---4---4---4---|-6----6--------4-------4---|-2-----4---4---4---4---4---|
D|-2-----4---4---4-----------|-6----6--------4-----------|-2-----4---4---4-----------|
A|-0-----2---2---------------|-4----4--------2-----------|-0-----2---2---------------|
E|---------------------------|---------------------------|---------------------------|


E|---------------------------|---------------------------|---------------------------------|
B|-5----5--------4-------4---|-2-----4---4---4---4---4---|-5---5---5---5---5---5---5---5---|
G|-6----6--------4-------4---|-2-----4---4---4---4---4---|-6---6---6---6---6---6---6---6---|
D|-6----6--------4-----------|-2-----4---4---4-----------|-6---6---6---6---6---6---6---6---|
A|-4----4--------2-----------|-0-----2---2---------------|-4---4---4---4---4---4---4---4---|
E|---------------------------|---------------------------|---------------------------------|


E|---------------------------|----------------12---|-----------------------------------|
B|-4---4---4----4---4---4----|---------------------|-----------------------------------|
G|-4---4---4----4---4---4----|-14---14---14--------|-14--14--14-12-----12------12--14--|
D|-4---4---4----4---4---4----|---------------------|---------------14------14----------|
A|-2---2---2----2---2---2----|---------------------|-----------------------------------|
E|---------------------------|---------------------|-----------------------------------|


E|-----12--------------------------|------------------------------|-----12------12----------12---|
B|---------------------------------|------------------------------|------------------------------|
G|-14------14--14--12------12--14--|-14---12------12------12--14--|-14------14------14--14-------|
D|---------------------14----------|----------14------14----------|------------------------------|
A|---------------------------------|------------------------------|------------------------------|
E|---------------------------------|------------------------------|------------------------------|


E|--------------------------|----------12--12-----------|-12----------12----------12---|
B|--------------------------|---------------------------|------------------------------|
G|-14---14---14-12----------|-12--12-----------12--12---|-----12--12------12--12-------|
D|-----------------14--14---|---------------------------|------------------------------|
A|--------------------------|---------------------------|------------------------------|
E|--------------------------|---------------------------|------------------------------|


E|---------5------------3----|---------5-----------------|---------5------------3----|
B|---------------------------|---------------------------|---------------------------|
G|-4---6--------6---4--------|-4---6-------6---4---------|-4---6--------6---4--------|
D|---------------------------|---------------------------|---------------------------|
A|---------------------------|---------------------------|---------------------------|
E|---------------------------|---------------------------|---------------------------|


E|---------5-----------------|------0----0---0--------|------------------------|------------------------|
B|---------------------------|------3----3---2---3----|-3----2---0-------------|------12----------------|
G|-4---6-------6---4---------|------4----4---3---4----|-4----2---0---1---------|------14---14--14--14---|
D|---------------------------|------------------------|------------------2-----|------------------------|
A|---------------------------|------------------------|------------------------|------------------------|
E|---------------------------|------------------------|------------------------|------------------------|


E|-----------------------------------|---------------------------|---------------------------|
B|-----------------------------------|-5----5--------4-------4---|-2-----4---4---4---4---4---|
G|-14-14-12-----12------12-----------|-6----6--------4-------4---|-2-----4---4---4---4---4---|
D|----------14------14------14-------|-6----6--------4-----------|-2-----4---4---4-----------|
A|-----------------------------------|-4----4--------2-----------|-0-----2---2---------------|
E|-----------------------------------|---------------------------|---------------------------|


E|---------------------------|---------------------------|---------------------------|
B|-5----5--------4-------4---|-2-----4---4---4---4---4---|-5----5--------4-------4---|
G|-6----6--------4-------4---|-2-----4---4---4---4---4---|-6----6--------4-------4---|
D|-6----6--------4-----------|-2-----4---4---4-----------|-6----6--------4-----------|
A|-4----4--------2-----------|-0-----2---2---------------|-4----4--------2-----------|
E|---------------------------|---------------------------|---------------------------|


E|---------------------------|---------------------------------|---------------------------|
B|-2-----4---4---4---4---4---|-5---5---5---5---5---5---5---5---|-4---4---4----4---4---4----|
G|-2-----4---4---4---4---4---|-6---6---6---6---6---6---6---6---|-4---4---4----4---4---4----|
D|-2-----4---4---4-----------|-6---6---6---6---6---6---6---6---|-4---4---4----4---4---4----|
A|-0-----2---2---------------|-4---4---4---4---4---4---4---4---|-2---2---2----2---2---2----|
E|---------------------------|---------------------------------|---------------------------|


E|--------|--------|--------|--------|
B|--------|--------|--------|--------|
G|--------|--------|--------|--------|
D|--------|--------|--------|--------|
A|--------|--------|--------|--------|
E|--------|--------|--------|--------|





Track 2: Guitar 1

E|-------------|--------|--------|--------|--------|--------|--------|--------|--------|
B|-------------|--------|--------|--------|--------|--------|--------|--------|--------|
G|-------------|--------|--------|--------|--------|--------|--------|--------|--------|
D|-------------|--------|--------|--------|--------|--------|--------|--------|--------|
A|-------------|--------|--------|--------|--------|--------|--------|--------|--------|
E|-------------|--------|--------|--------|--------|--------|--------|--------|--------|


E|--------|--------|--------|--------|--------|--------|--------|--------|--------|
B|--------|--------|--------|--------|--------|--------|--------|--------|--------|
G|--------|--------|--------|--------|--------|--------|--------|--------|--------|
D|--------|--------|--------|--------|--------|--------|--------|--------|--------|
A|--------|--------|--------|--------|--------|--------|--------|--------|--------|
E|--------|--------|--------|--------|--------|--------|--------|--------|--------|


E|--------|--------|--------|--------|--------|--------|--------|--------|--------|
B|--------|--------|--------|--------|--------|--------|--------|--------|--------|
G|--------|--------|--------|--------|--------|--------|--------|--------|--------|
D|--------|--------|--------|--------|--------|--------|--------|--------|--------|
A|--------|--------|--------|--------|--------|--------|--------|--------|--------|
E|--------|--------|--------|--------|--------|--------|--------|--------|--------|


E|--------|--------|--------|--------|--------|--------|--------|--------|--------|
B|--------|--------|--------|--------|--------|--------|--------|--------|--------|
G|--------|--------|--------|--------|--------|--------|--------|--------|--------|
D|--------|--------|--------|--------|--------|--------|--------|--------|--------|
A|--------|--------|--------|--------|--------|--------|--------|--------|--------|
E|--------|--------|--------|--------|--------|--------|--------|--------|--------|


E|--------|--------|--------|--------|--------|--------|--------|--------|--------|
B|--------|--------|--------|--------|--------|--------|--------|--------|--------|
G|--------|--------|--------|--------|--------|--------|--------|--------|--------|
D|--------|--------|--------|--------|--------|--------|--------|--------|--------|
A|--------|--------|--------|--------|--------|--------|--------|--------|--------|
E|--------|--------|--------|--------|--------|--------|--------|--------|--------|


E|--------|--------|--------|--------|--------|--------|--------|--------|--------|
B|--------|--------|--------|--------|--------|--------|--------|--------|--------|
G|--------|--------|--------|--------|--------|--------|--------|--------|--------|
D|--------|--------|--------|--------|--------|--------|--------|--------|--------|
A|--------|--------|--------|--------|--------|--------|--------|--------|--------|
E|--------|--------|--------|--------|--------|--------|--------|--------|--------|


E|--------|--------|--------|--------|--------|--------|--------|--------|--------|
B|--------|--------|--------|--------|--------|--------|--------|--------|--------|
G|--------|--------|--------|--------|--------|--------|--------|--------|--------|
D|--------|--------|--------|--------|--------|--------|--------|--------|--------|
A|--------|--------|--------|--------|--------|--------|--------|--------|--------|
E|--------|--------|--------|--------|--------|--------|--------|--------|--------|


E|--------|--------|--------|--------|--------|--------|--------|--------|--------|
B|--------|--------|--------|--------|--------|--------|--------|--------|--------|
G|--------|--------|--------|--------|--------|--------|--------|--------|--------|
D|--------|--------|--------|--------|--------|--------|--------|--------|--------|
A|--------|--------|--------|--------|--------|--------|--------|--------|--------|
E|--------|--------|--------|--------|--------|--------|--------|--------|--------|


E|--------|--------|--------|--------|--------|--------|--------|--------|--------|
B|--------|--------|--------|--------|--------|--------|--------|--------|--------|
G|--------|--------|--------|--------|--------|--------|--------|--------|--------|
D|--------|--------|--------|--------|--------|--------|--------|--------|--------|
A|--------|--------|--------|--------|--------|--------|--------|--------|--------|
E|--------|--------|--------|--------|--------|--------|--------|--------|--------|


E|--------|--------|--------|
B|--------|--------|--------|
G|--------|--------|--------|
D|--------|--------|--------|
A|--------|--------|--------|
E|--------|--------|--------|





Track 3: Guitar 2

E|------0----0---2--------|-0-----2---2---0---0---0---|-0----0----0---2--------|-3-----2---2---0---0---0---|
B|------0----0---2----0---|-0-----2---2-------0-------|-0----0----0---2----0---|-3-----2---2-------0-------|
G|------1----1---2--------|-1-----2---2---------------|-1----1----1---2--------|-4-----2---2---------------|
D|------------------------|---------------------------|------------------------|---------------------------|
A|------------------------|---------------------------|------------------------|---------------------------|
E|------------------------|---------------------------|------------------------|---------------------------|


E|-0----0---0---0---2--------|-4--------2---2---0---0---0---|-0----0---0---0---2--------|
B|-0----0---0---0---2--------|-3--------2---2-------0-------|-0----0---0---0---2--------|
G|-1----------------2--------|-4--------2---2---------------|-1----------------2--------|
D|---------------------------|------------------------------|---------------------------|
A|---------------------------|------------------------------|---------------------------|
E|---------------------------|------------------------------|---------------------------|


E|-4--------2---2---0---0---0---|-0----0---0---0---2--------|-4--------2---2---0---0---0---|
B|-3--------2---2-------0-------|-0----0---0---0---2--------|-3--------2---2-------0-------|
G|-4--------2---2---------------|-1----------------2--------|-4--------2---2---------------|
D|------------------------------|---------------------------|------------------------------|
A|------------------------------|---------------------------|------------------------------|
E|------------------------------|---------------------------|------------------------------|


E|-0----0---0---0---2--------|-4--------2---2---0---0---0---|-0----0---0---0---2--------|
B|-0----0---0---0---2--------|-3--------2---2-------0-------|-0----0---0---0---2--------|
G|-1----------------2--------|-4--------2---2---------------|-1----------------2--------|
D|---------------------------|------------------------------|---------------------------|
A|---------------------------|------------------------------|---------------------------|
E|---------------------------|------------------------------|---------------------------|


E|-4--------2---2---0---0---0---|-0----0---0---0---2--------|-4--------2---2---0---0---0---|
B|-3--------2---2-------0-------|-0----0---0---0---2--------|-3--------2---2-------0-------|
G|-4--------2---2---------------|-1----------------2--------|-4--------2---2---------------|
D|------------------------------|---------------------------|------------------------------|
A|------------------------------|---------------------------|------------------------------|
E|------------------------------|---------------------------|------------------------------|


E|-5----5--------7--------|-8----7---7---7---5---5---5---|-5----5--------7--------|
B|-5----5--------7--------|-8----7---7---7---5---5---5---|-5----5--------7--------|
G|-6----6--------7--------|-9----------------6---6---6---|-6----6--------7--------|
D|------------------------|------------------------------|------------------------|
A|------------------------|------------------------------|------------------------|
E|------------------------|------------------------------|------------------------|


E|-8----7---7---7---5---5---5---|-0----0---0---0---2--------|-4--------2---2---0---0---0---|
B|-8----7---7---7---5---5---5---|-0----0---0---0---2--------|-3--------2---2-------0-------|
G|-9----------------6---6---6---|-1----------------2--------|-4--------2---2---------------|
D|------------------------------|---------------------------|------------------------------|
A|------------------------------|---------------------------|------------------------------|
E|------------------------------|---------------------------|------------------------------|


E|-0----0---0---0---2--------|-4--------2---2---0---0---0---|------9--------7-------7---|
B|-0----0---0---0---2--------|-3--------2---2-------0-------|------9--------7-------7---|
G|-1----------------2--------|-4--------2---2---------------|------9--------8-----------|
D|---------------------------|------------------------------|---------------------------|
A|---------------------------|------------------------------|---------------------------|
E|---------------------------|------------------------------|---------------------------|


E|-5-----7---7---7---7---7---|------9--------7-------7---|-5-----7---7---7---7---7---|
B|-5-----7---7---7---7---7---|------9--------7-------7---|-5-----7---7---7---7---7---|
G|-6-----8---8---------------|------9--------8-----------|-6-----8---8---------------|
D|---------------------------|---------------------------|---------------------------|
A|---------------------------|---------------------------|---------------------------|
E|---------------------------|---------------------------|---------------------------|


E|------9--------7-------7---|-5-----7---7---7---7---7---|-9---9---9---9---9---9----9---|
B|------9--------7-------7---|-5-----7---7---7---7---7---|-9---9---9---9---9---9----9---|
G|------9--------8-----------|-6-----8---8---------------|-9---9---9---9---9---9----9---|
D|---------------------------|---------------------------|------------------------------|
A|---------------------------|---------------------------|------------------------------|
E|---------------------------|---------------------------|------------------------------|


E|-7---7---7---7---7---7---7----|-0----0---0---0---2--------|-4--------2---2---0---0---0---|
B|-7---7---7---7---7---7---7----|-0----0---0---0---2--------|-3--------2---2-------0-------|
G|-8---8---8---8---8---8---8----|-1----------------2--------|-4--------2---2---------------|
D|------------------------------|---------------------------|------------------------------|
A|------------------------------|---------------------------|------------------------------|
E|------------------------------|---------------------------|------------------------------|


E|-0----0---0---0---2--------|-4--------2---2---0---0---0---|-0----0---0---0---2--------|
B|-0----0---0---0---2--------|-3--------2---2-------0-------|-0----0---0---0---2--------|
G|-1----------------2--------|-4--------2---2---------------|-1----------------2--------|
D|---------------------------|------------------------------|---------------------------|
A|---------------------------|------------------------------|---------------------------|
E|---------------------------|------------------------------|---------------------------|


E|-4--------2---2---0---0---0---|-0----0---0---0---2--------|-4--------2---2---0---0---0---|
B|-3--------2---2-------0-------|-0----0---0---0---2--------|-3--------2---2-------0-------|
G|-4--------2---2---------------|-1----------------2--------|-4--------2---2---------------|
D|------------------------------|---------------------------|------------------------------|
A|------------------------------|---------------------------|------------------------------|
E|------------------------------|---------------------------|------------------------------|


E|-5----5--------7--------|-8----7---7---7---5---5---5---|-5----5--------7--------|
B|-5----5--------7--------|-8----7---7---7---5---5---5---|-5----5--------7--------|
G|-6----6--------7--------|-9----------------6---6---6---|-6----6--------7--------|
D|------------------------|------------------------------|------------------------|
A|------------------------|------------------------------|------------------------|
E|------------------------|------------------------------|------------------------|


E|-8----7---7---7---5---5---5---|-0----0---0---0---2--------|-4--------2---2---0---0---0---|
B|-8----7---7---7---5---5---5---|-0----0---0---0---2--------|-3--------2---2-------0-------|
G|-9----------------6---6---6---|-1----------------2--------|-4--------2---2---------------|
D|------------------------------|---------------------------|------------------------------|
A|------------------------------|---------------------------|------------------------------|
E|------------------------------|---------------------------|------------------------------|


E|-0----0---0---0---2--------|-4--------2---2---0---0---0---|------9--------7-------7---|
B|-0----0---0---0---2--------|-3--------2---2-------0-------|------9--------7-------7---|
G|-1----------------2--------|-4--------2---2---------------|------9--------8-----------|
D|---------------------------|------------------------------|---------------------------|
A|---------------------------|------------------------------|---------------------------|
E|---------------------------|------------------------------|---------------------------|


E|-5-----7---7---7---7---7---|------9--------7-------7---|-5-----7---7---7---7---7---|
B|-5-----7---7---7---7---7---|------9--------7-------7---|-5-----7---7---7---7---7---|
G|-6-----8---8---------------|------9--------8-----------|-6-----8---8---------------|
D|---------------------------|---------------------------|---------------------------|
A|---------------------------|---------------------------|---------------------------|
E|---------------------------|---------------------------|---------------------------|


E|------9--------7-------7---|-5-----7---7---7---7---7---|-9---9---9---9---9---9----9---|
B|------9--------7-------7---|-5-----7---7---7---7---7---|-9---9---9---9---9---9----9---|
G|------9--------8-----------|-6-----8---8---------------|-9---9---9---9---9---9----9---|
D|---------------------------|---------------------------|------------------------------|
A|---------------------------|---------------------------|------------------------------|
E|---------------------------|---------------------------|------------------------------|


E|-7---7---7---7---7---7---7----|------------------------|------------------------|
B|-7---7---7---7---7---7---7----|------0--------2--------|-3--------2---2----2----|
G|-8---8---8---8---8---8---8----|------1--------2--------|-4--------2---2----2----|
D|------------------------------|------2------------1----|--------------2----2----|
A|------------------------------|------------------------|------------------------|
E|------------------------------|------------------------|------------------------|


E|------------------------|------------------------|------------------------|------------------------|
B|------0--------2--------|-3--------2---2----2----|------0--------2--------|-3--------2---2----2----|
G|------1--------2--------|-4--------2---2----2----|------1--------2--------|-4--------2---2----2----|
D|------2------------2----|--------------2----2----|------2------------2----|--------------2----2----|
A|------------------------|------------------------|------------------------|------------------------|
E|------------------------|------------------------|------------------------|------------------------|


E|------------------------|------------------------|-5----5--------7--------|-8----7---7---7---5---5---5---|
B|------0--------2--------|-3--------2---2----2----|-5----5--------7--------|-8----7---7---7---5---5---5---|
G|------1--------2--------|-4--------2---2----2----|-6----6--------7--------|-9----------------6---6---6---|
D|------2------------2----|--------------2----2----|------------------------|------------------------------|
A|------------------------|------------------------|------------------------|------------------------------|
E|------------------------|------------------------|------------------------|------------------------------|


E|-5----5--------7--------|-8----7---7---7---5---5---5---|------------------------|
B|-5----5--------7--------|-8----7---7---7---5---5---5---|------0--------2--------|
G|-6----6--------7--------|-9----------------6---6---6---|------1--------2--------|
D|------------------------|------------------------------|------2------------2----|
A|------------------------|------------------------------|------------------------|
E|------------------------|------------------------------|------------------------|


E|------------------------|------------------------|------------------------|------9--------7-------7---|
B|-3--------2---2----2----|------0--------2--------|-3--------2---2----2----|------9--------7-------7---|
G|-4--------2---2----2----|------1--------2--------|-4--------2---2----2----|------9--------8-----------|
D|--------------2----2----|------2------------2----|--------------2----2----|---------------------------|
A|------------------------|------------------------|------------------------|---------------------------|
E|------------------------|------------------------|------------------------|---------------------------|


E|-5-----7---7---7---7---7---|------9--------7-------7---|-5-----7---7---7---7---7---|
B|-5-----7---7---7---7---7---|------9--------7-------7---|-5-----7---7---7---7---7---|
G|-6-----8---8---------------|------9--------8-----------|-6-----8---8---------------|
D|---------------------------|---------------------------|---------------------------|
A|---------------------------|---------------------------|---------------------------|
E|---------------------------|---------------------------|---------------------------|


E|------9--------7-------7---|-5-----7---7---7---7---7---|-9---9---9---9---9---9----9---|
B|------9--------7-------7---|-5-----7---7---7---7---7---|-9---9---9---9---9---9----9---|
G|------9--------8-----------|-6-----8---8---------------|-9---9---9---9---9---9----9---|
D|---------------------------|---------------------------|------------------------------|
A|---------------------------|---------------------------|------------------------------|
E|---------------------------|---------------------------|------------------------------|


E|-7---7---7---7---7---7---7----|------9--------7---7----|-5-----7---7---7---7----|
B|-7---7---7---7---7---7---7----|------9--------7---7----|-5-----7---7---7---7----|
G|-8---8---8---8---8---8---8----|------9------------8----|-6-----8---8---8---8----|
D|------------------------------|------------------------|------------------------|
A|------------------------------|------------------------|------------------------|
E|------------------------------|------------------------|------------------------|


E|-9------|-9-----------|
B|-9------|-9-----------|
G|-9------|-9-----------|
D|--------|-------------|
A|--------|-------------|
E|--------|-------------|





Track 4: Untitled

G|--------|--------|--------|--------|--------|--------|--------|--------|--------|
D|--------|--------|--------|--------|--------|--------|--------|--------|--------|
A|--------|--------|--------|--------|--------|--------|--------|--------|--------|
E|--------|--------|--------|--------|--------|--------|--------|--------|--------|


G|--------|--------|--------|--------|--------|--------|--------|--------|--------|
D|--------|--------|--------|--------|--------|--------|--------|--------|--------|
A|--------|--------|--------|--------|--------|--------|--------|--------|--------|
E|--------|--------|--------|--------|--------|--------|--------|--------|--------|


G|--------|--------|--------|--------|--------|--------|--------|--------|--------|
D|--------|--------|--------|--------|--------|--------|--------|--------|--------|
A|--------|--------|--------|--------|--------|--------|--------|--------|--------|
E|--------|--------|--------|--------|--------|--------|--------|--------|--------|


G|--------|--------|--------|--------|--------|--------|--------|--------|--------|
D|--------|--------|--------|--------|--------|--------|--------|--------|--------|
A|--------|--------|--------|--------|--------|--------|--------|--------|--------|
E|--------|--------|--------|--------|--------|--------|--------|--------|--------|


G|--------|--------|--------|--------|--------|--------|--------|--------|--------|
D|--------|--------|--------|--------|--------|--------|--------|--------|--------|
A|--------|--------|--------|--------|--------|--------|--------|--------|--------|
E|--------|--------|--------|--------|--------|--------|--------|--------|--------|


G|--------|--------|--------|--------|--------|--------|--------|--------|--------|
D|--------|--------|--------|--------|--------|--------|--------|--------|--------|
A|--------|--------|--------|--------|--------|--------|--------|--------|--------|
E|--------|--------|--------|--------|--------|--------|--------|--------|--------|


G|--------|--------|--------|--------|--------|--------|--------|--------|--------|
D|--------|--------|--------|--------|--------|--------|--------|--------|--------|
A|--------|--------|--------|--------|--------|--------|--------|--------|--------|
E|--------|--------|--------|--------|--------|--------|--------|--------|--------|


G|--------|--------|--------|--------|--------|--------|--------|--------|--------|
D|--------|--------|--------|--------|--------|--------|--------|--------|--------|
A|--------|--------|--------|--------|--------|--------|--------|--------|--------|
E|--------|--------|--------|--------|--------|--------|--------|--------|--------|


G|--------|--------|--------|--------|--------|--------|--------|--------|--------|
D|--------|--------|--------|--------|--------|--------|--------|--------|--------|
A|--------|--------|--------|--------|--------|--------|--------|--------|--------|
E|--------|--------|--------|--------|--------|--------|--------|--------|--------|


G|--------|--------|--------|
D|--------|--------|--------|
A|--------|--------|--------|
E|--------|--------|--------|