Site menu:

    

Browse: 0-9 A B C D E F G H I J K L N O P Q R S T U V W X Y Z

the rolling stones - memo from turner:



Title: Memo From Turner
Artist: 
Album: 
Author: Mick Jagger and Keith Richards


Track 1: Guitar Open E Tuning

 E|--------11---|-12-----|-12--------------------|----------------|-------------------5----|
 B|--------11---|-12-----|-12--------------------|----------------|------------------------|
G#|--------11---|-12-----|-12--------------------|----------------|-----------4---5--------|
 E|-------------|--------|-------10--9-------10--|-10--9----------|------------------------|
 B|-------------|--------|---------------10------|---------10-----|-10---------------------|
 E|-------------|--------|-----------------------|----------------|------------------------|


 E|-5------|---------------------------|-----------------------|-------------|-----------------------|
 B|--------|------10-------12------12--|-12----12--8-------12--|-12----12----|-----------------------|
G#|--------|-----------12------12------|-12----12--8---12------|-------12----|-12--------------------|
 E|--------|---------------------------|-12--------------------|-------------|-12----10--9-------10--|
 B|--------|---------------------------|-----------------------|-------------|---------------10------|
 E|--------|---------------------------|-----------------------|-------------|-----------------------|


 E|----------------|---------------------|--------|------------------------|--------|
 B|----------------|----------------15---|-17-----|-17--17-------17---17---|-12-----|
G#|----------------|----------------15---|-17-----|-17--17-------17---17---|-12-----|
 E|-10--9----------|---------------------|--------|----------17------------|-12-----|
 B|---------10-----|-10--10--------------|--------|------------------------|--------|
 E|----------------|---------------------|--------|------------------------|--------|


 E|-----------------|--------|-----------------------|----------------|---------------------------------|
 B|-12----12---11---|-12-----|-12--------------------|----------------|---------------------------------|
G#|-12---------11---|-12-----|-12--------------------|----------------|---------------------------------|
 E|-12---------11---|-12-----|-12----10--9-------10--|-10--9----------|---------5-----------------------|
 B|-----------------|--------|---------------10------|---------10-----|-5---7-------7---5---------------|
 E|-----------------|--------|-----------------------|----------------|---------------------9---7---5---|


 E|--------|---------------------------------|--------|-----------------|-----------------------|
 B|--------|-10--8-------5---------------5---|-5------|------------9----|-10----10--------------|
G#|--------|---------------------4---5---5---|-5------|------------9----|-10----10--------------|
 E|-5------|-----------------------------5---|-5------|------------9----|-10----10--8---7---5---|
 B|--------|---------------------------------|--------|-----------------|-----------8---7---5---|
 E|--------|---------------------------------|--------|-----------------|-----------------------|


 E|-------------|-----------------------|-----------------|-----------------------|
 B|--------9----|-10----10--------------|------------9----|-10----10--------------|
G#|--------9----|-10----10--------------|------------9----|-10----10--------------|
 E|-5------9----|-10----10--8---7---5---|-5----------9----|-10----10--8---7---5---|
 B|-5-----------|-----------8---7---5---|-5---------------|-----------8---7---5---|
 E|-------------|-----------------------|-----------------|-----------------------|


 E|----------------|-5------7-------|-9-----------7--------5----|-----------------------|
 B|----------------|--------7-------|---------------------------|-----------------------|
G#|--------3---5---|-5------7---5---|-9-----------7--------5----|-10----10--------------|
 E|-5--------------|----------------|-----5---5-------5---------|-10----10--8---7---5---|
 B|-5--------------|----------------|---------------------------|-------------------5---|
 E|----------------|----------------|---------------------------|-----------------------|


 E|-------------|-----------------------|-------------|-------------|-------------|
 B|--------9----|-10----10--------------|--------9----|-10----10----|-10----5-----|
G#|--------9----|-10----10--------------|--------9----|-10----10----|-10----5-----|
 E|-5------9----|-10----10--8---7---5---|-5------9----|-10----10----|-10----5-----|
 B|-5-----------|-----------8---7---5---|-5-----------|-------------|-------------|
 E|-------------|-----------------------|-------------|-------------|-------------|


 E|--------|----------------|-----------------------|----------------|----------------|
 B|-5------|-3----------3---|-3-------------3---2---|-2------3---2---|-4---5---5------|
G#|-5------|-3------1---3---|-3-------------3---1---|-1------3---1---|-4---5---5------|
 E|--------|----------------|-0---2---2-----2---0---|-0--------------|----------------|
 B|--------|----------------|-----------------------|----------------|----------------|
 E|--------|----------------|-----------------------|----------------|----------------|


 E|-----------------------|------------------------|---------------------------------|
 B|-3---3---3---------3---|-3------------3-----3---|-3---3---3---3-------------------|
G#|-1---3---3-----1---3---|-3------------1-----1---|-1---1---1---1-------------------|
 E|-----------------------|-0---2---2----2-----2---|-2---2---2---2-------------------|
 B|-----------------------|------------------------|---------------------0---1---2---|
 E|-----------------------|------------------------|-----------------5---------------|


 E|-----------------------|-----------------------|-0------|-0-----------|-5------|
 B|-3-----3---3-------3---|-3-----3---3-------3---|-2------|-2-----------|-5------|
G#|-1-----1---1-------1---|-1-----1---1-------1---|-1------|-1-----------|-5------|
 E|-2-----2---2-------2---|-2-----2---2-------2---|-0------|-0-----------|--------|
 B|-----------------------|-----------------------|--------|-------------|--------|
 E|-----------------------|-----------------------|--------|-------------|--------|


 E|-----5------------------|-----------------------|-------------|-----------------------|
 B|-----5-------------9----|-10----10--------------|--------9----|-10----10--------------|
G#|-----5-------------9----|-10----10--------------|--------9----|-10----10----------5---|
 E|-------------------9----|-10----10--8---7---5---|-5------9----|-10----10--8---7---5---|
 B|------------------------|-----------------------|-------------|-----------8---7---5---|
 E|------------------------|-----------------------|-------------|-----------------------|


 E|-------------|-----------------------|-------------------5---|-5-----7--------9---|
 B|--------9----|-10----10----------5---|-5---------------------|--------------------|
G#|-5------9----|-10----10----------5---|-5---------4---5---5---|-5-----6---7----7---|
 E|-5------9----|-10----10--8---7---5---|-5---------------------|--------------------|
 B|-5-----------|-----------------------|-----------------------|--------------------|
 E|-------------|-----------------------|-----------------------|--------------------|


 E|-9-----7-----------5----|-----------------------|-------------|-----------------------|
 B|------------------------|-10----10--------------|--------9----|-10----10--------------|
G#|-7-----8---6-------5----|-10----10--------------|--------9----|-10----10----------5---|
 E|------------------------|-10----10--8---7---5---|-5------9----|-10----10--8---7---5---|
 B|------------------------|-----------------------|-------------|-----------------------|
 E|------------------------|-----------------------|-------------|-----------------------|


 E|-------------|-------3-----|-------3---5---5---5---|-4-----5-------4---5----|-4-----5---4-------4---|
 B|-------------|-3-----3-----|-------3---5---5---5---|-5-----5-------5---5----|-5-----5---5-------5---|
G#|-5-----------|-1-----3-----|-------3---3---3---3---|-3-----3-------3---3----|-3-----3---3-------3---|
 E|-5-----------|-2-----3-----|-3-----3---------------|------------------------|-----------------------|
 B|-------------|-------------|-----------------------|------------------------|-----------------------|
 E|-------------|-------------|-0---------------------|------------------------|-----------------------|


 E|-----5---5----5----5----|-4-----5---4-------5---|-----------------5---4---5---4---|
 B|-----5---5----5----5----|-5-----5---5-------5---|-----------------5---5---5---5---|
G#|-----3---3----3----3----|-3-----3---3-------3---|-----------------3---3---3---3---|
 E|------------------------|-----------------------|---------------------------------|
 B|------------------------|-----------------------|---------------------------------|
 E|------------------------|-----------------------|-----0---0---0-------------------|


 E|-4-----5---4-------4---|-------5---4---5---4---|-----------5---4-----------|------------------------|
 B|-5-----5---5-------5---|-------5---5---5---5---|-----------5---5-----------|-5------------5---------|
G#|-3-----3---3-------3---|-------3---3---3---3---|-----------3---3-----------|-5------------5---------|
 E|-----------------------|-----------------------|---------------------------|-5------------5---------|
 B|-----------------------|-----------------------|---------------------------|------------------------|
 E|-----------------------|-0---------------------|-0----0------------0---0---|------------------------|


 E|-5---3---------------------------|-----------------------|---------------------------|
 B|-------------5-------------------|-10----10--------------|---------------------------|
G#|-5---5---------------3---5-------|-10----10----------5---|-5-------------------------|
 E|-----------------------------5---|-----------8---7---5---|-5---5-----------5---------|
 B|---------------------------------|-----------------------|---------5---5-------------|
 E|---------------------------------|-----------------------|---------------------------|


 E|-----------------------|---------------------------|-----------------------|-----------------|
 B|-10----10--------------|----------------------9----|-10----10--------------|-------17--------|
G#|-10----10----------5---|-5---------------5----9----|-10----10----------5---|-5----------17---|
 E|-10----10--8---7---5---|-5---5-----------5----9----|-10----10--8---7---5---|-5---------------|
 B|-----------------------|---------5---5---5---------|-----------------------|-----------------|
 E|-----------------------|---------------------------|-----------------------|-----------------|


 E|-------------|---------------------|-----------------------|---------------------------|
 B|-17----17----|-16--17----17---17---|-----------------------|----------------------9----|
G#|-17----17----|-16--17----17---17---|-10----10----------5---|-5--------------------9----|
 E|-------------|-----------17---17---|-10----10--8---7---5---|-5---5-----------5----9----|
 B|-------------|---------------------|-----------------------|---------3---3-------------|
 E|-------------|---------------------|-----------------------|---------------------------|


 E|-----------------------|---------------------------|-------------|-------------|
 B|-10----10--------------|----------------------9----|-10----10----|-10----5-----|
G#|-10----10----------5---|-5--------------------9----|-10----10----|-10----5-----|
 E|-10----10--8---7---5---|-5---5-----------5----9----|-10----10----|-10----5-----|
 B|-----------------------|---------3---3-------------|-------------|-------------|
 E|-----------------------|---------------------------|-------------|-------------|


 E|--------|-------------|------------------------|--------------------|--------|--------------------|
 B|-5------|-3-----------|-3--------------3-------|-2------------------|-5------|-3------------------|
G#|-5------|-3-----------|-1--------------1-------|-1------1--1--3--4--|-5------|-1---3---3-----1----|
 E|--------|--------1----|-0----2---2-----3-------|-0------------------|--------|--------------------|
 B|--------|-------------|------------------------|--------------------|--------|--------------------|
 E|--------|-------------|------------------------|--------------------|--------|--------------------|


 E|-----------------------|---------------------|-------------|-----------------|-------5---3-------5---|
 B|-3---------------------|-----------3----9----|-10----10----|-----10----10----|-5-----5---5-------5---|
G#|-1-----1---1-------1---|-1---------1----9----|-10----10----|-----10----10----|-5-----5---5-------5---|
 E|-2-------------2-------|-----2-----2----9----|-10----10----|-----10----10----|-5---------------------|
 B|-----------------------|---------------------|-------------|-----------------|-----------------------|
 E|-----------------------|---------------------|-------------|-----------------|-----------------------|


 E|-----3---5----3----5----|------------------------|---------------------|------------------------|
 B|-----5---5----5----5----|-12---------------------|----------------10---|-12---------------------|
G#|-----5---5----5----5----|-12---------------------|----------------10---|-12---------------------|
 E|------------------------|-12---------------------|----------------10---|-12---------------------|
 B|------------------------|------------------------|---------------------|------------------------|
 E|------------------------|------0----0----0---0---|-0----0----0---------|-0----0----0----0---0---|


 E|---------------------|------------------------|---------------------|------------------------|
 B|----------------10---|-12---------------------|----------------10---|-12---------------------|
G#|----------------10---|-12---------------------|----------------10---|-12---------------------|
 E|----------------10---|-12---------------------|----------------10---|-12---------------------|
 B|---------------------|------------------------|---------------------|------------------------|
 E|-0----0----0---------|------0----0----0---0---|-0----0----0---------|------0----0----0---0---|


 E|---------------------|------------------------|---------------------|------------------------|
 B|----------------10---|-12---------------------|----------------10---|-12---------------------|
G#|----------------10---|-12---------------------|----------------10---|-12---------------------|
 E|----------------10---|-12---------------------|----------------10---|-12---------------------|
 B|---------------------|------------------------|---------------------|------------------------|
 E|-0----0----0---------|------0----0----0---0---|-0----0----0---------|------0----0----0---0---|


 E|---------------------|------------------------|---------------------|------------------------|
 B|----------------10---|-12---------------------|----------------10---|-12---------------------|
G#|----------------10---|-12---------------------|----------------10---|-12---------------------|
 E|----------------10---|-12---------------------|----------------10---|-12---------------------|
 B|---------------------|------------------------|---------------------|------------------------|
 E|-0----0----0---------|------0----0----0---0---|-0----0----0---------|------0----0----0---0---|


 E|---------------------|------------------------|---------------------|------------------------|
 B|----------------10---|-12---------------------|-12-------------10---|-12---------------------|
G#|----------------10---|-12---------------------|-12-------------10---|-12---------------------|
 E|----------------10---|-12---------------------|-12-------------10---|-12---------------------|
 B|---------------------|------------------------|---------------------|------------------------|
 E|-0----0----0---------|------0----0----0---0---|-0----0----0---------|------0----0----0---0---|


 E|---------------------|------------------------|---------------------|--------|-------------|
 B|----------------10---|-12---------------------|-12------------------|-0------|-0-----------|
G#|----------------10---|-12---------------------|-12------------------|-0------|-0-----------|
 E|----------------10---|-12---------------------|-12------------------|-0------|-0-----------|
 B|---------------------|------------------------|---------------------|--------|-------------|
 E|-0----0----0---------|------0----0----0---0---|-0----0----0----0----|--------|-------------|


 E|--------|-5---3---------------------------|-----------------------|------------------------|
 B|-5------|-5---5---5---1---3---1---3-------|-----------------------|------------------------|
G#|-5------|---------5---1---1-------1---1---|-10----10----------5---|-5---5--------5----8----|
 E|--------|-------------0---2---2---2---2---|-10----10--0---7---5---|-5---5--------5----8----|
 B|--------|---------------------------------|-----------------------|------------------------|
 E|--------|---------------------------------|-----------------------|------------------------|


 E|-----------------------|------------------------|-----------------------|------------------------|
 B|-----------------------|-------------------9----|-10----10--------------|------------------------|
G#|-10----10----------5---|-5---5--------5----9----|-10----10----------5---|-5---5--------5----5----|
 E|-10----10--8---7---5---|-5---5--------5----9----|-10----10--8---7---5---|-5---5--------5----5----|
 B|-----------------------|------------------------|-----------------------|------------------------|
 E|-----------------------|------------------------|-----------------------|------------------------|


 E|-----------------------5---|-5----------------------|-----------------------|------------------------|
 B|---------------4---5---5---|-5-----------------9----|-10----10--------------|-------------------9----|
G#|-5-------------4---5-------|-------------------9----|-10----10----------5---|-5---5--------5----9----|
 E|-5-------------------------|-----5-------------9----|-10----10--8---7---5---|-5---5--------5----9----|
 B|------3--------------------|------------------------|-----------------------|------------------------|
 E|---------------------------|------------------------|-----------------------|------------------------|


 E|-----------------------|------------------------|--------|--------------------|
 B|-10----10--------------|-------------------9----|-10-----|-----10-------10----|
G#|-10----10--------------|-------------------9----|-10-----|-----10-------10----|
 E|-10----10--8---7---5---|-5---5--------5----9----|-10-----|-----10-------10----|
 B|-----------------------|------------------------|--------|--------------------|
 E|-----------------------|------------------------|--------|--------------------|


 E|-3------|-3-----------|--------|
 B|-3------|-3-----------|--------|
G#|-3------|-3-----------|--------|
 E|-3------|-3-----------|--------|
 B|--------|-------------|--------|
 E|--------|-------------|--------|





Track 2: Guitar - Std. Tuning

E|--------|--------|--------|--------|--------|--------|--------|--------|--------|
B|--------|--------|--------|--------|--------|--------|--------|--------|--------|
G|--------|--------|--------|--------|--------|--------|--------|--------|--------|
D|--------|--------|--------|--------|--------|--------|--------|--------|--------|
A|--------|--------|--------|--------|--------|--------|--------|--------|--------|
E|--------|--------|--------|--------|--------|--------|--------|--------|--------|


E|--------|--------|--------|--------|--------|--------|--------|--------|--------|
B|--------|--------|--------|--------|--------|--------|--------|--------|--------|
G|--------|--------|--------|--------|--------|--------|--------|--------|--------|
D|--------|--------|--------|--------|--------|--------|--------|--------|--------|
A|--------|--------|--------|--------|--------|--------|--------|--------|--------|
E|--------|--------|--------|--------|--------|--------|--------|--------|--------|


E|--------|--------|--------|--------|--------|--------|--------|--------|--------|
B|--------|--------|--------|--------|--------|--------|--------|--------|--------|
G|--------|--------|--------|--------|--------|--------|--------|--------|--------|
D|--------|--------|--------|--------|--------|--------|--------|--------|--------|
A|--------|--------|--------|--------|--------|--------|--------|--------|--------|
E|--------|--------|--------|--------|--------|--------|--------|--------|--------|


E|--------|--------|--------|--------|--------|--------|--------|--------|--------|
B|--------|--------|--------|--------|--------|--------|--------|--------|--------|
G|--------|--------|--------|--------|--------|--------|--------|--------|--------|
D|--------|--------|--------|--------|--------|--------|--------|--------|--------|
A|--------|--------|--------|--------|--------|--------|--------|--------|--------|
E|--------|--------|--------|--------|--------|--------|--------|--------|--------|


E|--------|--------|--------|--------|--------|--------|--------|--------|--------|
B|--------|--------|--------|--------|--------|--------|--------|--------|--------|
G|--------|--------|--------|--------|--------|--------|--------|--------|--------|
D|--------|--------|--------|--------|--------|--------|--------|--------|--------|
A|--------|--------|--------|--------|--------|--------|--------|--------|--------|
E|--------|--------|--------|--------|--------|--------|--------|--------|--------|


E|--------|--------|--------|--------|--------|--------|--------|--------|--------|
B|--------|--------|--------|--------|--------|--------|--------|--------|--------|
G|--------|--------|--------|--------|--------|--------|--------|--------|--------|
D|--------|--------|--------|--------|--------|--------|--------|--------|--------|
A|--------|--------|--------|--------|--------|--------|--------|--------|--------|
E|--------|--------|--------|--------|--------|--------|--------|--------|--------|


E|--------|--------|--------|--------|--------|--------|--------|--------|--------|
B|--------|--------|--------|--------|--------|--------|--------|--------|--------|
G|--------|--------|--------|--------|--------|--------|--------|--------|--------|
D|--------|--------|--------|--------|--------|--------|--------|--------|--------|
A|--------|--------|--------|--------|--------|--------|--------|--------|--------|
E|--------|--------|--------|--------|--------|--------|--------|--------|--------|


E|--------|--------|--------|--------|--------|-------0------------|-0------|-----------------------|
B|--------|--------|--------|--------|--------|-----------0--------|-0------|-----------------------|
G|--------|--------|--------|--------|-2------|-2-------------2----|--------|---------------0---2---|
D|--------|--------|--------|--------|--------|--------------------|--------|-------0---2-----------|
A|--------|--------|--------|--------|--------|--------------------|--------|-----------------------|
E|--------|--------|--------|--------|--------|--------------------|--------|-----------------------|


E|--------|-----------0------------|--------|--------|--------|--------|--------|--------|
B|--------|---------------5--------|--------|--------|--------|--------|--------|--------|
G|-2------|-2----------------------|--------|--------|--------|--------|--------|--------|
D|--------|------------------------|--------|--------|--------|--------|--------|--------|
A|--------|------------------------|--------|--------|--------|--------|--------|--------|
E|--------|------------------------|--------|--------|--------|--------|--------|--------|


E|--------|--------|--------|--------|--------|--------|--------|--------|--------|
B|--------|--------|--------|--------|--------|--------|--------|--------|--------|
G|--------|--------|--------|--------|--------|--------|--------|--------|--------|
D|--------|--------|--------|--------|--------|--------|--------|--------|--------|
A|--------|--------|--------|--------|--------|--------|--------|--------|--------|
E|--------|--------|--------|--------|--------|--------|--------|--------|--------|


E|--------|--------|--------|--------|--------|--------|--------|--------|--------|
B|--------|--------|--------|--------|--------|--------|--------|--------|--------|
G|--------|--------|--------|--------|--------|--------|--------|--------|--------|
D|--------|--------|--------|--------|--------|--------|--------|--------|--------|
A|--------|--------|--------|--------|--------|--------|--------|--------|--------|
E|--------|--------|--------|--------|--------|--------|--------|--------|--------|


E|--------|--------|--------|--------|--------|--------|--------|--------|-0----------------------|
B|--------|--------|--------|--------|--------|--------|--------|--------|------------------------|
G|--------|--------|--------|--------|--------|-2------|-2------|-2------|-2---2---2----0---------|
D|--------|--------|--------|--------|--------|--------|--------|--------|-------------------2----|
A|--------|--------|--------|--------|--------|--------|--------|--------|------------------------|
E|--------|--------|--------|--------|--------|--------|--------|--------|------------------------|


E|--------|--------|-0--------------0---|-0----------------------|---------------------|
B|--------|--------|--------------------|------------------------|-7---------5-----8---|
G|-2------|-2------|-------2---4--------|-----4---2----0---------|---------------------|
D|--------|--------|--------------------|-------------------2----|---------------------|
A|--------|--------|--------------------|------------------------|---------------------|
E|--------|--------|--------------------|------------------------|---------------------|


E|-----5------------------------|-----------------|------7---------7----|------------------------|
B|-8-------7---7---8---5---5----|-------------10--|-10--------10--------|-5-----5---5----7---7---|
G|------------------------------|-----------------|---------------------|------------------------|
D|------------------------------|-9-----9---------|---------------------|------------------------|
A|------------------------------|-----------------|---------------------|------------------------|
E|------------------------------|-----------------|---------------------|------------------------|


E|---------------------|--------------------|---------------------------|-----------------|
B|-7----7----7---5-----|-5------------------|---------------------------|-----------------|
G|---------------------|----------2---2-----|----------2---2-------2----|-----------------|
D|---------------------|--------------------|----------2---2-------2----|-----------2-----|
A|---------------------|--------------------|------0---0---0---0---0----|-----------------|
E|---------------------|------0-------------|---------------------------|-0----3----------|


E|-------0---------|-------------3---5----3----|-3---0------------------|-----------------|
B|------------3----|-3---5-------3---5----3----|-3---0------------------|-----------------|
G|-----------------|-2---4---------------------|------------------------|-----------------|
D|-2---------------|---------------------------|---------2----2----2----|-----------------|
A|-----------------|---------------------------|---------2----2----2----|-2----2----2-----|
E|-----------------|---------------------------|---------0----0----0----|-0----0----0-----|


E|---------------------|-7------|-7-----------|--------|--------|--------|--------|
B|---------------------|-7------|-7-----------|--------|--------|--------|--------|
G|---------------------|-7------|-7-----------|--------|--------|--------|--------|
D|---------------------|--------|-------------|--------|--------|--------|--------|
A|-2----2--------------|--------|-------------|--------|--------|--------|--------|
E|-0----0----0----0----|--------|-------------|--------|--------|--------|--------|


E|--------|--------|--------|--------|--------|--------|--------|--------|--------|
B|--------|--------|--------|--------|--------|--------|--------|--------|--------|
G|--------|--------|--------|--------|--------|--------|--------|--------|--------|
D|--------|--------|--------|--------|--------|--------|--------|--------|--------|
A|--------|--------|--------|--------|--------|--------|--------|--------|--------|
E|--------|--------|--------|--------|--------|--------|--------|--------|--------|


E|--------|--------|--------|--------|--------|--------|
B|--------|--------|--------|--------|--------|--------|
G|--------|--------|--------|--------|--------|--------|
D|--------|--------|--------|--------|--------|--------|
A|--------|--------|--------|--------|--------|--------|
E|--------|--------|--------|--------|--------|--------|





Track 3: Untitled

G|--------|--------|--------|--------|--------|--------|--------|--------|--------|
D|--------|--------|--------|--------|--------|--------|--------|--------|--------|
A|--------|--------|--------|--------|--------|--------|--------|--------|--------|
E|--------|--------|--------|--------|--------|--------|--------|--------|--------|


G|--------|--------|--------|--------|--------|--------|--------|--------|--------|
D|--------|--------|--------|--------|--------|--------|--------|--------|--------|
A|--------|--------|--------|--------|--------|--------|--------|--------|--------|
E|--------|--------|--------|--------|--------|--------|--------|--------|--------|


G|--------|--------|--------|--------|--------|--------|--------|--------|--------|
D|--------|--------|--------|--------|--------|--------|--------|--------|--------|
A|--------|--------|--------|--------|--------|--------|--------|--------|--------|
E|--------|--------|--------|--------|--------|--------|--------|--------|--------|


G|--------|--------|--------|--------|--------|--------|--------|--------|--------|
D|--------|--------|--------|--------|--------|--------|--------|--------|--------|
A|--------|--------|--------|--------|--------|--------|--------|--------|--------|
E|--------|--------|--------|--------|--------|--------|--------|--------|--------|


G|--------|--------|--------|--------|--------|--------|--------|--------|--------|
D|--------|--------|--------|--------|--------|--------|--------|--------|--------|
A|--------|--------|--------|--------|--------|--------|--------|--------|--------|
E|--------|--------|--------|--------|--------|--------|--------|--------|--------|


G|--------|--------|--------|--------|--------|--------|--------|--------|--------|
D|--------|--------|--------|--------|--------|--------|--------|--------|--------|
A|--------|--------|--------|--------|--------|--------|--------|--------|--------|
E|--------|--------|--------|--------|--------|--------|--------|--------|--------|


G|--------|--------|--------|--------|--------|--------|--------|--------|--------|
D|--------|--------|--------|--------|--------|--------|--------|--------|--------|
A|--------|--------|--------|--------|--------|--------|--------|--------|--------|
E|--------|--------|--------|--------|--------|--------|--------|--------|--------|


G|--------|--------|--------|--------|--------|--------|--------|--------|--------|
D|--------|--------|--------|--------|--------|--------|--------|--------|--------|
A|--------|--------|--------|--------|--------|--------|--------|--------|--------|
E|--------|--------|--------|--------|--------|--------|--------|--------|--------|


G|--------|--------|--------|--------|--------|--------|--------|--------|--------|
D|--------|--------|--------|--------|--------|--------|--------|--------|--------|
A|--------|--------|--------|--------|--------|--------|--------|--------|--------|
E|--------|--------|--------|--------|--------|--------|--------|--------|--------|


G|--------|--------|--------|--------|--------|--------|--------|--------|--------|
D|--------|--------|--------|--------|--------|--------|--------|--------|--------|
A|--------|--------|--------|--------|--------|--------|--------|--------|--------|
E|--------|--------|--------|--------|--------|--------|--------|--------|--------|


G|--------|--------|--------|--------|--------|--------|--------|--------|--------|
D|--------|--------|--------|--------|--------|--------|--------|--------|--------|
A|--------|--------|--------|--------|--------|--------|--------|--------|--------|
E|--------|--------|--------|--------|--------|--------|--------|--------|--------|


G|--------|--------|--------|--------|--------|--------|--------|--------|--------|
D|--------|--------|--------|--------|--------|--------|--------|--------|--------|
A|--------|--------|--------|--------|--------|--------|--------|--------|--------|
E|--------|--------|--------|--------|--------|--------|--------|--------|--------|


G|--------|--------|--------|--------|--------|--------|--------|--------|--------|
D|--------|--------|--------|--------|--------|--------|--------|--------|--------|
A|--------|--------|--------|--------|--------|--------|--------|--------|--------|
E|--------|--------|--------|--------|--------|--------|--------|--------|--------|


G|--------|--------|--------|--------|--------|--------|--------|--------|--------|
D|--------|--------|--------|--------|--------|--------|--------|--------|--------|
A|--------|--------|--------|--------|--------|--------|--------|--------|--------|
E|--------|--------|--------|--------|--------|--------|--------|--------|--------|


G|--------|--------|--------|--------|--------|--------|--------|--------|--------|
D|--------|--------|--------|--------|--------|--------|--------|--------|--------|
A|--------|--------|--------|--------|--------|--------|--------|--------|--------|
E|--------|--------|--------|--------|--------|--------|--------|--------|--------|


G|--------|--------|--------|--------|--------|--------|--------|--------|--------|
D|--------|--------|--------|--------|--------|--------|--------|--------|--------|
A|--------|--------|--------|--------|--------|--------|--------|--------|--------|
E|--------|--------|--------|--------|--------|--------|--------|--------|--------|


G|--------|
D|--------|
A|--------|
E|--------|