Site menu:

    

Browse: 0-9 A B C D E F G H I J K L N O P Q R S T U V W X Y Z

the rolling stones - little red rooster:



Title: Little Red Rooster
Artist: 
Album: 
Author: Rolling Stones


Track 1: Acoustic guitar-12 string

D|-------------|--------|--------|--------|--------|--------|--------|--------|--------|
A|-------------|--------|--------|--------|--------|--------|--------|--------|--------|
F|-------------|--------|--------|--------|--------|--------|--------|--------|--------|
C|-------------|--------|--------|--------|--------|--------|--------|--------|--------|
G|-------------|--------|--------|--------|--------|--------|--------|--------|--------|
D|-------------|--------|--------|--------|--------|--------|--------|--------|--------|


D|--------|--------|--------|--------|--------|--------|--------|--------|--------|
A|--------|--------|--------|--------|--------|--------|--------|--------|--------|
F|--------|--------|--------|--------|--------|--------|--------|--------|--------|
C|--------|--------|--------|--------|--------|--------|--------|--------|--------|
G|--------|--------|--------|--------|--------|--------|--------|--------|--------|
D|--------|--------|--------|--------|--------|--------|--------|--------|--------|


D|--------|--------|--------|--------|--------|--------|--------|--------|--------|
A|--------|--------|--------|--------|--------|--------|--------|--------|--------|
F|--------|--------|--------|--------|--------|--------|--------|--------|--------|
C|--------|--------|--------|--------|--------|--------|--------|--------|--------|
G|--------|--------|--------|--------|--------|--------|--------|--------|--------|
D|--------|--------|--------|--------|--------|--------|--------|--------|--------|


D|--------|--------|--------|--------|--------|--------|--------|--------|--------|
A|--------|--------|--------|--------|--------|--------|--------|--------|--------|
F|--------|--------|--------|--------|--------|--------|--------|--------|--------|
C|--------|--------|--------|--------|--------|--------|--------|--------|--------|
G|--------|--------|--------|--------|--------|--------|--------|--------|--------|
D|--------|--------|--------|--------|--------|--------|--------|--------|--------|


D|--------|--------|--------|--------|--------|--------|--------|--------|--------|
A|--------|--------|--------|--------|--------|--------|--------|--------|--------|
F|--------|--------|--------|--------|--------|--------|--------|--------|--------|
C|--------|--------|--------|--------|--------|--------|--------|--------|--------|
G|--------|--------|--------|--------|--------|--------|--------|--------|--------|
D|--------|--------|--------|--------|--------|--------|--------|--------|--------|


D|--------|--------|--------|--------|--------|--------|--------|--------|--------|
A|--------|--------|--------|--------|--------|--------|--------|--------|--------|
F|--------|--------|--------|--------|--------|--------|--------|--------|--------|
C|--------|--------|--------|--------|--------|--------|--------|--------|--------|
G|--------|--------|--------|--------|--------|--------|--------|--------|--------|
D|--------|--------|--------|--------|--------|--------|--------|--------|--------|





Track 2: electric slide guitar

D|----------------|-----5---12---12-----------|-----5---12---12--------------|-----12--17---17--------------|
B|----------------|-----5---12---12---5-------|-----5---12---12------5-------|------------------------------|
G|--------5---3---|-0-----------------5---3---|-0----------------0---5---3---|-0----------------0---5---3---|
D|--------5---3---|-0-----------------5---3---|-0--------------------5---3---|----------------------5---3---|
G|----------------|---------------------------|------------------------------|------------------------------|
D|----------------|---------------------------|------------------------------|------------------------------|


D|------------------------------|------------------|-5--------------|-----12----12--------------|
B|-----5---12---12--------------|------------3--5--|-5----------0---|-----12----12------5---3---|
G|-0---5---12---12--0---5---3---|------------3--5--|----------------|-0-------------0---5---3---|
D|----------------------5---3---|-5----------------|----------------|-------------------5-------|
G|------------------------------|------------------|----------------|---------------------------|
D|------------------------------|------------------|----------------|---------------------------|


D|-----5-----5---------------|------------------|-5--------------|-----12----12--------------|
B|-------------------5---3---|------------3--5--|-5----------0---|-----12----12------5---3---|
G|-0-------------0---5---3---|------------3--5--|----------------|-0-------------0---5---3---|
D|---------------------------|-5----------------|----------------|-------------------5-------|
G|---------------------------|------------------|----------------|---------------------------|
D|---------------------------|------------------|----------------|---------------------------|


D|-----12----12--------------|-----12----12--------------|-----7-----7-------7----6---|
B|-----12----12------5---3---|-----12----12------5---3---|-7-------------7---7----6---|
G|-0-------------0---5---3---|-0-------------0---5---3---|-7-------------7------------|
D|-------------------5-------|-------------------5-------|----------------------------|
G|---------------------------|---------------------------|----------------------------|
D|---------------------------|---------------------------|----------------------------|


D|-5--------------|-----17----17--------------|-----12----12--------------|-----12----12--------------|
B|-5------5---3---|-0-----------------5---3---|-----12----12------5---3---|-----12----12------5---3---|
G|--------5---3---|-0-------------0---5---3---|-0-------------0---5---3---|-0-------------0---5---3---|
D|--------5-------|-------------------5-------|-------------------5-------|-------------------5-------|
G|----------------|---------------------------|---------------------------|---------------------------|
D|----------------|---------------------------|---------------------------|---------------------------|


D|-5------------------|-----5-----5---------------|-----12--------------------|-----12--------------------|
B|-5----------3---5---|-------------------5---3---|-----12------------5---3---|-----12------------5---3---|
G|-5------------------|-5-------------0---5---3---|-0-------------0---5---3---|-0-------------0---5---3---|
D|--------------------|-------------------5-------|-------------------5-------|-------------------5-------|
G|--------------------|---------------------------|---------------------------|---------------------------|
D|--------------------|---------------------------|---------------------------|---------------------------|


D|---------------------------|----------------|---------12---12----------0---|-0---5---12---5---------------|
B|-0---5---------------------|--------5---3---|-0---12--12---12--0---5-------|-0---5---12---5-------5-------|
G|-0---5---------------------|--------5---3---|-0---12-----------0---5-------|-0----------------0---5---3---|
D|-----------5---5---5---5---|-5------5-------|------------------------------|----------------------5-------|
G|---------------------------|-5--------------|------------------------------|------------------------------|
D|---------------------------|----------------|------------------------------|------------------------------|


D|-0---5---12---5---------------|-----7---------7---7-----------|-------------------------------------|
B|-0---5---12---5-------5-------|-7-----------------------------|-----------------------------5---3---|
G|-0----------------0---5---3---|-7-----------------------------|-----5---5-------------------5---3---|
D|----------------------5-------|-------------------------------|-------------3---5---5---5---5-------|
G|------------------------------|-----------------------7---6---|-5-----------------------------------|
D|------------------------------|-------------------------------|-------------------------------------|


D|-----17----17--------------|-----17---17--17--------------|---------------5-----|
B|-0-----------------5---3---|-0--------------------5---3---|-----------0---------|
G|-0-------------0---5---3---|-0----------------0---5---3---|-0---------0---------|
D|---------------------------|----------------------5-------|-------5-------------|
G|---------------------------|------------------------------|---------------------|
D|---------------------------|------------------------------|---------------------|


D|----------3---4---5-----|---------------------------|---------5-----------12----|
B|------0---3---4---5-----|---------5---3---0---12----|-12------5-----------12----|
G|------0---3---4---5-----|-----0---5---3---0---0-----|-0---0---5---3---0---------|
D|------0-----------------|---------5-----------------|---------5-----------------|
G|------------------------|---------------------------|---------------------------|
D|------------------------|---------------------------|---------------------------|


D|---------------------------|-----5--------------3---4---|-5---------------------|
B|---------5-----------------|-0--------------0---3---4---|-5-------------5---3---|
G|---------5---3---0---------|-0--------------0---3---4---|-5---------0---5---3---|
D|-----0---3-------------5---|----------------0-----------|---------------5-------|
G|---------------------------|----------------------------|-----------------------|
D|---------------------------|----------------------------|-----------------------|


D|-------------------5-------|------15--14--13--12---------------|----------------|
B|-0---12----12------5-------|-0----15--14--13--12-------5---3---|-0------5-------|
G|-0---0-----0---0---5---3---|-0---------------------12--5---3---|-0------5---3---|
D|-------------------5-------|-0-------------------------5-------|--------5-------|
G|---------------------------|-----------------------------------|----------------|
D|---------------------------|-----------------------------------|----------------|


D|-----7----------------------|-----5------------------|-----17----17--------------|
B|-7--------------------------|----------------5-------|-0-----------------5-------|
G|-7--------------------------|----------------5---3---|-0-------------0---5---3---|
D|--------------------7---6---|-5--------------5-------|-------------------5-------|
G|----------------------------|------------------------|---------------------------|
D|----------------------------|------------------------|---------------------------|


D|------15--14--13--12---------------|------15--14--13--12---------------|-----17---17--17--------------|
B|-0----15--14--13--12-------5-------|-0----15--14--13--12-------5-------|----------------------5-------|
G|-0---------------------12--5---3---|-0---------------------12--5---3---|-0----------------0---5---3---|
D|---------------------------5-------|---------------------------5-------|----------------------5-------|
G|-----------------------------------|-----------------------------------|------------------------------|
D|-----------------------------------|-----------------------------------|------------------------------|


D|-----17---17--17--------------|-----17---17--17--------------|-----17---17--17--------------|
B|----------------------5-------|----------------------5-------|----------------------5-------|
G|-0----------------0---5---3---|-0----------------0---5---3---|-0----------------0---5---3---|
D|----------------------5-------|----------------------5-------|----------------------5-------|
G|------------------------------|------------------------------|------------------------------|
D|------------------------------|------------------------------|------------------------------|


D|-----17---17--17--------------|------15--14--13--12---------------|-------------|
B|----------------------5-------|-0----15--14--13--12-------5-------|-0-----------|
G|-0----------------0---5---3---|-0---------------------12--5---3---|-0-----------|
D|----------------------5-------|---------------------------5-------|-0-----------|
G|------------------------------|-----------------------------------|-0-----------|
D|------------------------------|-----------------------------------|-------------|





Track 3: electric slide guitar

D|----------------|---------------------------------|---------------------------------|
B|----------------|-2---2---2---2---2---2-----------|-2---2---2---2---2---2-----------|
G|----------------|-2---2---2---2---2---2-----------|-2---2---2---2---2---2-----------|
D|--------0-------|-2---2---2---2---2---2---0-------|-2---2---2---2---2---2---0-------|
G|------------3---|-0---0---0---0---0-----------3---|-0---0---0---0---0-----------3---|
D|----------------|---------------------------------|---------------------------------|


D|------------------------------|---------------------------------|---------------------------------|
B|-2---2---2---2---2------------|-2---2---2---2---2---2-----------|-2---2---2---2---2---2---2---2---|
G|-2---2---2---2---2------------|-2---2---2---2---2---2-----------|-2---2---2---2---2---2---2---2---|
D|-2---2---2---2---2----0-------|-2---2---2---2---2---2---0-------|-2---2---2---2---2---2---2---2---|
G|-0---0---0-------0--------3---|-0---0---0-------0-----------3---|-0-------0-------0-------0---0---|
D|------------------------------|---------------------------------|---------------------------------|


D|---------------------------------|------------------------------|---------------------------------|
B|-7---7---7---7---7---7---7-------|-7---7---7---7---7------------|-2---2---2---2---2---2-----------|
G|-7---7---7---7---7---7---7-------|-7---7---7---7---7------------|-2---2---2---2---2---2-----------|
D|-7---7---7---7---7---7---7---7---|-7---7---7---7---7----0-------|-2---2---2---2---2---2---0-------|
G|-5-------5-------5-------5-------|-5-------5-------5--------3---|-0-------0-----------0-------3---|
D|---------------------------------|------------------------------|---------------------------------|


D|---------------------------------|---------------------------------|------------------------------|
B|-2---2---2---2---2---2---2---2---|-7---7---7---7---7---7---7-------|-7---7---7---7---7------------|
G|-2---2---2---2---2---2---2---2---|-7---7---7---7---7---7---7-------|-7---7---7---7---7------------|
D|-2---2---2---2---2---2---2---2---|-7---7---7---7---7---7---7---7---|-7---7---7---7---7----0-------|
G|-0-------0-------0-------0---0---|-5-------5-------5-------5-------|-5-------5-------5--------3---|
D|---------------------------------|---------------------------------|------------------------------|


D|---------------------------------|---------------------------------|---------------------------------|
B|-2---2---2---2---2---2-----------|-2---2---2---2---2---2-----------|-9---9---9---9---9---9---9---8---|
G|-2---2---2---2---2---2-----------|-2---2---2---2---2---2-----------|-9---9---9---9---9---9---9---8---|
D|-2---2---2---2---2---2---0-------|-2---2---2---2---2---2---0-------|-9---9---9---9---9---9---9---8---|
G|-0-------0-----------0-------3---|-0-------0-----------0-------3---|-7-------7-------7-------7-------|
D|---------------------------------|---------------------------------|---------------------------------|


D|---------------------------------|---------------------------------|---------------------------------|
B|-7---7---7---7---7---7---7-------|-2---2---2---2---2---2-----------|-2---2---2---2---2---2-----------|
G|-7---7---7---7---7---7---7-------|-2---2---2---2---2---2-----------|-2---2---2---2---2---2-----------|
D|-7---7---7---7---7---7---7-------|-2---2---2---2---2---2---0-------|-2---2---2---2---2---2---0-------|
G|-----5-------5-------5-------5---|-0-------0-------0-----------3---|-0-------0-----------0-------3---|
D|---------------------------------|---------------------------------|---------------------------------|


D|---------------------------------|---------------------------------|---------------------------------|
B|-2---2---2---2---2---2-----------|-7---7---7---7---7---7---7-------|-7---7---7---7---7---7---7-------|
G|-2---2---2---2---2---2-----------|-7---7---7---7---7---7---7-------|-7---7---7---7---7---7---7-------|
D|-2---2---2---2---2---2---0-------|-7---7---7---7---7---7---7-------|-7---7---7---7---7---7---7-------|
G|-0-------0-----------0-------3---|-----5-------5-------5-------5---|-----5-------5-------5-------5---|
D|---------------------------------|---------------------------------|---------------------------------|


D|---------------------------------|---------------------------------|---------------------------------|
B|-2---2---2---2---2---2-----------|-2---2---2---2---2---2-----------|-2---2---2---2---2---2---2---2---|
G|-2---2---2---2---2---2-----------|-2---2---2---2---2---2-----------|-2---2---2---2---2---2---2---2---|
D|-2---2---2---2---2---2---0-------|-2---2---2---2---2---2---0-------|-2---2---2---2---2---2---2---2---|
G|-0-------0-----------0-------3---|-0-------0-----------0-------3---|-0-------0-----------0-----------|
D|---------------------------------|---------------------------------|---------------------------------|


D|---------------------------------|---------------------------------|---------------------------------|
B|-7---7---7---7---7---7---7-------|-2---2---2---2---2---2-----------|-2---2---2---2---2---2-----------|
G|-7---7---7---7---7---7---7-------|-2---2---2---2---2---2-----------|-2---2---2---2---2---2-----------|
D|-7---7---7---7---7---7---7-------|-2---2---2---2---2---2---0-------|-2---2---2---2---2---2---0-------|
G|-----5-------5-------5-------5---|-0-------0-----------0-------3---|-0-------0-------0-----------3---|
D|---------------------------------|---------------------------------|---------------------------------|


D|---------------------------------|---------------------------------|---------------------------------|
B|-2---2---2---2---2---2-----------|-9---9---9---9---9---9---9---8---|-7---7-------7---7---7---7-------|
G|-2---2---2---2---2---2-----------|-9---9---9---9---9---9---9---8---|-7---7---7---7---7---7---7-------|
D|-2---2---2---2---2---2---0-------|-9---9---9---9---9---9---9---8---|-7---7---7---7---7---7---7-------|
G|-0-------0-------0-----------3---|-7-------7-------7-------7-------|-----5-------5-------5-------5---|
D|---------------------------------|---------------------------------|---------------------------------|


D|---------------------------------|---------------------------------|---------------------------------|
B|-2---2---2---2---2---2-----------|-2---2---2---2---2---2-----------|-7---7---7---7---7---7---7-------|
G|-2---2---2---2---2---2-----------|-2---2---2---2---2---2-----------|-7---7---7---7---7---7---7-------|
D|-2---2---2---2---2---2---0-------|-2---2---2---2---2---2---0-------|-7---7---7---7---7---7---7-------|
G|-0-------0-----------0-------3---|-0-------0-----------0-------3---|-----5-------5-------5-------5---|
D|---------------------------------|---------------------------------|---------------------------------|


D|------------------------------|------------------------------|---------------------------------|
B|-7----7---7---7---7---7---7---|-7-------7----2---2---2---2---|-2---2-----------2---2---2---2---|
G|-7----7---7---7---7---7---7---|-7-------7----2---2---2---2---|-2---2-----------2---2---2---2---|
D|-7----7---7---7---7---7---7---|-7------------2---2---2---2---|-2---2---0-------2---2---2---2---|
G|-5--------5-------5-------5---|-----5---7----0-------0-------|-----0-------3---0-------0-------|
D|------------------------------|------------------------------|---------------------------------|


D|---------------------------------|------------------------------|------------------------------|
B|-2---2-----------7---7---7---7---|-7---7---7-------7----7---7---|-7---7---7---7---7-------7----|
G|-2---2-----------7---7---7---7---|-7---7---7-------7----7---7---|-7---7---7---7---7-------7----|
D|-2---2---0-------7---7---7---7---|-7---7---7-------7----7---7---|-7---7---7---7---7------------|
G|-----0-------3-------5-------5---|-----5-------5---5--------5---|-----5-------5-------5---7----|
D|---------------------------------|------------------------------|------------------------------|


D|---------------------------------|---------------------------------|---------------------------------|
B|-2---2---2---2---2---2-----------|-2---2---2---2---2---2-----------|-2---2---2---2---2---2-----------|
G|-2---2---2---2---2---2-----------|-2---2---2---2---2---2-----------|-2---2---2---2---2---2-----------|
D|-2---2---2---2---2---2---0-------|-2---2---2---2---2---2---0-------|-2---2---2---2---2---2---0-------|
G|-0-------0-----------0-------3---|-0-------0-----------0-------3---|-0-------0-----------0-------3---|
D|---------------------------------|---------------------------------|---------------------------------|


D|---------------------------------|---------------------------------|---------------------------------|
B|-9---9---9---9---9---9---9---8---|-7---7---7---7---7---7---7-------|-2---2---2---2---2---2-----------|
G|-9---9---9---9---9---9---9---8---|-7---7---7---7---7---7---7-------|-2---2---2---2---2---2-----------|
D|-9---9---9---9---9---9---9---8---|-7---7---7---7---7---7---7-------|-2---2---2---2---2---2---0-------|
G|-7-------7-------7-------7-------|-----5-------5-------5-------5---|-0-------0-----------0-------3---|
D|---------------------------------|---------------------------------|---------------------------------|


D|---------------------------------|---------------------------------|---------------------------------|
B|-2---2---2---2---2---2-----------|-2---2---2---2---2---2-----------|-2---2---2---2---2---2-----------|
G|-2---2---2---2---2---2-----------|-2---2---2---2---2---2-----------|-2---2---2---2---2---2-----------|
D|-2---2---2---2---2---2---0-------|-2---2---2---2---2---2---0-------|-2---2---2---2---2---2---0-------|
G|-0-------0-----------0-------3---|-0-------0-----------0-------3---|-0-------0-----------0-------3---|
D|---------------------------------|---------------------------------|---------------------------------|


D|---------------------------------|---------------------------------|---------------------------------|
B|-2---2---2---2---2---2-----------|-2---2---2---2---2---2-----------|-2---2---2---2---2---2-----------|
G|-2---2---2---2---2---2-----------|-2---2---2---2---2---2-----------|-2---2---2---2---2---2-----------|
D|-2---2---2---2---2---2---0-------|-2---2---2---2---2---2---0-------|-2---2---2---2---2---2---0-------|
G|-0-------0-----------0-------3---|-0-------0-----------0-------3---|-0-------0-----------0-------3---|
D|---------------------------------|---------------------------------|---------------------------------|


D|---------------------------------|---------------------------------|-------------|
B|-2---2---2---2---2---2-----------|-2---2---2---2---2---2-----------|-2-----------|
G|-2---2---2---2---2---2-----------|-2---2---2---2---2---2-----------|-2-----------|
D|-2---2---2---2---2---2---0-------|-2---2---2---2---2---2---0-------|-2-----------|
G|-0-------0-----------0-------3---|-0-------0-----------0-------3---|-0-----------|
D|---------------------------------|---------------------------------|-------------|





Track 4: Untitled

G|--------|--------|--------|--------|--------|--------|--------|--------|--------|
D|--------|--------|--------|--------|--------|--------|--------|--------|--------|
A|--------|--------|--------|--------|--------|--------|--------|--------|--------|
E|--------|--------|--------|--------|--------|--------|--------|--------|--------|


G|--------|--------|--------|--------|--------|--------|--------|--------|--------|
D|--------|--------|--------|--------|--------|--------|--------|--------|--------|
A|--------|--------|--------|--------|--------|--------|--------|--------|--------|
E|--------|--------|--------|--------|--------|--------|--------|--------|--------|


G|--------|--------|--------|--------|--------|--------|--------|--------|--------|
D|--------|--------|--------|--------|--------|--------|--------|--------|--------|
A|--------|--------|--------|--------|--------|--------|--------|--------|--------|
E|--------|--------|--------|--------|--------|--------|--------|--------|--------|


G|--------|--------|--------|--------|--------|--------|--------|--------|--------|
D|--------|--------|--------|--------|--------|--------|--------|--------|--------|
A|--------|--------|--------|--------|--------|--------|--------|--------|--------|
E|--------|--------|--------|--------|--------|--------|--------|--------|--------|


G|--------|--------|--------|--------|--------|--------|--------|--------|--------|
D|--------|--------|--------|--------|--------|--------|--------|--------|--------|
A|--------|--------|--------|--------|--------|--------|--------|--------|--------|
E|--------|--------|--------|--------|--------|--------|--------|--------|--------|


G|--------|--------|--------|--------|--------|--------|--------|--------|--------|
D|--------|--------|--------|--------|--------|--------|--------|--------|--------|
A|--------|--------|--------|--------|--------|--------|--------|--------|--------|
E|--------|--------|--------|--------|--------|--------|--------|--------|--------|