Site menu:

    

Browse: 0-9 A B C D E F G H I J K L N O P Q R S T U V W X Y Z

the rasmus - not like the other girls:



Title: Not Like The Other Girls
Artist: 
Album: Dead Letters
Author: The Rasmus


Track 1: Guitar 1 clean

E|---------------------------------|---------------------------------|---------------------------------|
B|-----12----------10----------8---|---------7-----------12----------|-10----------8-----------7-------|
G|---------12--12------11--11------|-9---9-------7---12------12--12--|-----11--11------9---9-------7---|
D|---------------------------------|---------------------------------|---------------------------------|
A|---------------------------------|---------------------------------|---------------------------------|
E|---------------------------------|---------------------------------|---------------------------------|


E|---------------------------------|---------------------------------|---------12-----|
B|-----12----------10----------8---|---------7-----------12----------|-10------12-----|
G|-12------12--12------11--11------|-9---9-------7---12------12--11--|-----11--12-----|
D|---------------------------------|---------------------------------|----------------|
A|---------------------------------|---------------------------------|----------------|
E|---------------------------------|---------------------------------|----------------|


E|--------|--------|--------|--------|--------|--------|--------|--------|--------|
B|--------|--------|--------|--------|--------|--------|--------|--------|--------|
G|--------|--------|--------|--------|--------|--------|--------|--------|--------|
D|--------|--------|--------|--------|--------|--------|--------|--------|--------|
A|--------|--------|--------|--------|--------|--------|--------|--------|--------|
E|--------|--------|--------|--------|--------|--------|--------|--------|--------|


E|--------|--------|--------|---------------------------------|---------------------------------|
B|--------|--------|--------|-----12----------10----------8---|---------7-----------12----------|
G|--------|--------|--------|-12------12--12------11--11------|-9---9-------7---12------12--12--|
D|--------|--------|--------|---------------------------------|---------------------------------|
A|--------|--------|--------|---------------------------------|---------------------------------|
E|--------|--------|--------|---------------------------------|---------------------------------|


E|---------------------------------|---------------------------------|---------------------------------|
B|-10----------8-----------7-------|-----12----------10----------8---|---------7-----------12----------|
G|-----11--11------9---9-------7---|-12------12--12------11--11------|-9---9-------7---12------12--12--|
D|---------------------------------|---------------------------------|---------------------------------|
A|---------------------------------|---------------------------------|---------------------------------|
E|---------------------------------|---------------------------------|---------------------------------|


E|---------------------------------|---------------------------------|---------------------------------|
B|-10----------8-----------7-------|-----12----------10----------8---|---------7-----------12----------|
G|-----11--11------9---9-------7---|-12------12--12------11--11------|-9---9-------7---12------12--12--|
D|---------------------------------|---------------------------------|---------------------------------|
A|---------------------------------|---------------------------------|---------------------------------|
E|---------------------------------|---------------------------------|---------------------------------|


E|---------------------------------|---------------------------------|---------------------------------|
B|-10----------8-----------7-------|-----12----------10----------8---|---------7-----------12----------|
G|-----11--11------9---9-------7---|-12------12--12------11--11------|-9---9-------7---12------12--12--|
D|---------------------------------|---------------------------------|---------------------------------|
A|---------------------------------|---------------------------------|---------------------------------|
E|---------------------------------|---------------------------------|---------------------------------|


E|----------------|-----------------|--------|--------|--------|--------|--------|
B|-10-------------|-----------------|--------|--------|--------|--------|--------|
G|-----11--12-----|-----------------|--------|--------|--------|--------|--------|
D|----------------|-----------------|--------|--------|--------|--------|--------|
A|----------------|-----------------|--------|--------|--------|--------|--------|
E|----------------|-----------------|--------|--------|--------|--------|--------|


E|--------|--------|--------|--------|--------|--------|--------|--------|--------|
B|--------|--------|--------|--------|--------|--------|--------|--------|--------|
G|--------|--------|--------|--------|--------|--------|--------|--------|--------|
D|--------|--------|--------|--------|--------|--------|--------|--------|--------|
A|--------|--------|--------|--------|--------|--------|--------|--------|--------|
E|--------|--------|--------|--------|--------|--------|--------|--------|--------|


E|--------|-----------------------|---------------------------------|---------------------------------|
B|--------|-----------12----------|-10----------8-----------7-------|-----12----------10----------8---|
G|--------|-------12------12--12--|-----11--11------9---9-------7---|-12------12--12------11--11------|
D|--------|-----------------------|---------------------------------|---------------------------------|
A|--------|-----------------------|---------------------------------|---------------------------------|
E|--------|-----------------------|---------------------------------|---------------------------------|


E|---------------------------------|---------------------------------|------------------------------|
B|---------7-----------12----------|-10----------8-----------7-------|-----12----------10-----------|
G|-9---9-------7---12------12--12--|-----11--11------9---9-------7---|-12------12--12------11--12---|
D|---------------------------------|---------------------------------|------------------------------|
A|---------------------------------|---------------------------------|------------------------------|
E|---------------------------------|---------------------------------|------------------------------|


E|--------|--------|--------|--------|--------|--------|--------|--------|--------|
B|--------|--------|--------|--------|--------|--------|--------|--------|--------|
G|--------|--------|--------|--------|--------|--------|--------|--------|--------|
D|--------|--------|--------|--------|--------|--------|--------|--------|--------|
A|--------|--------|--------|--------|--------|--------|--------|--------|--------|
E|--------|--------|--------|--------|--------|--------|--------|--------|--------|


E|--------|--------|--------|--------|--------|--------|--------|--------|--------|
B|--------|--------|--------|--------|--------|--------|--------|--------|--------|
G|--------|--------|--------|--------|--------|--------|--------|--------|--------|
D|--------|--------|--------|--------|--------|--------|--------|--------|--------|
A|--------|--------|--------|--------|--------|--------|--------|--------|--------|
E|--------|--------|--------|--------|--------|--------|--------|--------|--------|


E|--------|--------|--------|--------|--------|--------|--------|--------|--------|
B|--------|--------|--------|--------|--------|--------|--------|--------|--------|
G|--------|--------|--------|--------|--------|--------|--------|--------|--------|
D|--------|--------|--------|--------|--------|--------|--------|--------|--------|
A|--------|--------|--------|--------|--------|--------|--------|--------|--------|
E|--------|--------|--------|--------|--------|--------|--------|--------|--------|


E|--------|--------|--------|--------|--------|--------|--------|--------|--------|
B|--------|--------|--------|--------|--------|--------|--------|--------|--------|
G|--------|--------|--------|--------|--------|--------|--------|--------|--------|
D|--------|--------|--------|--------|--------|--------|--------|--------|--------|
A|--------|--------|--------|--------|--------|--------|--------|--------|--------|
E|--------|--------|--------|--------|--------|--------|--------|--------|--------|


E|--------|--------|--------|--------|------------------------------|---------------------------------|
B|--------|--------|--------|--------|----------12----------10------|-----8-----------7-----------12--|
G|--------|--------|--------|--------|--------------12--12------11--|-11------9---9-------7---12------|
D|--------|--------|--------|--------|------------------------------|---------------------------------|
A|--------|--------|--------|--------|------------------------------|---------------------------------|
E|--------|--------|--------|--------|------------------------------|---------------------------------|


E|---------------------------------|---------------------------------|---------------------------------|
B|---------10----------8-----------|-7-----------12----------10------|-----8-----------7-----------12--|
G|-12--12------11--11------9---9---|-----7---12------12--12------11--|-11------9---9-------7---12------|
D|---------------------------------|---------------------------------|---------------------------------|
A|---------------------------------|---------------------------------|---------------------------------|
E|---------------------------------|---------------------------------|---------------------------------|


E|-----------------12----|
B|---------10------12----|
G|-12--11------11--9-----|
D|-----------------------|
A|-----------------------|
E|-----------------------|





Track 2: Guitar 1 w/Distortion

E|--------|--------|--------|--------|--------|--------|---------------------------------|
B|--------|--------|--------|--------|--------|--------|-----12----------10----------8---|
G|--------|--------|--------|--------|--------|--------|---------12--12------11--11------|
D|--------|--------|--------|--------|--------|--------|---------------------------------|
A|--------|--------|--------|--------|--------|--------|---------------------------------|
E|--------|--------|--------|--------|--------|--------|---------------------------------|


E|---------------------------------|---------------------------------|---------------------------------|
B|---------7-----------12----------|-10----------8-----------7-------|-----12----------10----------8---|
G|-9---9-------7---12------12--12--|-----11--11------9---9-------7---|-12------12--12------11--11------|
D|---------------------------------|---------------------------------|---------------------------------|
A|---------------------------------|---------------------------------|---------------------------------|
E|---------------------------------|---------------------------------|---------------------------------|


E|---------------------------------|----------------|---------------------------------|
B|---------7-----------12----------|-10-------------|-----12----------10----------8---|
G|-9---9-------7---12------12--11--|-----11--12-----|---------12--12------11--11------|
D|---------------------------------|----------------|---------------------------------|
A|---------------------------------|----------------|---------------------------------|
E|---------------------------------|----------------|---------------------------------|


E|---------------------------------|---------------------------------|---------------------------------|
B|---------7-----------12----------|-10----------8-----------7-------|-----12----------10----------8---|
G|-9---9-------7---12------12--12--|-----11--11------9---9-------7---|-12------12--12------11--11------|
D|---------------------------------|---------------------------------|---------------------------------|
A|---------------------------------|---------------------------------|---------------------------------|
E|---------------------------------|---------------------------------|---------------------------------|


E|---------------------------------|----------------|--------|--------|--------|--------|
B|---------7-----------12----------|-10-------------|--------|--------|--------|--------|
G|-9---9-------7---12------12--11--|-----11--12-----|--------|--------|--------|--------|
D|---------------------------------|----------------|--------|--------|--------|--------|
A|---------------------------------|----------------|--------|--------|--------|--------|
E|---------------------------------|----------------|--------|--------|--------|--------|


E|--------|--------|--------|--------|--------|--------|--------|--------|--------|
B|--------|--------|--------|--------|--------|--------|--------|--------|--------|
G|--------|--------|--------|--------|--------|--------|--------|--------|--------|
D|--------|--------|--------|--------|--------|--------|--------|--------|--------|
A|--------|--------|--------|--------|--------|--------|--------|--------|--------|
E|--------|--------|--------|--------|--------|--------|--------|--------|--------|


E|--------|--------|--------|--------|--------|--------|--------|--------|--------|
B|--------|--------|--------|--------|--------|--------|--------|--------|--------|
G|--------|--------|--------|--------|--------|--------|--------|--------|--------|
D|--------|--------|--------|--------|--------|--------|--------|--------|--------|
A|--------|--------|--------|--------|--------|--------|--------|--------|--------|
E|--------|--------|--------|--------|--------|--------|--------|--------|--------|


E|--------|--------|--------|-----------------------|---------------------------------|
B|--------|--------|--------|-----------12----------|-10----------8-----------7-------|
G|--------|--------|--------|---------------12--12--|-----11--11------9---9-------7---|
D|--------|--------|--------|-----------------------|---------------------------------|
A|--------|--------|--------|-----------------------|---------------------------------|
E|--------|--------|--------|-----------------------|---------------------------------|


E|------------------------------|--------|--------|--------|--------|--------|--------|
B|-----12----------10-----------|--------|--------|--------|--------|--------|--------|
G|-12------12--11------11--12---|--------|--------|--------|--------|--------|--------|
D|------------------------------|--------|--------|--------|--------|--------|--------|
A|------------------------------|--------|--------|--------|--------|--------|--------|
E|------------------------------|--------|--------|--------|--------|--------|--------|


E|--------|--------|--------|--------|--------|--------|--------|--------|--------|
B|--------|--------|--------|--------|--------|--------|--------|--------|--------|
G|--------|--------|--------|--------|--------|--------|--------|--------|--------|
D|--------|--------|--------|--------|--------|--------|--------|--------|--------|
A|--------|--------|--------|--------|--------|--------|--------|--------|--------|
E|--------|--------|--------|--------|--------|--------|--------|--------|--------|


E|--------|--------|--------|--------|--------|------------------|--------------------------|
B|--------|--------|--------|--------|--------|------------------|--------------------------|
G|--------|--------|--------|--------|--------|------------------|--------------------------|
D|--------|--------|--------|--------|--------|--------7--9--9---|-------9---9----7--5--7---|
A|--------|--------|--------|--------|--------|------------------|--------------------------|
E|--------|--------|--------|--------|--------|------------------|--------------------------|


E|------------------|----------------------------|---------------------------|------------------------|
B|------------------|----------------------------|---------------------------|------------------------|
G|------------------|----------------------------|---------------------------|------------------------|
D|-5---4------------|-------------5---7--5--7----|-----7---7----5---5----4---|-4----5---5----4---4----|
A|--------5--7------|-7-----5--7-----------------|---------------------------|------------------------|
E|------------------|----------------------------|---------------------------|------------------------|


E|-------------|--------------------------------------|---------------------------|
B|--------12---|--------------------------------12-10-|---------------------------|
G|-------------|-----14-121412---------12-------------|-12-11-9-----12--11--------|
D|-------------|--------------14-12-14----14----------|----------12---------9-----|
A|-7-----------|--------------------------------------|---------------------------|
E|-------------|--------------------------------------|---------------------------|


E|--------------------------------------|-----------------------|----------------------------|
B|--------------------------------------|-----------------------|----------------------------|
G|-12--11--14--12--11--14--12--11-12-11-|-------12--11--14--12--|-11--14--12--11-12-11-------|
D|--------------------------------------|-10--------------------|----------------------9-----|
A|--------------------------------------|-----------------------|----------------------------|
E|--------------------------------------|-----------------------|----------------------------|


E|----------------------------------------|---------------------|------------------|
B|----------------------------------------|---------------------|------------------|
G|----------------------------------------|---------------------|------------------|
D|-9--7--7--5--5--4--4--2--2--0--0---2----|-----4-----5-----7---|------9-----12----|
A|----------------------------------------|---------------------|------------------|
E|----------------------------------------|---------------------|------------------|


E|------------------|---------------------|-------------|--------------------|-------------------------------------------------|
B|------------------|---------------------|-------------|--------------------|-------------------------------------------------|
G|------------------|---------------------|-------------|--------------------|-------------------------------------------------|
D|-14----17----17---|-----19----21----19--|------21-----|-21-----------------|-------------7--7--9--9--10-10-10-10-10-10-10-10-|
A|------------------|---------------------|-------------|--------10-10-10-10-|-10-10-10-10-------------------------------------|
E|------------------|---------------------|-------------|--------------------|-------------------------------------------------|


E|-------------------------------------------------|-------------------------------------------------|
B|-------------------------------------------------|-------------------------------------------------|
G|-------------------------------------------------|-------------------------------------------------|
D|-10-10-10-10-------------------------------7--7--|-9--9--9--9--9--9--9--9--9--9--9--9--------------|
A|-------------9--9--9--9--9--9--9--9--10-10-------|-------------------------------------10-10-10-10-|
E|-------------------------------------------------|-------------------------------------------------|


E|-------------------------------------------------|-------------------------------------------------|
B|-------------------------------------------------|-------------------------------------------------|
G|-------------------------------------------------|-------------------------------------------------|
D|-------------7--7--9--9--10-10-10-10-10-10-10-10-|-10-10-10-10-------------------------------7--7--|
A|-10-10-10-10-------------------------------------|-------------9--9--9--9--9--9--9--9--10-10-------|
E|-------------------------------------------------|-------------------------------------------------|


E|------------------------------------------|-------------|--------|--------|--------|
B|------------------------------------------|-------------|--------|--------|--------|
G|------------------------------------------|-------------|--------|--------|--------|
D|-9--9--9--9--9--9--9--9--9--9--9--9--9----|-------9-----|--------|--------|--------|
A|-------------------------------------9----|-------9-----|--------|--------|--------|
E|------------------------------------------|-------------|--------|--------|--------|


E|--------|--------|--------|
B|--------|--------|--------|
G|--------|--------|--------|
D|--------|--------|--------|
A|--------|--------|--------|
E|--------|--------|--------|





Track 3: Guitar 3 w/ distortion

E|--------|--------|--------|--------|--------|--------|---------------------------------|
B|--------|--------|--------|--------|--------|--------|---------------------------------|
G|--------|--------|--------|--------|--------|--------|---------------------------------|
D|--------|--------|--------|--------|--------|--------|-----9-----------7-----------5---|
A|--------|--------|--------|--------|--------|--------|---------10--10------9---9-------|
E|--------|--------|--------|--------|--------|--------|---------------------------------|


E|---------------------------------|---------------------------------|---------------------------------|
B|---------------------------------|---------------------------------|---------------------------------|
G|---------------------------------|---------------------------------|---------------------------------|
D|---------4-----------9-----------|-7-----------5-----------4-------|-----9-----------7-----------5---|
A|-7---7-------5---10------10--10--|-----9---9-------7---7-------5---|-10------10--10------9---9-------|
E|---------------------------------|---------------------------------|---------------------------------|


E|---------------------------------|----------------|---------------------------------|
B|---------------------------------|----------------|---------------------------------|
G|---------------------------------|----------------|---------------------------------|
D|---------4-----------9-----------|-7--------------|-----9-----------7-----------5---|
A|-7---7-------5---10------10--9---|-----9---10-----|---------10--10------9---9-------|
E|---------------------------------|----------------|---------------------------------|


E|---------------------------------|---------------------------------|---------------------------------|
B|---------------------------------|---------------------------------|---------------------------------|
G|---------------------------------|---------------------------------|---------------------------------|
D|---------4-----------9-----------|-7-----------5-----------4-------|-----9-----------7-----------5---|
A|-7---7-------5---10------10--10--|-----9---9-------7---7-------5---|-10------10--10------9---9-------|
E|---------------------------------|---------------------------------|---------------------------------|


E|---------------------------------|----------------|--------|--------|--------|--------|
B|---------------------------------|----------------|--------|--------|--------|--------|
G|---------------------------------|----------------|--------|--------|--------|--------|
D|---------4-----------9-----------|-7--------------|--------|--------|--------|--------|
A|-7---7-------5---10------10--9---|-----9---10-----|--------|--------|--------|--------|
E|---------------------------------|----------------|--------|--------|--------|--------|


E|--------|--------|--------|--------|--------|--------|--------|--------|--------|
B|--------|--------|--------|--------|--------|--------|--------|--------|--------|
G|--------|--------|--------|--------|--------|--------|--------|--------|--------|
D|--------|--------|--------|--------|--------|--------|--------|--------|--------|
A|--------|--------|--------|--------|--------|--------|--------|--------|--------|
E|--------|--------|--------|--------|--------|--------|--------|--------|--------|


E|--------|--------|--------|--------|--------|--------|--------|--------|--------|
B|--------|--------|--------|--------|--------|--------|--------|--------|--------|
G|--------|--------|--------|--------|--------|--------|--------|--------|--------|
D|--------|--------|--------|--------|--------|--------|--------|--------|--------|
A|--------|--------|--------|--------|--------|--------|--------|--------|--------|
E|--------|--------|--------|--------|--------|--------|--------|--------|--------|


E|--------|--------|--------|-----------------------|---------------------------------|
B|--------|--------|--------|-----------------------|---------------------------------|
G|--------|--------|--------|-----------------------|---------------------------------|
D|--------|--------|--------|-----------9-----------|-7-----------5-----------4-------|
A|--------|--------|--------|---------------10--10--|-----9---9-------7---7-------5---|
E|--------|--------|--------|-----------------------|---------------------------------|


E|------------------------------|--------|--------|--------|--------|--------|--------|
B|------------------------------|--------|--------|--------|--------|--------|--------|
G|------------------------------|--------|--------|--------|--------|--------|--------|
D|-----9-----------7------------|--------|--------|--------|--------|--------|--------|
A|-10------10--9-------9---10---|--------|--------|--------|--------|--------|--------|
E|------------------------------|--------|--------|--------|--------|--------|--------|


E|--------|--------|--------|--------|--------|--------|--------|--------|--------|
B|--------|--------|--------|--------|--------|--------|--------|--------|--------|
G|--------|--------|--------|--------|--------|--------|--------|--------|--------|
D|--------|--------|--------|--------|--------|--------|--------|--------|--------|
A|--------|--------|--------|--------|--------|--------|--------|--------|--------|
E|--------|--------|--------|--------|--------|--------|--------|--------|--------|


E|--------|--------|--------|--------|--------|--------|--------|--------|--------|
B|--------|--------|--------|--------|--------|--------|--------|--------|--------|
G|--------|--------|--------|--------|--------|--------|--------|--------|--------|
D|--------|--------|--------|--------|--------|--------|--------|--------|--------|
A|--------|--------|--------|--------|--------|--------|--------|--------|--------|
E|--------|--------|--------|--------|--------|--------|--------|--------|--------|


E|--------|--------|--------|--------|--------|--------|--------|--------|------------------|
B|--------|--------|--------|--------|--------|--------|--------|--------|--------12--10-12-|
G|--------|--------|--------|--------|--------|--------|--------|--------|------------------|
D|--------|--------|--------|--------|--------|--------|--------|--------|------------------|
A|--------|--------|--------|--------|--------|--------|--------|--------|------------------|
E|--------|--------|--------|--------|--------|--------|--------|--------|------------------|


E|-------10----------------10-12-10----------------|-----------------------------10----------------|
B|-13-12----13-12-10-12-13----------13-12-10-12-13-|-12-10-------12--10-12-13-12----13-12-10-12-13-|
G|-------------------------------------------------|-------12-11-----------------------------------|
D|-------------------------------------------------|-----------------------------------------------|
A|-------------------------------------------------|-----------------------------------------------|
E|-------------------------------------------------|-----------------------------------------------|


E|-10-12-10--------------------------------------|-------10----------------10-12-10----------------|
B|----------13-12-10-12-13-12-10-------12--10-12-|-13-12----13-12-10-12-13----------13-12-10-12-13-|
G|-------------------------------12-11-----------|-------------------------------------------------|
D|-----------------------------------------------|-------------------------------------------------|
A|-----------------------------------------------|-------------------------------------------------|
E|-----------------------------------------------|-------------------------------------------------|


E|-----------------------------------|-11----11---------|--------|--------|--------|
B|-12-10------------------10---10-12-|------------------|--------|--------|--------|
G|-------12-11-11---11-12------------|------------------|--------|--------|--------|
D|-----------------------------------|------------------|--------|--------|--------|
A|-----------------------------------|------------------|--------|--------|--------|
E|-----------------------------------|------------------|--------|--------|--------|


E|--------|--------|--------|--------|--------|--------|--------|--------|--------|
B|--------|--------|--------|--------|--------|--------|--------|--------|--------|
G|--------|--------|--------|--------|--------|--------|--------|--------|--------|
D|--------|--------|--------|--------|--------|--------|--------|--------|--------|
A|--------|--------|--------|--------|--------|--------|--------|--------|--------|
E|--------|--------|--------|--------|--------|--------|--------|--------|--------|


E|--------|
B|--------|
G|--------|
D|--------|
A|--------|
E|--------|





Track 4: Guitar 2 Palm Muted

E|--------|--------|--------|--------|--------|--------|--------|--------|--------|
B|--------|--------|--------|--------|--------|--------|--------|--------|--------|
G|--------|--------|--------|--------|--------|--------|--------|--------|--------|
D|--------|--------|--------|--------|--------|--------|--------|--------|--------|
A|--------|--------|--------|--------|--------|--------|--------|--------|--------|
E|--------|--------|--------|--------|--------|--------|--------|--------|--------|


E|--------|--------|--------|--------|--------|--------|--------|--------|--------|
B|--------|--------|--------|--------|--------|--------|--------|--------|--------|
G|--------|--------|--------|--------|--------|--------|--------|--------|--------|
D|--------|--------|--------|--------|--------|--------|--------|--------|--------|
A|--------|--------|--------|--------|--------|--------|--------|--------|--------|
E|--------|--------|--------|--------|--------|--------|--------|--------|--------|


E|-------------------------------------------------|-------------------------------------------------|
B|-------------------------------------------------|-------------------------------------------------|
G|-------------------------------------------------|-------------------------------------------------|
D|-2--2--2--2--2--2--2--2--2--2--2--2--2--2--2--2--|-2--2--2--2--2--2--2--2--2--2--2--2--2--2--2--2--|
A|-2--2--2--2--2--2--2--2--2--2--2--2--2--2--2--2--|-2--2--2--2--2--2--2--2--2--2--2--2--2--2--2--2--|
E|-0--0--0--0--0--0--0--0--0--0--0--0--0--0--0--0--|-0--0--0--0--0--0--0--0--0--0--0--0--0--0--0--0--|


E|-------------------------------------------------|-------------------------------------------------|
B|-------------------------------------------------|-------------------------------------------------|
G|-------------------------------------------------|-5--5--5--5--5--5--5--5--5--5--5--5--5--5--5--5--|
D|-2--2--2--2--2--2--2--2--2--2--2--2--2--2--2--2--|-5--5--5--5--5--5--5--5--5--5--5--5--5--5--5--5--|
A|-2--2--2--2--2--2--2--2--2--2--2--2--2--2--2--2--|-3--3--3--3--3--3--3--3--3--3--3--3--3--3--3--3--|
E|-0--0--0--0--0--0--0--0--0--0--0--0--0--0--0--0--|-------------------------------------------------|


E|-------------------------------------------------|-------------------------------------------------|
B|-------------------------------------------------|-------------------------------------------------|
G|-5--5--5--5--5--5--5--5--------------------------|-------------------------------------------------|
D|-5--5--5--5--5--5--5--5--2--2--2--2--2--2--2--2--|-2--2--2--2--2--2--2--2--2--2--2--2--2--2--2--2--|
A|-3--3--3--3--3--3--3--3--2--2--2--2--2--2--2--2--|-2--2--2--2--2--2--2--2--2--2--2--2--2--2--2--2--|
E|-------------------------0--0--0--0--0--0--0--0--|-0--0--0--0--0--0--0--0--0--0--0--0--0--0--0--0--|


E|-------------------------------------------------|-------------------------------------------------|
B|-------------------------------------------------|-------------------------------------------------|
G|-------------------------------------------------|-------------------------------------------------|
D|-2--2--2--2--2--2--2--2--2--2--2--2--2--2--2--2--|-2--2--2--2--2--2--2--2--2--2--2--2--2--2--2--2--|
A|-2--2--2--2--2--2--2--2--2--2--2--2--2--2--2--2--|-2--2--2--2--2--2--2--2--2--2--2--2--2--2--2--2--|
E|-0--0--0--0--0--0--0--0--0--0--0--0--0--0--0--0--|-0--0--0--0--0--0--0--0--0--0--0--0--0--0--0--0--|


E|-------------------------------------------------|-------------------------------------------------|
B|-------------------------------------------------|-------------------------------------------------|
G|-------------------------------------------------|-5--5--5--5--5--5--5--5--5--5--5--5--5--5--5--5--|
D|-2--2--2--2--2--2--2--2--2--2--2--2--2--2--2--2--|-5--5--5--5--5--5--5--5--5--5--5--5--5--5--5--5--|
A|-2--2--2--2--2--2--2--2--2--2--2--2--2--2--2--2--|-3--3--3--3--3--3--3--3--3--3--3--3--3--3--3--3--|
E|-0--0--0--0--0--0--0--0--0--0--0--0--0--0--0--0--|-------------------------------------------------|


E|-------------------------------------------------|-----------------------------------------------|
B|-------------------------------------------------|-----------------------------------------------|
G|-5--5--5--5--5--5--5--5--------------------------|-----------------------------------------------|
D|-5--5--5--5--5--5--5--5--2--2--2--2--2--2--2--2--|-2--2--2--2--2--2--2--2--2--2--2--2--2--2------|
A|-3--3--3--3--3--3--3--3--2--2--2--2--2--2--2--2--|-2--2--2--2--2--2--2--2--2--2--2--2--2--2------|
E|-------------------------0--0--0--0--0--0--0--0--|-0--0--0--0--0--0--0--0--0--0--0--0--0--0------|


E|-------------|--------|--------|--------|--------|--------|--------|--------|--------|
B|-------------|--------|--------|--------|--------|--------|--------|--------|--------|
G|-------------|--------|--------|--------|--------|--------|--------|--------|--------|
D|-------------|--------|--------|--------|--------|--------|--------|--------|--------|
A|-------------|--------|--------|--------|--------|--------|--------|--------|--------|
E|-------------|--------|--------|--------|--------|--------|--------|--------|--------|


E|--------|--------|--------|--------|--------|--------|--------|-------------------------------|
B|--------|--------|--------|--------|--------|--------|--------|-------------------------------|
G|--------|--------|--------|--------|--------|--------|--------|-------------------------------|
D|--------|--------|--------|--------|--------|--------|--------|-------2--2--2--2--2--2--2--2--|
A|--------|--------|--------|--------|--------|--------|--------|-------2--2--2--2--2--2--2--2--|
E|--------|--------|--------|--------|--------|--------|--------|-------0--0--0--0--0--0--0--0--|


E|-------------------------------------------------|-------------------------------------------------|
B|-------------------------------------------------|-------------------------------------------------|
G|-------------------------------------------------|-------------------------------------------------|
D|-2--2--2--2--2--2--2--2--2--2--2--2--2--2--2--2--|-2--2--2--2--2--2--2--2--2--2--2--2--2--2--2--2--|
A|-2--2--2--2--2--2--2--2--2--2--2--2--2--2--2--2--|-2--2--2--2--2--2--2--2--2--2--2--2--2--2--2--2--|
E|-0--0--0--0--0--0--0--0--0--0--0--0--0--0--0--0--|-0--0--0--0--0--0--0--0--0--0--0--0--0--0--0--0--|


E|-------------------------------------------------|-------------------------------------------------|
B|-------------------------------------------------|-------------------------------------------------|
G|-------------------------5--5--5--5--5--5--5--5--|-5--5--5--5--5--5--5--5--5--5--5--5--5--5--5--5--|
D|-2--2--2--2--2--2--2--2--5--5--5--5--5--5--5--5--|-5--5--5--5--5--5--5--5--5--5--5--5--5--5--5--5--|
A|-2--2--2--2--2--2--2--2--3--3--3--3--3--3--3--3--|-3--3--3--3--3--3--3--3--3--3--3--3--3--3--3--3--|
E|-0--0--0--0--0--0--0--0--------------------------|-------------------------------------------------|


E|-------------------------------------------------|-----------------------------|
B|-------------------------------------------------|-----------------------------|
G|-------------------------------------------------|-----------------------------|
D|-2--2--2--2--2--2--2--2--2--2--2--2--2--2--2--2--|-2--2--2--2--2--2------------|
A|-2--2--2--2--2--2--2--2--2--2--2--2--2--2--2--2--|-2--2--2--2--2--2------------|
E|-0--0--0--0--0--0--0--0--0--0--0--0--0--0--0--0--|-0--0--0--0--0--0------------|


E|--------|--------|--------|--------|--------|--------|--------|--------|--------|
B|--------|--------|--------|--------|--------|--------|--------|--------|--------|
G|--------|--------|--------|--------|--------|--------|--------|--------|--------|
D|--------|--------|--------|--------|--------|--------|--------|--------|--------|
A|--------|--------|--------|--------|--------|--------|--------|--------|--------|
E|--------|--------|--------|--------|--------|--------|--------|--------|--------|


E|--------|--------|--------|--------|--------|--------|--------|--------|--------|
B|--------|--------|--------|--------|--------|--------|--------|--------|--------|
G|--------|--------|--------|--------|--------|--------|--------|--------|--------|
D|--------|--------|--------|--------|--------|--------|--------|--------|--------|
A|--------|--------|--------|--------|--------|--------|--------|--------|--------|
E|--------|--------|--------|--------|--------|--------|--------|--------|--------|


E|--------|--------|--------|--------|--------|--------|--------|--------|--------|
B|--------|--------|--------|--------|--------|--------|--------|--------|--------|
G|--------|--------|--------|--------|--------|--------|--------|--------|--------|
D|--------|--------|--------|--------|--------|--------|--------|--------|--------|
A|--------|--------|--------|--------|--------|--------|--------|--------|--------|
E|--------|--------|--------|--------|--------|--------|--------|--------|--------|


E|--------|--------|--------|--------|--------|--------|--------|--------|--------|
B|--------|--------|--------|--------|--------|--------|--------|--------|--------|
G|--------|--------|--------|--------|--------|--------|--------|--------|--------|
D|--------|--------|--------|--------|--------|--------|--------|--------|--------|
A|--------|--------|--------|--------|--------|--------|--------|--------|--------|
E|--------|--------|--------|--------|--------|--------|--------|--------|--------|


E|--------|--------|--------|--------|--------|--------|--------|--------|--------|
B|--------|--------|--------|--------|--------|--------|--------|--------|--------|
G|--------|--------|--------|--------|--------|--------|--------|--------|--------|
D|--------|--------|--------|--------|--------|--------|--------|--------|--------|
A|--------|--------|--------|--------|--------|--------|--------|--------|--------|
E|--------|--------|--------|--------|--------|--------|--------|--------|--------|





Track 5: Guitar 1 w/ overdrive

E|--------|--------|--------|--------|--------|--------|--------|--------|--------|
B|--------|--------|--------|--------|--------|--------|--------|--------|--------|
G|--------|--------|--------|--------|--------|--------|--------|--------|--------|
D|--------|--------|--------|--------|--------|--------|--------|--------|--------|
A|--------|--------|--------|--------|--------|--------|--------|--------|--------|
E|--------|--------|--------|--------|--------|--------|--------|--------|--------|


E|--------|--------|--------|--------|--------|--------|--------|--------|--------|
B|--------|--------|--------|--------|--------|--------|--------|--------|--------|
G|--------|--------|--------|--------|--------|--------|--------|--------|--------|
D|--------|--------|--------|--------|--------|--------|--------|--------|--------|
A|--------|--------|--------|--------|--------|--------|--------|--------|--------|
E|--------|--------|--------|--------|--------|--------|--------|--------|--------|


E|--------|--------|--------|--------|--------|--------|--------|--------|--------|
B|--------|--------|--------|--------|--------|--------|--------|--------|--------|
G|--------|--------|--------|--------|--------|--------|--------|--------|--------|
D|--------|--------|--------|--------|--------|--------|--------|--------|--------|
A|--------|--------|--------|--------|--------|--------|--------|--------|--------|
E|--------|--------|--------|--------|--------|--------|--------|--------|--------|


E|--------|--------|--------|-------7-----0----|-----------------7---|------0--------------|
B|--------|--------|--------|-------8-----3----|-----------------8---|------3-----3--------|
G|--------|--------|--------|-------9-----0----|-----------------9---|------0-----2--------|
D|--------|--------|--------|-------9-----2----|-----------------9---|------2-----0--------|
A|--------|--------|--------|-------7-----3----|-----------------7---|------3-----0--------|
E|--------|--------|--------|------------------|---------------------|------------2--------|


E|-------7-----0----|-----------3-----2---|------------------------------------------|
B|-------8-----3----|-----3-----3-----4---|------------------------------------------|
G|-------9-----0----|-----2-----4-----4---|------------------------------------------|
D|-------9-----2----|-----0-----5-----4---|---------9--10-7--9--10-7--9--10-7--9--10-|
A|-------7-----3----|-----0-----5-----2---|------7-----------------------------------|
E|------------------|-----2-----3---------|------------------------------------------|


E|-------------------------------|-------------------------------------------------|
B|-------------------------------|-------------------------------------------------|
G|---------12--11----------------|-------------------------------------------------|
D|-9-------9---9-----------------|-------------7--7--9--9--10-10-10-10-10-10-10-10-|
A|-6---10--10--9-----10-10-10-10-|-10-10-10-10-------------------------------------|
E|-7---8-------------------------|-------------------------------------------------|


E|-------------------------------------------------|-------------------------------------------------|
B|-------------------------------------------------|-------------------------------------------------|
G|-------------------------------------------------|-------------------------------------------------|
D|-10-10-10-10-------------------------------7--7--|-9--9--9--9--9--9--9--9--9--9--9--9--------------|
A|-------------9--9--9--9--9--9--9--9--10-10-------|-------------------------------------10-10-10-10-|
E|-------------------------------------------------|-------------------------------------------------|


E|-------------------------------------------------|-------------------------------------------------|
B|-------------------------------------------------|-------------------------------------------------|
G|-------------------------------------------------|-------------------------------------------------|
D|-------------7--7--9--9--10-10-10-10-10-10-10-10-|-10-10-10-10-------------------------------7--7--|
A|-10-10-10-10-------------------------------------|-------------9--9--9--9--9--9--9--9--10-10-------|
E|-------------------------------------------------|-------------------------------------------------|


E|------------------------------------------|--------|--------|--------|--------|--------|
B|------------------------------------------|--------|--------|--------|--------|--------|
G|------------------------------------------|--------|--------|--------|--------|--------|
D|-9--9--9--9--9--9--9--9--9--9--9--9--9----|--------|--------|--------|--------|--------|
A|-------------------------------------9----|--------|--------|--------|--------|--------|
E|------------------------------------------|--------|--------|--------|--------|--------|


E|--------|--------|--------|--------|-------------7---|------0----------|-------7-----0----|
B|--------|--------|--------|--------|-------------8---|------3----------|-------8-----3----|
G|--------|--------|--------|--------|-------------9---|------0----------|-------9-----0----|
D|--------|--------|--------|--------|-------------9---|------2----------|-------9-----2----|
A|--------|--------|--------|--------|-------------7---|------3----------|-------7-----3----|
E|--------|--------|--------|--------|-----------------|-----------------|------------------|


E|--------------------7---|------0-----------|-3-----2-----------------|-----------------------------------------|
B|-----3--------------8---|------3-----3-----|-3-----4-----------------|-----------------------------------------|
G|-----2--------------9---|------0-----2-----|-4-----4-----------------|---------------------------------12--11--|
D|-----0--------------9---|------2-----0-----|-5-----4--------9--10-7--|-9--10-7--9--10-7--9--10-9-------9---9---|
A|-----0--------------7---|------3-----0-----|-5-----2-----7-----------|-------------------------6---10--10--9---|
E|-----2------------------|------------2-----|-3-----------------------|-------------------------7---8-----------|


E|------------------------------------------|-------------------------------------------------|
B|------------------------------------------|-------------------------------------------------|
G|------------------------------------------|-------------------------------------------------|
D|------------------------------7--7--9--9--|-10-10-10-10-10-10-10-10-10-10-10-10-------------|
A|------10-10-10-10-10-10-10-10-------------|-------------------------------------9--9--9--9--|
E|------------------------------------------|-------------------------------------------------|


E|-------------------------------------------------|-------------------------------------------------|
B|-------------------------------------------------|-------------------------------------------------|
G|-------------------------------------------------|-------------------------------------------------|
D|-------------------7--7--9--9--9--9--9--9--9--9--|-9--9--9--9--------------------------7--7--9--9--|
A|-9--9--9--9--10-10-------------------------------|-------------10-10-10-10-10-10-10-10-------------|
E|-------------------------------------------------|-------------------------------------------------|


E|-------------------------------------------------|-------------------------------------------------|
B|-------------------------------------------------|-------------------------------------------------|
G|-------------------------------------------------|-------------------------------------------------|
D|-10-10-10-10-10-10-10-10-10-10-10-10-------------|-------------------7--7--9--9--9--9--9--9--9--9--|
A|-------------------------------------9--9--9--9--|-9--9--9--9--10-10-------------------------------|
E|-------------------------------------------------|-------------------------------------------------|


E|--------------------|-------------|--------|--------|--------|--------|--------|
B|--------------------|-------------|--------|--------|--------|--------|--------|
G|--------------------|-------------|--------|--------|--------|--------|--------|
D|-9--9--9--9--9------|-9-----------|--------|--------|--------|--------|--------|
A|-------------9------|-9-----------|--------|--------|--------|--------|--------|
E|--------------------|-------------|--------|--------|--------|--------|--------|


E|--------|--------|--------|--------|--------|--------|--------|--------|--------|
B|--------|--------|--------|--------|--------|--------|--------|--------|--------|
G|--------|--------|--------|--------|--------|--------|--------|--------|--------|
D|--------|--------|--------|--------|--------|--------|--------|--------|--------|
A|--------|--------|--------|--------|--------|--------|--------|--------|--------|
E|--------|--------|--------|--------|--------|--------|--------|--------|--------|


E|--------|--------|--------|--------|--------|--------|--------|--------|--------|
B|--------|--------|--------|--------|--------|--------|--------|--------|--------|
G|--------|--------|--------|--------|--------|--------|--------|--------|--------|
D|--------|--------|--------|--------|--------|--------|--------|--------|--------|
A|--------|--------|--------|--------|--------|--------|--------|--------|--------|
E|--------|--------|--------|--------|--------|--------|--------|--------|--------|


E|--------|--------|--------|--------|--------|--------|--------|--------|
B|--------|--------|--------|--------|--------|--------|--------|--------|
G|--------|--------|--------|--------|--------|--------|--------|--------|
D|--------|--------|--------|--------|--------|--------|--------|--------|
A|--------|--------|--------|--------|--------|--------|--------|--------|
E|--------|--------|--------|--------|--------|--------|--------|--------|





Track 6: Guitar 1 clean

E|--------|--------|--------|--------|--------|--------|--------|--------|--------|
B|--------|--------|--------|--------|--------|--------|--------|--------|--------|
G|--------|--------|--------|--------|--------|--------|--------|--------|--------|
D|--------|--------|--------|--------|--------|--------|--------|--------|--------|
A|--------|--------|--------|--------|--------|--------|--------|--------|--------|
E|--------|--------|--------|--------|--------|--------|--------|--------|--------|


E|--------|--------|--------|--------|--------|--------|--------|--------|--------|
B|--------|--------|--------|--------|--------|--------|--------|--------|--------|
G|--------|--------|--------|--------|--------|--------|--------|--------|--------|
D|--------|--------|--------|--------|--------|--------|--------|--------|--------|
A|--------|--------|--------|--------|--------|--------|--------|--------|--------|
E|--------|--------|--------|--------|--------|--------|--------|--------|--------|


E|--------|--------|--------|--------|--------|--------|--------|--------|--------|
B|--------|--------|--------|--------|--------|--------|--------|--------|--------|
G|--------|--------|--------|--------|--------|--------|--------|--------|--------|
D|--------|--------|--------|--------|--------|--------|--------|--------|--------|
A|--------|--------|--------|--------|--------|--------|--------|--------|--------|
E|--------|--------|--------|--------|--------|--------|--------|--------|--------|


E|--------|--------|--------|--------|--------|--------|--------|--------|--------|
B|--------|--------|--------|--------|--------|--------|--------|--------|--------|
G|--------|--------|--------|--------|--------|--------|--------|--------|--------|
D|--------|--------|--------|--------|--------|--------|--------|--------|--------|
A|--------|--------|--------|--------|--------|--------|--------|--------|--------|
E|--------|--------|--------|--------|--------|--------|--------|--------|--------|


E|--------|--------|--------|--------|--------|--------|--------|--------|--------|
B|--------|--------|--------|--------|--------|--------|--------|--------|--------|
G|--------|--------|--------|--------|--------|--------|--------|--------|--------|
D|--------|--------|--------|--------|--------|--------|--------|--------|--------|
A|--------|--------|--------|--------|--------|--------|--------|--------|--------|
E|--------|--------|--------|--------|--------|--------|--------|--------|--------|


E|--------|--------|--------|--------|--------|--------|--------|--------|--------|
B|--------|--------|--------|--------|--------|--------|--------|--------|--------|
G|--------|--------|--------|--------|--------|--------|--------|--------|--------|
D|--------|--------|--------|--------|--------|--------|--------|--------|--------|
A|--------|--------|--------|--------|--------|--------|--------|--------|--------|
E|--------|--------|--------|--------|--------|--------|--------|--------|--------|


E|--------|--------|--------|--------|--------|--------|--------|--------|--------|
B|--------|--------|--------|--------|--------|--------|--------|--------|--------|
G|--------|--------|--------|--------|--------|--------|--------|--------|--------|
D|--------|--------|--------|--------|--------|--------|--------|--------|--------|
A|--------|--------|--------|--------|--------|--------|--------|--------|--------|
E|--------|--------|--------|--------|--------|--------|--------|--------|--------|


E|--------|--------|--------|--------|--------|--------|--------|--------|--------|
B|--------|--------|--------|--------|--------|--------|--------|--------|--------|
G|--------|--------|--------|--------|--------|--------|--------|--------|--------|
D|--------|--------|--------|--------|--------|--------|--------|--------|--------|
A|--------|--------|--------|--------|--------|--------|--------|--------|--------|
E|--------|--------|--------|--------|--------|--------|--------|--------|--------|


E|--------|--------|--------|--------|--------|--------|-------------|--------|--------|
B|--------|--------|--------|--------|--------|--------|-------------|--------|--------|
G|--------|--------|--------|--------|--------|--------|-------------|--------|--------|
D|--------|--------|--------|--------|--------|--------|-------------|--------|--------|
A|--------|--------|--------|--------|--------|--------|-------------|--------|--------|
E|--------|--------|--------|--------|--------|--------|-------------|--------|--------|


E|--------|--------|--------|--------|--------|--------|--------|--------|--------|
B|--------|--------|--------|--------|--------|--------|--------|--------|--------|
G|--------|--------|--------|--------|--------|--------|--------|--------|--------|
D|--------|--------|--------|--------|--------|--------|--------|--------|--------|
A|--------|--------|--------|--------|--------|--------|--------|--------|--------|
E|--------|--------|--------|--------|--------|--------|--------|--------|--------|


E|--------|--------|--------|--------|--------|--------|--------|--------|
B|--------|--------|--------|--------|--------|--------|--------|--------|
G|--------|--------|--------|--------|--------|--------|--------|--------|
D|--------|--------|--------|--------|--------|--------|--------|--------|
A|--------|--------|--------|--------|--------|--------|--------|--------|
E|--------|--------|--------|--------|--------|--------|--------|--------|





Track 7: Untitled

G|--------|--------|--------|--------|--------|--------|--------|--------|--------|
D|--------|--------|--------|--------|--------|--------|--------|--------|--------|
A|--------|--------|--------|--------|--------|--------|--------|--------|--------|
E|--------|--------|--------|--------|--------|--------|--------|--------|--------|


G|--------|--------|--------|--------|--------|--------|--------|--------|--------|
D|--------|--------|--------|--------|--------|--------|--------|--------|--------|
A|--------|--------|--------|--------|--------|--------|--------|--------|--------|
E|--------|--------|--------|--------|--------|--------|--------|--------|--------|


G|--------|--------|--------|--------|--------|--------|--------|--------|--------|
D|--------|--------|--------|--------|--------|--------|--------|--------|--------|
A|--------|--------|--------|--------|--------|--------|--------|--------|--------|
E|--------|--------|--------|--------|--------|--------|--------|--------|--------|


G|--------|--------|--------|--------|--------|--------|--------|--------|--------|
D|--------|--------|--------|--------|--------|--------|--------|--------|--------|
A|--------|--------|--------|--------|--------|--------|--------|--------|--------|
E|--------|--------|--------|--------|--------|--------|--------|--------|--------|


G|--------|--------|--------|--------|--------|--------|--------|--------|--------|
D|--------|--------|--------|--------|--------|--------|--------|--------|--------|
A|--------|--------|--------|--------|--------|--------|--------|--------|--------|
E|--------|--------|--------|--------|--------|--------|--------|--------|--------|


G|--------|--------|--------|--------|--------|--------|--------|--------|--------|
D|--------|--------|--------|--------|--------|--------|--------|--------|--------|
A|--------|--------|--------|--------|--------|--------|--------|--------|--------|
E|--------|--------|--------|--------|--------|--------|--------|--------|--------|


G|--------|--------|--------|--------|--------|--------|--------|--------|--------|
D|--------|--------|--------|--------|--------|--------|--------|--------|--------|
A|--------|--------|--------|--------|--------|--------|--------|--------|--------|
E|--------|--------|--------|--------|--------|--------|--------|--------|--------|


G|--------|--------|--------|--------|--------|--------|--------|--------|--------|
D|--------|--------|--------|--------|--------|--------|--------|--------|--------|
A|--------|--------|--------|--------|--------|--------|--------|--------|--------|
E|--------|--------|--------|--------|--------|--------|--------|--------|--------|


G|--------|--------|--------|--------|--------|--------|--------|--------|--------|
D|--------|--------|--------|--------|--------|--------|--------|--------|--------|
A|--------|--------|--------|--------|--------|--------|--------|--------|--------|
E|--------|--------|--------|--------|--------|--------|--------|--------|--------|


G|--------|--------|--------|--------|--------|--------|--------|--------|--------|
D|--------|--------|--------|--------|--------|--------|--------|--------|--------|
A|--------|--------|--------|--------|--------|--------|--------|--------|--------|
E|--------|--------|--------|--------|--------|--------|--------|--------|--------|


G|--------|--------|--------|--------|--------|--------|--------|--------|
D|--------|--------|--------|--------|--------|--------|--------|--------|
A|--------|--------|--------|--------|--------|--------|--------|--------|
E|--------|--------|--------|--------|--------|--------|--------|--------|