Site menu:

    

Browse: 0-9 A B C D E F G H I J K L N O P Q R S T U V W X Y Z

the doors - people are strange:



Title: People Are Strange
Artist: 
Album: Strange Days
Author: The Doors


Track 1: Robby Krieger - Gtr.1

E|---------------------|---------------------------------|---------------------------------|
B|---------------------|---------------------------------|---------------------------------|
G|---------------------|-------------0---0---------------|---------2---0---0---------------|
D|---------------------|---------2-----------0-----------|-----2---------------2-----------|
A|------2----0---------|-0---2-------------------2---1---|-0-----------------------2---1---|
E|----------------3----|---------------------------------|---------------------------------|


E|-------------------------------------|---------------------------------|---------------------------------|
B|-------------------------------------|---------------------------------|---------------------------------|
G|---------2-----------0---------------|---------------------------------|-------------0---0---------------|
D|-----2-------2---2-------------------|---------1-----------------------|---------2-----------2-----------|
A|-0-----------2---2-------0---1---2---|-----2---------------2---0-------|-----2-------------------2---1---|
E|-------------------------------------|-2-----------0---0-----------3---|-0-------------------------------|


E|---------------------------------|-------------------------------------|---------------------------------|
B|---------------------------------|-------------------------------------|---------------------------------|
G|---------2---0---0---------------|---------2---------------------------|---------------------0-------0---|
D|-----2---------------2-----------|-----2-------2-------2---------------|---------1---------------2-------|
A|-0-----------------------2---1---|-0-----------------------0---1---2---|-----2---------------------------|
E|---------------------------------|-----------------0-------------------|-2-----------0---0---------------|


E|------2--------------------|------3------------3-------|--------------------|------7------------7-------|
B|------4--------------------|------3------------3-------|------10------------|------7------------7-------|
G|------2------------2-------|---------------------------|--------------------|---------------------------|
D|------4--------------------|---------------------------|--------------------|---------------------------|
A|---------------------------|---------------------------|--------------------|---------------------------|
E|---------------------------|---------------------------|--------------------|---------------------------|


E|------3------------3-------|--------------------|--------|------7------------7-------|
B|------3------------3-------|------10------------|--------|------7------------7-------|
G|---------------------------|--------------------|--------|---------------------------|
D|---------------------------|--------------------|--------|---------------------------|
A|---------------------------|--------------------|--------|---------------------------|
E|---------------------------|--------------------|--------|---------------------------|


E|------7------------7-------|------7------------7-------|-------------------12------|
B|------7------------7-------|------7------------7-------|------12-----------12------|
G|---------------------------|---------------------------|------9--------------------|
D|---------------------------|---------------------------|---------------------------|
A|---------------------------|---------------------------|---------------------------|
E|---------------------------|---------------------------|---------------------------|


E|------5------------12------|------5------------12------|------5------------12------|
B|------5------------12------|------5------------12------|------5------------0-------|
G|---------------------------|---------------------------|---------------------------|
D|---------------------------|---------------------------|---------------------------|
A|---------------------------|---------------------------|---------------------------|
E|---------------------------|---------------------------|---------------------------|


E|------12-----------12------|------5------------12------|------5------------12------|
B|------12-----------12------|------5------------12------|------5------------12------|
G|---------------------------|---------------------------|---------------------------|
D|---------------------------|---------------------------|---------------------------|
A|---------------------------|---------------------------|---------------------------|
E|---------------------------|---------------------------|---------------------------|


E|------5--------------------|----------------5---|-5---5-----5--3--0-------------|
B|------5------------12------|--------------------|--------------------3--0-------|
G|-------------------9-------|--------------------|--------------------------2----|
D|---------------------------|--------------------|-------------------------------|
A|---------------------------|--------------------|-------------------------------|
E|---------------------------|--------------------|-------------------------------|


E|---------------------------------|-15----12-----------------------|-----------------3---5-----------|
B|------0---3---12--12---15-15-----|-----------15--12---------------|---------5---5-----------5---3---|
G|-2---------------------------14--|-------------------14-14-12-----|-12--14--------------------------|
D|---------------------------------|----------------------------14--|---------------------------------|
A|---------------------------------|--------------------------------|---------------------------------|
E|---------------------------------|--------------------------------|---------------------------------|


E|------------------------------------|-------------------------------------|------------------------------|
B|-5----5---5---5--5--0---3--5--3--0--|-------------------------------------|-----3------------------------|
G|------------------------------------|-2---2---2---0-------0---2---4---4---|-4-------4----2---0-----------|
D|------------------------------------|-----------------2-------------------|----------------------2---0---|
A|------------------------------------|-------------------------------------|------------------------------|
E|------------------------------------|-------------------------------------|------------------------------|


E|--------------------|------2--------------------|------3------------3-------|--------------------|
B|--------------------|------4--------------------|------3------------3-------|------10------------|
G|--------------------|------2------------2-------|---------------------------|--------------------|
D|-2------------------|------4--------------------|---------------------------|--------------------|
A|--------------------|---------------------------|---------------------------|--------------------|
E|--------------------|---------------------------|---------------------------|--------------------|


E|------7------------7-------|------3------------3-------|--------------------|--------|
B|------7------------7-------|------3------------3-------|------10------------|--------|
G|---------------------------|---------------------------|--------------------|--------|
D|---------------------------|---------------------------|--------------------|--------|
A|---------------------------|---------------------------|--------------------|--------|
E|---------------------------|---------------------------|--------------------|--------|


E|------7------------7-------|------7------------7-------|------7------------7-------|
B|------7------------7-------|------7------------7-------|------7------------7-------|
G|---------------------------|---------------------------|---------------------------|
D|---------------------------|---------------------------|---------------------------|
A|---------------------------|---------------------------|---------------------------|
E|---------------------------|---------------------------|---------------------------|


E|-------------------12------|------5------------12------|------5------------12------|
B|------12-----------12------|------5------------12------|------5------------12------|
G|------9--------------------|---------------------------|---------------------------|
D|---------------------------|---------------------------|---------------------------|
A|---------------------------|---------------------------|---------------------------|
E|---------------------------|---------------------------|---------------------------|


E|------5------------12------|------12-----------12------|------5------------12------|
B|------5------------0-------|------12-----------12------|------5------------12------|
G|---------------------------|---------------------------|---------------------------|
D|---------------------------|---------------------------|---------------------------|
A|---------------------------|---------------------------|---------------------------|
E|---------------------------|---------------------------|---------------------------|


E|------5------------12------|-------------------12------|-------------2---2------------|
B|------5------------12------|------12-----------12------|---------------------0--------|
G|---------------------------|------9--------------------|---------2----------------4---|
D|---------------------------|---------------------------|-----1------------------------|
A|---------------------------|---------------------------|-2----------------------------|
E|---------------------------|---------------------------|------------------------------|


E|-3-----------3---3-------3-------|-7----------------7--------|-------------2---2---------------|
B|---------3-----------3-----------|----------10--10-----------|---------------------------------|
G|-----4---------------------------|------8--------------------|---------2-----------4---4-------|
D|---------------------------------|-7-------------------------|-----1---------------------------|
A|---------------------------------|---------------------------|-2-------------------------------|
E|---------------------------------|---------------------------|---------------------------------|


E|----------3---3-------3-------|-7----------------7--------|----------7---7------------|
B|----------3---3-------3-------|----------10--10-----------|------------------10-------|
G|------4-----------4-----------|------8----------------8---|-8----8----------------8---|
D|-5----------------------------|---------------------------|---------------------------|
A|------------------------------|---------------------------|---------------------------|
E|------------------------------|---------------------------|---------------------------|


E|----------7---7---------|-------------------2----|-2------|
B|------------------7-----|----------------0-------|--------|
G|-8----8-----------------|-------------2----------|--------|
D|------------------------|----------1-------------|--------|
A|------------------------|-------2----------------|--------|
E|------------------------|------------------------|--------|





Track 2: Robby Krieger - Gtr.2

E|--------|--------|--------|--------|--------|--------|--------|--------|--------|
B|--------|--------|--------|--------|--------|--------|--------|--------|--------|
G|--------|--------|--------|--------|--------|--------|--------|--------|--------|
D|--------|--------|--------|--------|--------|--------|--------|--------|--------|
A|--------|--------|--------|--------|--------|--------|--------|--------|--------|
E|--------|--------|--------|--------|--------|--------|--------|--------|--------|


E|--------|--------|---------------------|--------|--------|---------------------|
B|--------|--------|------10---10--------|--------|--------|------10---10---10---|
G|--------|--------|---------------------|--------|--------|---------------------|
D|--------|--------|---------------------|--------|--------|---------------------|
A|--------|--------|---------------------|--------|--------|---------------------|
E|--------|--------|---------------------|--------|--------|---------------------|


E|------7------------7-------|--------|--------|--------|--------|--------|--------|
B|------7------------7-------|--------|--------|--------|--------|--------|--------|
G|---------------------------|--------|--------|--------|--------|--------|--------|
D|---------------------------|--------|--------|--------|--------|--------|--------|
A|---------------------------|--------|--------|--------|--------|--------|--------|
E|---------------------------|--------|--------|--------|--------|--------|--------|


E|--------|--------|--------|--------|--------|--------|--------|--------|--------|
B|--------|--------|--------|--------|--------|--------|--------|--------|--------|
G|--------|--------|--------|--------|--------|--------|--------|--------|--------|
D|--------|--------|--------|--------|--------|--------|--------|--------|--------|
A|--------|--------|--------|--------|--------|--------|--------|--------|--------|
E|--------|--------|--------|--------|--------|--------|--------|--------|--------|


E|--------|--------|--------|--------|--------|--------|--------|--------|--------|
B|--------|--------|--------|--------|--------|--------|--------|--------|--------|
G|--------|--------|--------|--------|--------|--------|--------|--------|--------|
D|--------|--------|--------|--------|--------|--------|--------|--------|--------|
A|--------|--------|--------|--------|--------|--------|--------|--------|--------|
E|--------|--------|--------|--------|--------|--------|--------|--------|--------|


E|--------|--------|------7------------7-------|--------|--------|--------|--------|
B|--------|--------|------7------------7-------|--------|--------|--------|--------|
G|--------|--------|---------------------------|--------|--------|--------|--------|
D|--------|--------|---------------------------|--------|--------|--------|--------|
A|--------|--------|---------------------------|--------|--------|--------|--------|
E|--------|--------|---------------------------|--------|--------|--------|--------|


E|--------|--------|--------|--------|--------|--------|--------|--------|--------|
B|--------|--------|--------|--------|--------|--------|--------|--------|--------|
G|--------|--------|--------|--------|--------|--------|--------|--------|--------|
D|--------|--------|--------|--------|--------|--------|--------|--------|--------|
A|--------|--------|--------|--------|--------|--------|--------|--------|--------|
E|--------|--------|--------|--------|--------|--------|--------|--------|--------|


E|--------|--------|--------|--------|--------|--------|--------|--------|
B|--------|--------|--------|--------|--------|--------|--------|--------|
G|--------|--------|--------|--------|--------|--------|--------|--------|
D|--------|--------|--------|--------|--------|--------|--------|--------|
A|--------|--------|--------|--------|--------|--------|--------|--------|
E|--------|--------|--------|--------|--------|--------|--------|--------|





Track 3: Robby Krieger - Gtr.1

E|--------|--------|--------|--------|--------|--------|--------|--------|--------|
B|--------|--------|--------|--------|--------|--------|--------|--------|--------|
G|--------|--------|--------|--------|--------|--------|--------|--------|--------|
D|--------|--------|--------|--------|--------|--------|--------|--------|--------|
A|--------|--------|--------|--------|--------|--------|--------|--------|--------|
E|--------|--------|--------|--------|--------|--------|--------|--------|--------|


E|--------|--------|--------|--------|--------|--------|--------|--------|--------|
B|--------|--------|--------|--------|--------|--------|--------|--------|--------|
G|--------|--------|--------|--------|--------|--------|--------|--------|--------|
D|--------|--------|--------|--------|--------|--------|--------|--------|--------|
A|--------|--------|--------|--------|--------|--------|--------|--------|--------|
E|--------|--------|--------|--------|--------|--------|--------|--------|--------|


E|--------|--------|--------|--------|--------|--------|--------|--------|--------|
B|--------|--------|--------|--------|--------|--------|--------|--------|--------|
G|--------|--------|--------|--------|--------|--------|--------|--------|--------|
D|--------|--------|--------|--------|--------|--------|--------|--------|--------|
A|--------|--------|--------|--------|--------|--------|--------|--------|--------|
E|--------|--------|--------|--------|--------|--------|--------|--------|--------|


E|--------|--------|--------|--------|--------|--------|--------|--------|--------|
B|--------|--------|--------|--------|--------|--------|--------|--------|--------|
G|--------|--------|--------|--------|--------|--------|--------|--------|--------|
D|--------|--------|--------|--------|--------|--------|--------|--------|--------|
A|--------|--------|--------|--------|--------|--------|--------|--------|--------|
E|--------|--------|--------|--------|--------|--------|--------|--------|--------|


E|--------|--------|--------|--------|--------|--------|--------|--------|--------|
B|--------|--------|--------|--------|--------|--------|--------|--------|--------|
G|--------|--------|--------|--------|--------|--------|--------|--------|--------|
D|--------|--------|--------|--------|--------|--------|--------|--------|--------|
A|--------|--------|--------|--------|--------|--------|--------|--------|--------|
E|--------|--------|--------|--------|--------|--------|--------|--------|--------|


E|--------|--------|--------|--------|--------|--------|--------|--------|--------|
B|--------|--------|--------|--------|--------|--------|--------|--------|--------|
G|--------|--------|--------|--------|--------|--------|--------|--------|--------|
D|--------|--------|--------|--------|--------|--------|--------|--------|--------|
A|--------|--------|--------|--------|--------|--------|--------|--------|--------|
E|--------|--------|--------|--------|--------|--------|--------|--------|--------|


E|--------|--------|--------|--------|--------|--------|--------|--------|--------|
B|--------|--------|--------|--------|--------|--------|--------|--------|--------|
G|--------|--------|--------|--------|--------|--------|--------|--------|--------|
D|--------|--------|--------|--------|--------|--------|--------|--------|--------|
A|--------|--------|--------|--------|--------|--------|--------|--------|--------|
E|--------|--------|--------|--------|--------|--------|--------|--------|--------|


E|--------|
B|--------|
G|--------|
D|--------|
A|--------|
E|--------|





Track 4: Robby Krieger - Gtr.1

E|--------|--------|--------|--------|--------|--------|--------|--------|--------|
B|--------|--------|--------|--------|--------|--------|--------|--------|--------|
G|--------|--------|--------|--------|--------|--------|--------|--------|--------|
D|--------|--------|--------|--------|--------|--------|--------|--------|--------|
A|--------|--------|--------|--------|--------|--------|--------|--------|--------|
E|--------|--------|--------|--------|--------|--------|--------|--------|--------|


E|--------|--------|--------|--------|--------|--------|--------|--------|--------|
B|--------|--------|--------|--------|--------|--------|--------|--------|--------|
G|--------|--------|--------|--------|--------|--------|--------|--------|--------|
D|--------|--------|--------|--------|--------|--------|--------|--------|--------|
A|--------|--------|--------|--------|--------|--------|--------|--------|--------|
E|--------|--------|--------|--------|--------|--------|--------|--------|--------|


E|--------|--------|--------|--------|--------|--------|--------|--------|--------|
B|--------|--------|--------|--------|--------|--------|--------|--------|--------|
G|--------|--------|--------|--------|--------|--------|--------|--------|--------|
D|--------|--------|--------|--------|--------|--------|--------|--------|--------|
A|--------|--------|--------|--------|--------|--------|--------|--------|--------|
E|--------|--------|--------|--------|--------|--------|--------|--------|--------|


E|--------|--------|--------|--------|--------|--------|--------|--------|--------|
B|--------|--------|--------|--------|--------|--------|--------|--------|--------|
G|--------|--------|--------|--------|--------|--------|--------|--------|--------|
D|--------|--------|--------|--------|--------|--------|--------|--------|--------|
A|--------|--------|--------|--------|--------|--------|--------|--------|--------|
E|--------|--------|--------|--------|--------|--------|--------|--------|--------|


E|--------|--------|---------------------|--------|--------|---------------------|
B|--------|--------|------10---10--------|--------|--------|------10---10---10---|
G|--------|--------|---------------------|--------|--------|---------------------|
D|--------|--------|---------------------|--------|--------|---------------------|
A|--------|--------|---------------------|--------|--------|---------------------|
E|--------|--------|---------------------|--------|--------|---------------------|


E|--------|--------|--------|--------|--------|--------|--------|--------|--------|
B|--------|--------|--------|--------|--------|--------|--------|--------|--------|
G|--------|--------|--------|--------|--------|--------|--------|--------|--------|
D|--------|--------|--------|--------|--------|--------|--------|--------|--------|
A|--------|--------|--------|--------|--------|--------|--------|--------|--------|
E|--------|--------|--------|--------|--------|--------|--------|--------|--------|


E|--------|--------|--------|--------|--------|--------|--------|--------|--------|
B|--------|--------|--------|--------|--------|--------|--------|--------|--------|
G|--------|--------|--------|--------|--------|--------|--------|--------|--------|
D|--------|--------|--------|--------|--------|--------|--------|--------|--------|
A|--------|--------|--------|--------|--------|--------|--------|--------|--------|
E|--------|--------|--------|--------|--------|--------|--------|--------|--------|


E|--------|--------|--------|--------|
B|--------|--------|--------|--------|
G|--------|--------|--------|--------|
D|--------|--------|--------|--------|
A|--------|--------|--------|--------|
E|--------|--------|--------|--------|





Track 5: Robby Krieger - Gtr.1

E|--------|--------|--------|--------|--------|--------|--------|--------|--------|
B|--------|--------|--------|--------|--------|--------|--------|--------|--------|
G|--------|--------|--------|--------|--------|--------|--------|--------|--------|
D|--------|--------|--------|--------|--------|--------|--------|--------|--------|
A|--------|--------|--------|--------|--------|--------|--------|--------|--------|
E|--------|--------|--------|--------|--------|--------|--------|--------|--------|


E|--------|--------|--------|--------|--------|--------|--------|--------|--------|
B|--------|--------|--------|--------|--------|--------|--------|--------|--------|
G|--------|--------|--------|--------|--------|--------|--------|--------|--------|
D|--------|--------|--------|--------|--------|--------|--------|--------|--------|
A|--------|--------|--------|--------|--------|--------|--------|--------|--------|
E|--------|--------|--------|--------|--------|--------|--------|--------|--------|


E|--------|--------|--------|--------|--------|--------|--------|--------|--------|
B|--------|--------|--------|--------|--------|--------|--------|--------|--------|
G|--------|--------|--------|--------|--------|--------|--------|--------|--------|
D|--------|--------|--------|--------|--------|--------|--------|--------|--------|
A|--------|--------|--------|--------|--------|--------|--------|--------|--------|
E|--------|--------|--------|--------|--------|--------|--------|--------|--------|


E|--------|--------|--------|--------|--------|--------|--------|--------|--------|
B|--------|--------|--------|--------|--------|--------|--------|--------|--------|
G|--------|--------|--------|--------|--------|--------|--------|--------|--------|
D|--------|--------|--------|--------|--------|--------|--------|--------|--------|
A|--------|--------|--------|--------|--------|--------|--------|--------|--------|
E|--------|--------|--------|--------|--------|--------|--------|--------|--------|


E|--------|--------|--------|--------|--------|--------|--------|--------|--------|
B|--------|--------|--------|--------|--------|--------|--------|--------|--------|
G|--------|--------|--------|--------|--------|--------|--------|--------|--------|
D|--------|--------|--------|--------|--------|--------|--------|--------|--------|
A|--------|--------|--------|--------|--------|--------|--------|--------|--------|
E|--------|--------|--------|--------|--------|--------|--------|--------|--------|


E|--------|--------|--------|--------|--------|--------|--------|--------|--------|
B|--------|--------|--------|--------|--------|--------|--------|--------|--------|
G|--------|--------|--------|--------|--------|--------|--------|--------|--------|
D|--------|--------|--------|--------|--------|--------|--------|--------|--------|
A|--------|--------|--------|--------|--------|--------|--------|--------|--------|
E|--------|--------|--------|--------|--------|--------|--------|--------|--------|


E|--------|--------|--------|--------|--------|--------|--------|--------|--------|
B|--------|--------|--------|--------|--------|--------|--------|--------|--------|
G|--------|--------|--------|--------|--------|--------|--------|--------|--------|
D|--------|--------|--------|--------|--------|--------|--------|--------|--------|
A|--------|--------|--------|--------|--------|--------|--------|--------|--------|
E|--------|--------|--------|--------|--------|--------|--------|--------|--------|


E|--------|
B|--------|
G|--------|
D|--------|
A|--------|
E|--------|





Track 6: Doug Lubahn - Bass

G|--------|--------|--------|--------|--------|--------|--------|--------|--------|
D|--------|--------|--------|--------|--------|--------|--------|--------|--------|
A|--------|--------|--------|--------|--------|--------|--------|--------|--------|
E|--------|--------|--------|--------|--------|--------|--------|--------|--------|


G|---------------------|------------------------|------4----------|---------------------|
D|------4---------4----|------------------------|-----------------|------4---------4----|
A|-2---------2---------|------5------------0----|-2---------------|-2---------2---------|
E|---------------------|-3--------2---3---------|-----------------|---------------------|


G|------------------------|------4----------|------------------------|------------------------|
D|------------------------|-----------------|------4------------4----|------4------------4----|
A|------5------------0----|-2---------------|-2--------5---2---------|-2--------5---2---------|
E|-3--------2---3---------|-----------------|------------------------|------------------------|


G|------------------------|---------------------------------|------------------------|
D|------4------------4----|---------------------------------|-----------2----0-------|
A|-2--------5---2---------|-2---2---0---0-------------------|------2-------------2---|
E|------------------------|-----------------3---3---2---2---|-0----------------------|


G|------------------------|------------------------|---------------------------|------------------------|
D|-----------2------------|-----------2------------|------1---4-------2--------|-----------2----0-------|
A|-0----3---------2-------|-0----3---------2-------|-2------------2-------2----|------2-------------2---|
E|--------------------2---|--------------------2---|---------------------------|-0----------------------|


G|------------------------|------------------------|---------------------------|--------|
D|-----------2------------|-----------2------------|------1---4-------2--------|--------|
A|-0----3---------2-------|-0----3---------2-------|-2------------2-------2----|--------|
E|--------------------2---|--------------------2---|---------------------------|--------|


G|-----------4------------|-----------4------------|---------------------------|---------------------------|
D|------4-------------4---|------4-------------4---|-----------2---2---0-------|-----------2-------2---4---|
A|-2--------------0-------|-2--------------0-------|------2----------------2---|------2--------0-----------|
E|------------------------|------------------------|-0-------------------------|-0-------------------------|


G|-----------4------------|-----------4------------|---------------------------|--------|
D|------4-------------4---|------4-------------4---|-----------2---2---0-------|--------|
A|-2--------------0-------|-2--------------0-------|------2----------------2---|--------|
E|------------------------|------------------------|-0-------------------------|-0------|


G|---------------------|------------------------|------4----------|---------------------|
D|------4---------4----|------------------------|-----------------|------4---------4----|
A|-2---------2---------|------5------------0----|-2---------------|-2---------2---------|
E|---------------------|-3--------2---3---------|-----------------|---------------------|


G|------------------------|------4----------|------------------------|------------------------|
D|------------------------|-----------------|------4------------4----|------4------------4----|
A|------5------------0----|-2---------------|-2--------5---2---------|-2--------5---2---------|
E|-3--------2---3---------|-----------------|------------------------|------------------------|


G|------------------------|---------------------------------|------------------------|
D|------4------------4----|---------------------------------|-----------2----0-------|
A|-2--------5---2---------|-2---2---0---0-------------------|------2-------------2---|
E|------------------------|-----------------3---3---2---2---|-0----------------------|


G|------------------------|------------------------|---------------------------|------------------------|
D|-----------2------------|-----------2------------|------1---4-------2--------|-----------2----0-------|
A|-0----3---------2-------|-0----3---------2-------|-2------------2-------2----|------2-------------2---|
E|--------------------2---|--------------------2---|---------------------------|-0----------------------|


G|------------------------|---------------------------|------------------------------|
D|-----------2------------|-----------2---2-----------|---------1---4-------2--------|
A|-0----3---------2-------|-0----3------------2---2---|-2---2-----------2-------2----|
E|--------------------2---|---------------------------|------------------------------|


G|-----------4---------|---------------------------|---------------------|---------------------|
D|------4---------4----|---------------------------|------4---------4----|------4---------4----|
A|-2-------------------|------5---------------0----|-2---------2---------|-2---------2---------|
E|---------------------|-3------------2---3--------|---------------------|---------------------|


G|------------------------|---------------------|---------------------|---------------------|
D|------------------------|------4---------4----|------4---------4----|------4---------4----|
A|------5---------5---5---|-2---------2---------|-2---------2---------|-2---------2---------|
E|-3---------3------------|---------------------|---------------------|---------------------|


G|--------|--------|
D|--------|--------|
A|--------|--------|
E|--------|--------|