Site menu:

    

Browse: 0-9 A B C D E F G H I J K L N O P Q R S T U V W X Y Z

the doors - light my fire:



Title: Light My Fire
Artist: 
Album: The Doors
Author: The Doors


Track 1: Organ

E|-----------------------------------|---------------13----------------------|---------------------------------------|
B|-12--------12--15--13--12----------|-----------13------15-13---------------|---------------13----------------------|
G|-----12-14-----------------14--12--|-14-----14---------------15-12-13--12--|-13--12-13-15------15-13-12------------|
D|-----------------------------------|-----15--------------------------------|----------------------------15-13--15--|
A|-----------------------------------|---------------------------------------|---------------------------------------|
E|-----------------------------------|---------------------------------------|---------------------------------------|


E|-----------------12----------12--|---------------------12------12--|--------|--------|
B|---------14--------------14------|---------14------14--------------|--------|--------|
G|-14--14------14------14----------|-14--14------14----------14------|--------|--------|
D|---------------------------------|---------------------------------|--------|--------|
A|---------------------------------|---------------------------------|--------|--------|
E|---------------------------------|---------------------------------|--------|--------|


E|--------|--------|--------|--------|--------|--------|--------|--------|--------|
B|--------|--------|--------|--------|--------|--------|--------|--------|--------|
G|--------|--------|--------|--------|--------|--------|--------|--------|--------|
D|--------|--------|--------|--------|--------|--------|--------|--------|--------|
A|--------|--------|--------|--------|--------|--------|--------|--------|--------|
E|--------|--------|--------|--------|--------|--------|--------|--------|--------|


E|--------|--------|--------|--------|--------|--------|--------|--------|--------|
B|--------|--------|--------|--------|--------|--------|--------|--------|--------|
G|--------|--------|--------|--------|--------|--------|--------|--------|--------|
D|--------|--------|--------|--------|--------|--------|--------|--------|--------|
A|--------|--------|--------|--------|--------|--------|--------|--------|--------|
E|--------|--------|--------|--------|--------|--------|--------|--------|--------|


E|--------|--------|--------|--------|--------|--------|--------|--------|--------|
B|--------|--------|--------|--------|--------|--------|--------|--------|--------|
G|--------|--------|--------|--------|--------|--------|--------|--------|--------|
D|--------|--------|--------|--------|--------|--------|--------|--------|--------|
A|--------|--------|--------|--------|--------|--------|--------|--------|--------|
E|--------|--------|--------|--------|--------|--------|--------|--------|--------|


E|--------|--------|--------|--------|--------|--------|--------|--------|--------|
B|--------|--------|--------|--------|--------|--------|--------|--------|--------|
G|--------|--------|--------|--------|--------|--------|--------|--------|--------|
D|--------|--------|--------|--------|--------|--------|--------|--------|--------|
A|--------|--------|--------|--------|--------|--------|--------|--------|--------|
E|--------|--------|--------|--------|--------|--------|--------|--------|--------|


E|--------|--------|--------|--------|--------|--------|--------|--------|--------|
B|--------|--------|--------|--------|--------|--------|--------|--------|--------|
G|--------|--------|--------|--------|--------|--------|--------|--------|--------|
D|--------|--------|--------|--------|--------|--------|--------|--------|--------|
A|--------|--------|--------|--------|--------|--------|--------|--------|--------|
E|--------|--------|--------|--------|--------|--------|--------|--------|--------|


E|--------|--------|--------|--------|--------|--------|--------|--------|--------|
B|--------|--------|--------|--------|--------|--------|--------|--------|--------|
G|--------|--------|--------|--------|--------|--------|--------|--------|--------|
D|--------|--------|--------|--------|--------|--------|--------|--------|--------|
A|--------|--------|--------|--------|--------|--------|--------|--------|--------|
E|--------|--------|--------|--------|--------|--------|--------|--------|--------|


E|--------|--------|--------|--------|--------|--------|--------|--------|--------|
B|--------|--------|--------|--------|--------|--------|--------|--------|--------|
G|--------|--------|--------|--------|--------|--------|--------|--------|--------|
D|--------|--------|--------|--------|--------|--------|--------|--------|--------|
A|--------|--------|--------|--------|--------|--------|--------|--------|--------|
E|--------|--------|--------|--------|--------|--------|--------|--------|--------|


E|--------|--------|--------|--------|--------|--------|--------|--------|--------|
B|--------|--------|--------|--------|--------|--------|--------|--------|--------|
G|--------|--------|--------|--------|--------|--------|--------|--------|--------|
D|--------|--------|--------|--------|--------|--------|--------|--------|--------|
A|--------|--------|--------|--------|--------|--------|--------|--------|--------|
E|--------|--------|--------|--------|--------|--------|--------|--------|--------|


E|--------|--------|--------|--------|--------|--------|--------|--------|--------|
B|--------|--------|--------|--------|--------|--------|--------|--------|--------|
G|--------|--------|--------|--------|--------|--------|--------|--------|--------|
D|--------|--------|--------|--------|--------|--------|--------|--------|--------|
A|--------|--------|--------|--------|--------|--------|--------|--------|--------|
E|--------|--------|--------|--------|--------|--------|--------|--------|--------|


E|--------|--------|--------|--------|--------|--------|--------|--------|--------|
B|--------|--------|--------|--------|--------|--------|--------|--------|--------|
G|--------|--------|--------|--------|--------|--------|--------|--------|--------|
D|--------|--------|--------|--------|--------|--------|--------|--------|--------|
A|--------|--------|--------|--------|--------|--------|--------|--------|--------|
E|--------|--------|--------|--------|--------|--------|--------|--------|--------|


E|--------|--------|--------|--------|--------|--------|--------|--------|--------|
B|--------|--------|--------|--------|--------|--------|--------|--------|--------|
G|--------|--------|--------|--------|--------|--------|--------|--------|--------|
D|--------|--------|--------|--------|--------|--------|--------|--------|--------|
A|--------|--------|--------|--------|--------|--------|--------|--------|--------|
E|--------|--------|--------|--------|--------|--------|--------|--------|--------|


E|--------|--------|--------|--------|--------|--------|--------|--------|--------|
B|--------|--------|--------|--------|--------|--------|--------|--------|--------|
G|--------|--------|--------|--------|--------|--------|--------|--------|--------|
D|--------|--------|--------|--------|--------|--------|--------|--------|--------|
A|--------|--------|--------|--------|--------|--------|--------|--------|--------|
E|--------|--------|--------|--------|--------|--------|--------|--------|--------|


E|--------|--------|--------|--------|--------|--------|--------|--------|--------|
B|--------|--------|--------|--------|--------|--------|--------|--------|--------|
G|--------|--------|--------|--------|--------|--------|--------|--------|--------|
D|--------|--------|--------|--------|--------|--------|--------|--------|--------|
A|--------|--------|--------|--------|--------|--------|--------|--------|--------|
E|--------|--------|--------|--------|--------|--------|--------|--------|--------|


E|--------|--------|--------|--------|--------|--------|--------|--------|--------|
B|--------|--------|--------|--------|--------|--------|--------|--------|--------|
G|--------|--------|--------|--------|--------|--------|--------|--------|--------|
D|--------|--------|--------|--------|--------|--------|--------|--------|--------|
A|--------|--------|--------|--------|--------|--------|--------|--------|--------|
E|--------|--------|--------|--------|--------|--------|--------|--------|--------|


E|--------|--------|--------|--------|--------|--------|--------|--------|--------|
B|--------|--------|--------|--------|--------|--------|--------|--------|--------|
G|--------|--------|--------|--------|--------|--------|--------|--------|--------|
D|--------|--------|--------|--------|--------|--------|--------|--------|--------|
A|--------|--------|--------|--------|--------|--------|--------|--------|--------|
E|--------|--------|--------|--------|--------|--------|--------|--------|--------|


E|--------|--------|--------|--------|--------|--------|--------|--------|--------|
B|--------|--------|--------|--------|--------|--------|--------|--------|--------|
G|--------|--------|--------|--------|--------|--------|--------|--------|--------|
D|--------|--------|--------|--------|--------|--------|--------|--------|--------|
A|--------|--------|--------|--------|--------|--------|--------|--------|--------|
E|--------|--------|--------|--------|--------|--------|--------|--------|--------|


E|--------|--------|--------|--------|--------|--------|--------|--------|--------|
B|--------|--------|--------|--------|--------|--------|--------|--------|--------|
G|--------|--------|--------|--------|--------|--------|--------|--------|--------|
D|--------|--------|--------|--------|--------|--------|--------|--------|--------|
A|--------|--------|--------|--------|--------|--------|--------|--------|--------|
E|--------|--------|--------|--------|--------|--------|--------|--------|--------|


E|--------|--------|--------|--------|--------|--------|--------|--------|--------|
B|--------|--------|--------|--------|--------|--------|--------|--------|--------|
G|--------|--------|--------|--------|--------|--------|--------|--------|--------|
D|--------|--------|--------|--------|--------|--------|--------|--------|--------|
A|--------|--------|--------|--------|--------|--------|--------|--------|--------|
E|--------|--------|--------|--------|--------|--------|--------|--------|--------|


E|--------|--------|--------|--------|--------|--------|-----------------------------------|
B|--------|--------|--------|--------|--------|--------|-12--------12--15--13--12----------|
G|--------|--------|--------|--------|--------|--------|-----12-14-----------------14--12--|
D|--------|--------|--------|--------|--------|--------|-----------------------------------|
A|--------|--------|--------|--------|--------|--------|-----------------------------------|
E|--------|--------|--------|--------|--------|--------|-----------------------------------|


E|---------------13----------------------|---------------------------------------|
B|-----------13------15-13---------------|--------13---------13------------------|
G|-14-----14---------------15-12-13--12--|-13--15----15--13-----15-13-12---------|
D|-----15--------------------------------|-------------------------------15--13--|
A|---------------------------------------|---------------------------------------|
E|---------------------------------------|---------------------------------------|


E|---------------------------------|-------------17----------17------|--------|--------|
B|---------14------14--17------14--|-----14--17------14--17------17--|--------|--------|
G|-14--14------14----------14------|-14------------------------------|--------|--------|
D|---------------------------------|---------------------------------|--------|--------|
A|---------------------------------|---------------------------------|--------|--------|
E|---------------------------------|---------------------------------|--------|--------|


E|--------|--------|--------|--------|--------|--------|--------|--------|--------|
B|--------|--------|--------|--------|--------|--------|--------|--------|--------|
G|--------|--------|--------|--------|--------|--------|--------|--------|--------|
D|--------|--------|--------|--------|--------|--------|--------|--------|--------|
A|--------|--------|--------|--------|--------|--------|--------|--------|--------|
E|--------|--------|--------|--------|--------|--------|--------|--------|--------|


E|--------|--------|--------|--------|--------|--------|--------|--------|--------|
B|--------|--------|--------|--------|--------|--------|--------|--------|--------|
G|--------|--------|--------|--------|--------|--------|--------|--------|--------|
D|--------|--------|--------|--------|--------|--------|--------|--------|--------|
A|--------|--------|--------|--------|--------|--------|--------|--------|--------|
E|--------|--------|--------|--------|--------|--------|--------|--------|--------|


E|--------|--------|--------|--------|--------|--------|--------|--------|--------|
B|--------|--------|--------|--------|--------|--------|--------|--------|--------|
G|--------|--------|--------|--------|--------|--------|--------|--------|--------|
D|--------|--------|--------|--------|--------|--------|--------|--------|--------|
A|--------|--------|--------|--------|--------|--------|--------|--------|--------|
E|--------|--------|--------|--------|--------|--------|--------|--------|--------|


E|--------|--------|--------|--------|--------|--------|------------------|-----------------------------------|
B|--------|--------|--------|--------|--------|--------|--------12--------|-12--15--13--12--------------------|
G|--------|--------|--------|--------|--------|--------|------------12-14-|-----------------14--12--14-----14-|
D|--------|--------|--------|--------|--------|--------|------------------|-----------------------------15----|
A|--------|--------|--------|--------|--------|--------|------------------|-----------------------------------|
E|--------|--------|--------|--------|--------|--------|------------------|-----------------------------------|


E|-----13--------------------------------|----------------------------------|-------------|
B|-13------15-13----------------------13-|-----------------------------14---|--------14---|
G|---------------15-12-13--12--13--15----|-15--13--12-13-12------------14---|--------14---|
D|---------------------------------------|------------------15-13--15--14---|--------14---|
A|---------------------------------------|----------------------------------|-------------|
E|---------------------------------------|----------------------------------|-------------|


E|-----------------|
B|-----------------|
G|-----------------|
D|-----------------|
A|-----------------|
E|-----------------|





Track 2: Guitar

E|--------|--------|--------|--------|--------|-----------5---7---7------------|------2----2---------------|
B|--------|--------|--------|--------|--------|--------5--------------5--------|---------------2-----------|
G|--------|--------|--------|--------|--------|-----5---------------------5----|-----------------------2---|
D|--------|--------|--------|--------|--------|--------------------------------|-4-----------------4-------|
A|--------|--------|--------|--------|--------|--------------------------------|---------------------------|
E|--------|--------|--------|--------|--------|--------------------------------|---------------------------|


E|---------0----0---------------|-------------2---2-----------2---|-------------7---7------------|
B|-----1--------------------0---|-------------------------2-------|---------5-----------0----2---|
G|-2----------------2---2-------|---------2-----------2-----------|-----5------------------------|
D|------------------------------|-----4---------------------------|------------------------------|
A|------------------------------|---------------------------------|-0----------------------------|
E|------------------------------|---------------------------------|------------------------------|


E|-------------2---2---------------|---------0--------------------|-------------2-------------------|
B|-2-------------------2-----------|---------------------0----2---|-2-------------------2-----------|
G|---------2-------------------2---|-----2-----------2------------|---------2---------------2-------|
D|-----4-------------------4-------|-------------2----------------|-----4-----------4-----------4---|
A|---------------------------------|-0----------------------------|---------------------------------|
E|---------------------------------|------------------------------|---------------------------------|


E|---------3---------------5-------|-------------3---3---2-----------|-----7-------7-------5--------|
B|-------------3---------------5---|---------3---3---3---3-----------|---------8----------------8---|
G|-----4---------------6-----------|-2---2---2---2---2-------2-------|-----------------6------------|
D|-5-------------------------------|-0---0-------------------0---8---|-9----------------------------|
A|---------------------------------|---------------------------------|------------------------------|
E|-----------------5---------------|---------------------------------|------------------------------|


E|--------------7---------------|-3---3---3--------------------|-----0-----------0------------|
B|-7--------------------7-------|-3---3---3---0---7---7---7----|-----0-----------0--------3---|
G|-7----7-----------4-----------|-4---4---4---0---7---7---7----|-------------1--------1---1---|
D|-7----------------------------|-----------------7---7---7----|---------2------------2-------|
A|-5--------6---------------5---|-5-------5-------5---5---5----|------------------------------|
E|------------------------------|------------------------------|-0----------------------------|


E|-----0-------0-------------|-------------7---7---------------|---------2-----------------------|
B|-3-----------0-------3-----|---------5-----------5-------2---|-2-------------------2-----------|
G|-1-------1-----------1-----|-----5-------------------0-------|-----------------2-----------2---|
D|---------------------2-----|---------------------------------|-----4-------4-----------4-------|
A|---------------------------|---------------------------------|---------------------------------|
E|-----------------0---------|---------------------------------|---------------------------------|


E|---------0----0-----------------|-------------2---2---------------|---------0----0------------|
B|------------------0-------0--2--|-2-------------------2-----------|------------------0----0---|
G|-----2--------------------------|---------2-------------------2---|-----2---------------------|
D|----------------------2---------|-----4-------------------4-------|---------------------------|
A|-0------------------------------|---------------------------------|-0-------------------------|
E|--------------------------------|---------------------------------|---------------------------|


E|-------------2---2---------------|---------0----0---------------|-------------2-------------------|
B|-2-------------------2-----------|----------------------0---3---|-2-------------------2-----------|
G|---------2-------------------2---|-----2------------2-----------|---------2-------------------2---|
D|-----4-------------------4-------|------------------------------|-----4-----------4-------4-------|
A|---------------------------------|-0----------------------------|---------------------------------|
E|---------------------------------|------------------------------|---------------------------------|


E|---------3-----------5-----------|-2-----------3---3---2-----------|-3---3---3---3-------------------|
B|-----3---3---3---5---5---5-------|-3-------3---3---3---3-------3---|-3---3---3---3-------------------|
G|-----4---4---4---6---6---6---0---|-2---2---2---2---2---2---2---2---|-4---4---4---4-------2-------0---|
D|-----5-------5---7-------7-------|-0-------------------0---0-------|-5---5---5---5-----------2-------|
A|---------------------------------|---------------------------------|-----------------0---------------|
E|-3---------------5---------------|---------------------------------|---------------------------------|


E|-2---2---2--------7--------|-3---3---3-----------------------|-----0-----------------------0---|
B|-3---3---3-----------------|-3---3-----------7---7---7-------|-----0-----------------------0---|
G|-2---2---2----8------------|-4---4-------4---7---7---7---0---|-1-----------1---------------1---|
D|-0---0---0-------------9---|-5---5-----------7---7---7-------|---------2-------2---2---2-------|
A|---------------------------|-----------------5---5---5-------|-----------------2-------2-------|
E|---------------------------|---------------------------------|-------------------------0-------|


E|-0----------------------|--------|--------|--------|--------|--------|--------|--------|
B|-0----------------------|--------|--------|--------|--------|--------|--------|--------|
G|-1-----------------1----|--------|--------|--------|--------|--------|--------|--------|
D|-------2-------2--------|--------|--------|--------|--------|--------|--------|--------|
A|-----------2------------|--------|--------|--------|--------|--------|--------|--------|
E|------------------------|--------|--------|--------|--------|--------|--------|--------|


E|--------|--------|--------|--------|--------|--------|--------|--------|--------|
B|--------|--------|--------|--------|--------|--------|--------|--------|--------|
G|--------|--------|--------|--------|--------|--------|--------|--------|--------|
D|--------|--------|--------|--------|--------|--------|--------|--------|--------|
A|--------|--------|--------|--------|--------|--------|--------|--------|--------|
E|--------|--------|--------|--------|--------|--------|--------|--------|--------|


E|--------|--------|--------|--------|--------|--------|--------|--------|--------|
B|--------|--------|--------|--------|--------|--------|--------|--------|--------|
G|--------|--------|--------|--------|--------|--------|--------|--------|--------|
D|--------|--------|--------|--------|--------|--------|--------|--------|--------|
A|--------|--------|--------|--------|--------|--------|--------|--------|--------|
E|--------|--------|--------|--------|--------|--------|--------|--------|--------|


E|--------|--------|--------|--------|--------|--------|--------|--------|--------|
B|--------|--------|--------|--------|--------|--------|--------|--------|--------|
G|--------|--------|--------|--------|--------|--------|--------|--------|--------|
D|--------|--------|--------|--------|--------|--------|--------|--------|--------|
A|--------|--------|--------|--------|--------|--------|--------|--------|--------|
E|--------|--------|--------|--------|--------|--------|--------|--------|--------|


E|--------|--------|--------|--------|--------|--------|--------|--------|--------|
B|--------|--------|--------|--------|--------|--------|--------|--------|--------|
G|--------|--------|--------|--------|--------|--------|--------|--------|--------|
D|--------|--------|--------|--------|--------|--------|--------|--------|--------|
A|--------|--------|--------|--------|--------|--------|--------|--------|--------|
E|--------|--------|--------|--------|--------|--------|--------|--------|--------|


E|--------|--------|--------|--------|--------|--------|--------|--------|--------|
B|--------|--------|--------|--------|--------|--------|--------|--------|--------|
G|--------|--------|--------|--------|--------|--------|--------|--------|--------|
D|--------|--------|--------|--------|--------|--------|--------|--------|--------|
A|--------|--------|--------|--------|--------|--------|--------|--------|--------|
E|--------|--------|--------|--------|--------|--------|--------|--------|--------|


E|--------|--------|--------|--------|--------|--------|--------|--------|--------|
B|--------|--------|--------|--------|--------|--------|--------|--------|--------|
G|--------|--------|--------|--------|--------|--------|--------|--------|--------|
D|--------|--------|--------|--------|--------|--------|--------|--------|--------|
A|--------|--------|--------|--------|--------|--------|--------|--------|--------|
E|--------|--------|--------|--------|--------|--------|--------|--------|--------|


E|--------|--------|--------|--------|--------|--------|--------|--------|-----------3----5---|
B|--------|--------|--------|--------|--------|--------|--------|--------|--------------------|
G|--------|--------|--------|--------|--------|--------|--------|--------|--------------------|
D|--------|--------|--------|--------|--------|--------|--------|--------|--------------------|
A|--------|--------|--------|--------|--------|--------|--------|--------|--------------------|
E|--------|--------|--------|--------|--------|--------|--------|--------|--------------------|


E|-7-----8---7--8--7--5------5---|-5---------7--8--7--5------5---|-5-----0---2--3--2--0------0---|
B|-----------------------8-------|-------8---------------8-------|-----------------------3---1---|
G|-------------------------------|-------------------------------|-------------------------------|
D|-------------------------------|-------------------------------|-------------------------------|
A|-------------------------------|-------------------------------|-------------------------------|
E|-------------------------------|-------------------------------|-------------------------------|


E|-0-----0---5-------5---|-7-----7---8----7---|-7---8--7--5---------|--------------------|
B|-1-----1-------8-------|--------------------|--------------8------|-7--8--7--5---------|
G|-----------------------|--------------------|---------------------|-------------7------|
D|-----------------------|--------------------|---------------------|--------------------|
A|-----------------------|--------------------|---------------------|--------------------|
E|-----------------------|--------------------|---------------------|--------------------|


E|------------------------|-----------------------5--6-----------|-----------------------5--6-----------|
B|------------------------|--------------5--6--7--------7--------|--------------5--6--7--------7--------|
G|-7--8--7--5-------------|-----5--6--7--------------------------|-----5--6--7--------------------------|
D|-------------7----------|--------------------------------------|--------------------------------------|
A|------------------------|--------------------------------------|--------------------------------------|
E|------------------------|--------------------------------------|--------------------------------------|


E|----------5-----5---7---8--5------5---------|----------------------------------5---|
B|-------------7----------------7-------7--8--|-----5--------------------------------|
G|-5--6--7------------------------------------|-7-------7---8--7--5------5---7-------|
D|--------------------------------------------|----------------------7---------------|
A|--------------------------------------------|--------------------------------------|
E|--------------------------------------------|--------------------------------------|


E|-5--------------------5-------|--------------------|-----8---5---8---5------8--------|
B|-----7----5---5---------------|--------------------|-----8---5---8---5------8--------|
G|------------------7-----------|-----5---7----------|---------------------------------|
D|--------------------------7---|-7------------------|---------------------------------|
A|------------------------------|--------------------|---------------------------------|
E|------------------------------|--------------------|---------------------------------|


E|-----8---5---8--5------8--------|-----8---5---8--5------8--------|-----8---5---8--5------5---3---3---|
B|-----8---5---8--5------8--------|-----8---5---8--5------8--------|-----8---5---8--5------5---3---3---|
G|--------------------------------|--------------------------------|-----------------------------------|
D|--------------------------------|--------------------------------|-----------------------------------|
A|--------------------------------|--------------------------------|-----------------------------------|
E|--------------------------------|--------------------------------|-----------------------------------|


E|-3---5---5---3---3---5---5-------|-5-----5---0----1---|-1---3----1--3--1--0-------------------|
B|-3---5---5---3---3---5-------5---|-5-----5------------|-----------------------3---1--3--1--0--|
G|---------------------------------|--------------------|---------------------------------------|
D|---------------------------------|--------------------|---------------------------------------|
A|---------------------------------|--------------------|---------------------------------------|
E|---------------------------------|--------------------|---------------------------------------|


E|-------------------------|---------------------------------------------|------------------5---7----|
B|-------------------------|---------------------------------------------|---------------------------|
G|-2-----4---4--2--0-------|-2--4--2--0------2--4--2--0------2--4--2--0--|---------------------------|
D|--------------------2----|-------------2---------------2---------------|-2-------------------------|
A|-------------------------|---------------------------------------------|---------------------------|
E|-------------------------|---------------------------------------------|---------------------------|


E|-7---5---------------------|---------------------5----5--7--|-7---8-----10----12--|
B|---------7----7---5--------|-------------5---7--------------|---------------------|
G|-----------------------7---|-7---5---7----------------------|---------------------|
D|---------------------------|--------------------------------|---------------------|
A|---------------------------|--------------------------------|---------------------|
E|---------------------------|--------------------------------|---------------------|


E|-12---12------------12--|-12--13---15--15--13-15-13-12--10--|-10--8----10-8--7---------------|
B|------------------------|-----------------------------------|--------------------10--8---10--|
G|------------------------|-----------------------------------|--------------------------------|
D|------------------------|-----------------------------------|--------------------------------|
A|------------------------|-----------------------------------|--------------------------------|
E|------------------------|-----------------------------------|--------------------------------|


E|-7--8--10-8--7-------8--10-8--7-------|-12--13---15--13-15-13-12------|-7---8----10--8--10-8--7-------|
B|----------------10---------------10---|--------------------------15---|--------------------------10---|
G|--------------------------------------|-------------------------------|-------------------------------|
D|--------------------------------------|-------------------------------|-------------------------------|
A|--------------------------------------|-------------------------------|-------------------------------|
E|--------------------------------------|-------------------------------|-------------------------------|


E|-12--13---15--15--15-13-12------|--------------------------12---|-17-------17--17---16---|
B|----------------------------15--|-13-15-13-12-------------------|------------------------|
G|--------------------------------|-------------14--12--14--------|------------------------|
D|--------------------------------|-------------------------------|------------------------|
A|--------------------------------|-------------------------------|------------------------|
E|--------------------------------|-------------------------------|------------------------|


E|-17-------17--------|-----17-19-17-19-17----------17----------17----|-------17-19-21-17-----17------17------|
B|--------------------|--------------------19-17-19----------------19-|-17-19-------------19------------------|
G|--------------------|--------------------------------19-17-19-------|---------------------------17------19--|
D|--------------------|-----------------------------------------------|---------------------------------------|
A|--------------------|-----------------------------------------------|---------------------------------------|
E|--------------------|-----------------------------------------------|---------------------------------------|


E|-------------17-19-17----------17---17--|-------17------17-19-21-19---------------|
B|-------17-19----------19-17-19----------|-----------17-----------------19-19--19--|
G|-17-19----------------------------------|-17-19-----------------------------------|
D|----------------------------------------|-----------------------------------------|
A|----------------------------------------|-----------------------------------------|
E|----------------------------------------|-----------------------------------------|


E|-------17------------|-----5--------------5---|-5----------5---|-5---7----8---7--8--7--5------5---|
B|-19--------19---19---|------------------------|--------8-------|--------------------------8---5---|
G|---------------------|----------7---7---------|----------------|----------------------------------|
D|---------------------|----------9-------------|----------------|----------------------------------|
A|---------------------|------------------------|----------------|----------------------------------|
E|---------------------|------------------------|----------------|----------------------------------|


E|-5-------------5----7---|-7----8-7-5----------------------------|-----------5-------5---|
B|-5-----8---8------------|------------------7---8--7--5------5---|-5-----5-------8-------|
G|------------------------|-------------------------------7---5---|-5-----5---------------|
D|------------------------|---------------------------------------|-----------------------|
A|------------------------|---------------------------------------|-----------------------|
E|------------------------|---------------------------------------|-----------------------|


E|-7-----8---8---7--8----------|-------5-----------------------|-------5-------------------|
B|-------------------------8---|-8---------7--8--7--5------5---|-5---------7-----------5---|
G|-----------------------------|-----------------------7---5---|-5-------------7---7---5---|
D|-----------------------------|-------------------------------|---------------------------|
A|-----------------------------|-------------------------------|---------------------------|
E|-----------------------------|-------------------------------|---------------------------|


E|-----------5-------5---|-5---7-----7---8-----|-7--8--7--5-----------5-----|--------------------5-----|
B|-5-----5-------8-------|---------------------|-------------7----7---------|-8---7--5-----------------|
G|-5-----5---------------|---------------------|----------------------------|-----------7----7---------|
D|-----------------------|---------------------|----------------------------|--------------------------|
A|-----------------------|---------------------|----------------------------|--------------------------|
E|-----------------------|---------------------|----------------------------|--------------------------|


E|--------------------5-----|--------------------------5---7---|-7---5--------5---------5----|
B|-8---7--5-----------------|-7--8--7--5-------5---7-----------|----------8--------7---------|
G|-----------7----7---------|-------------7----5---------------|-----------------------------|
D|--------------------------|----------------------------------|-----------------------------|
A|--------------------------|----------------------------------|-----------------------------|
E|--------------------------|----------------------------------|-----------------------------|


E|-----------7--------------5----|------5---------------|--------------------------------|
B|------5----7----5----8---------|-7--------------------|--------------------------------|
G|-7---------7-------------------|-----------7----7-----|-7----7----7----7---7---5-------|
D|-------------------------------|----------------------|----------------------------7---|
A|-------------------------------|----------------------|--------------------------------|
E|-------------------------------|----------------------|--------------------------------|


E|--------------------------------|--------------------------------|-----------------------------|
B|--------------------------------|--------------------------------|-8----8----8----8---8---5----|
G|-7----7----7----7---7---5-------|-7----7----7----7---7---5-------|-----------------------------|
D|----------------------------7---|----------------------------0---|-----------------------------|
A|--------------------------------|--------------------------------|-----------------------------|
E|--------------------------------|--------------------------------|-----------------------------|


E|-----------------------------|--------------------------------|-------------------------------|
B|-8----8----8----8---8---5----|-7----7----7----7---7-----------|-----------5----7----5---------|
G|-----------------------------|------------------------5-------|-5----7-------------------7----|
D|-----------------------------|----------------------------7---|-------------------------------|
A|-----------------------------|--------------------------------|-------------------------------|
E|-----------------------------|--------------------------------|-------------------------------|


E|-------------------------------|--------------------------5----|-8----7----5-------------------|
B|-------------------------------|------5----7----8----7---------|----------------8----7----5----|
G|-7----5----7----5----7----5----|-7-----------------------------|-------------------------------|
D|-------------------------------|-------------------------------|-------------------------------|
A|-------------------------------|-------------------------------|-------------------------------|
E|-------------------------------|-------------------------------|-------------------------------|


E|-3----3-----------2--------|-1----1----6------------|-----11-------4----4----|-5----------------------------|
B|-3----3-----------3---3----|-1----1----6----6-------|-----11-------4---------|-5----------------5-------5---|
G|--------------2-------2----|-2----2----7------------|-12--12---5-------------|-6--------6---6-------6-------|
D|----------0-----------0----|-3----3----8--------8---|-13--13-----------------|-7---7------------------------|
A|---------------------------|------------------------|------------------------|------------------------------|
E|---------------------------|------------------------|------------------------|------------------------------|


E|--------------------|------5---7---7------------|------2-----------------------|
B|---------5----5-----|------5---5---5---5----2---|-2------------2---2-------2---|
G|-----6---6----6-----|---------------------------|-2----------------------------|
D|-----7---7----7-----|---------------------------|-4--------4-----------4-------|
A|-7------------7-----|---------------------------|-4----------------------------|
E|--------------5-----|---------------------------|------------------------------|


E|------0----0-----0--2--|-2-----------2---2---------|------0--------------------|
B|-----------------------|---------------------2-----|------------------0--------|
G|-----------------------|---------2-----------------|-----------------------0---|
D|-2---------------------|-----4---------------------|----------2---2------------|
A|-----------------------|---------------------------|---------------------------|
E|-----------------------|---------------------------|---------------------------|


E|-------------2---2---------------|------0----0------------|-------------2---2---------------|
B|---------------------2-----------|---------------0--------|---------------------2-----------|
G|---------2-------------------2---|--------------------0---|---------2-------------------2---|
D|-----4-------------------4-------|------------------------|-----4-------------------4-------|
A|---------------------------------|-0----------------------|---------------------------------|
E|---------------------------------|------------------------|---------------------------------|


E|---------3---3-------5---5---5---|-2-----3---3---2--------|-3-------3-----------------------|
B|---------3---3-------5---5---5---|-3-----3---3---3--------|-3---3---3-------2---------------|
G|-----4---------------6---6---6---|-2-------------2----3---|-4-----------4-------2-----------|
D|-5---------------7---------------|-0----------------------|-------------------------2---4---|
A|---------------------------------|------------------------|---------------------------------|
E|---------------------------------|------------------------|---------------------------------|


E|------------------11--14---|-3------3----------2---2---2----|-----0-----------0------------|
B|-3-------3----12-----------|-3------3----------3---3---3----|-----0-----------0--------3---|
G|-2---2---------------------|-4---4-------------2---2---2----|-------------1--------1---1---|
D|---------------------------|-5---------5---5---0---0---0----|---------2------------2-------|
A|---------------------------|--------------------------------|------------------------------|
E|---------------------------|--------------------------------|-0----------------------------|


E|-----0-------0-------------|------------------------|---------------------------|
B|-3-----------0-------3-----|------5--------5--------|---------------------2-----|
G|-1-------1-----------1-----|------5--------5--------|---------------------2-----|
D|---------------------2-----|------5--------5----7---|---------------------4-----|
A|---------------------------|------------------------|---------------------------|
E|-----------------0---------|------------------------|-----0---2---0-------------|


E|---------------------|------------------------|---------------------------|------------------------|
B|------5--------5-----|------2--------2---2----|------5-------5---5--------|------2----2---2--------|
G|------5--------5-----|------2--------2---2----|------5-------5---5--------|------2----2---2--------|
D|------5--------5-----|------4--------4---4----|------5---7---5---5--------|------4----4---4--------|
A|-----------0---------|------------------------|---------------------------|------------------------|
E|---------------------|-----------2-------2----|---------------------------|------------------------|


E|------------------------|------------------------|---------3---3-------5--------|
B|------5--------5----5---|------2-----------2-----|-----3---3---3-------5----0---|
G|------5--------5----5---|------2-----------2-----|-----4---------------6----0---|
D|------5--------5----5---|------4-----------4-----|-5---------------7------------|
A|-----------0------------|------------------------|------------------------------|
E|------------------------|----------0---2---------|------------------------------|


E|-2---2---2---3---3---2-----------|-7---7---7---7---9---9---9-------|-2---2---2---3---3---2-----------|
B|-3---3---3---3---3---3-------0---|-8---8---8---8---10--10--10--0---|-3---3---3---3---3---3-------0---|
G|-2-------2---2---2---2---2---0---|-7---7---7---7---9---9---9---0---|-2-------2---2---2---2---2---0---|
D|-0-------0-----------0---0-------|-9---9---9---9---11--11--11------|-0-------0-----------0---0-------|
A|---------------------------------|---------------------------------|---------------------------------|
E|---------------------------------|---------------------------------|---------------------------------|


E|-----------0----0----|-2---2---2---3---3---2-----------|-----------0----0----|-2---2---2---3---3---2-----------|
B|-1----1----1----1----|-3---3---3---3---3---3-------0---|-1----1----1----1----|-3---3---3---3---3---3-------0---|
G|-2----2----0----0----|-2-------2---2---2---2---2---0---|-2----2----0----0----|-2-------2---2---2---2---2---0---|
D|-3----3----2----2----|-0-------0---0-------0---0-------|-3----3----2----2----|-0-------0---0-------0---0-------|
A|-3----3----3----3----|---------------------------------|-3----3----3----3----|---------------------------------|
E|-1----1--------------|---------------------------------|-1----1--------------|---------------------------------|


E|-----------0----0-------|-2---2---2---3---3---2-----------|-----------0----0----|
B|-1----1----1----1-------|-3---3---3---3---3---3-------0---|-1----1----1----1----|
G|-2----2----0----0---0---|-2-------2---2---2---2---2---0---|-2----2----0----0----|
D|-3----3----2----2---0---|-0-------0-----------0---0-------|-3----3----2----2----|
A|-3----3----3----3-------|---------------------------------|-3----3----3----3----|
E|-1----1-----------------|---------------------------------|-1----1--------------|


E|-2------|-2-----------|---------2-----0---1----|-1----6------------11---|-11------------------|
B|-3------|-3-----------|---------3-----0---1----|-1----6------------11---|-11-------------5----|
G|-2------|-2-----------|-4---4---2---------2----|-2----7------------12---|-12---5----5----6----|
D|-0------|-0------5----|-5---5---0---------3----|-3----8----8---13--13---|-13---6----6----7----|
A|--------|--------5----|-------------------3----|-3----8----8---13--13---|-13---6----6----7----|
E|--------|--------3----|-------------------1----|-1----6----6---11--11---|-11---4----4----5----|


E|-----------------|--------|
B|------5-----5----|--------|
G|------6-----6----|--------|
D|------7-----7----|--------|
A|------7-----7----|--------|
E|------5-----5----|--------|





Track 3: Untitled

G|--------|--------|--------|--------|--------|--------|--------|--------|--------|
D|--------|--------|--------|--------|--------|--------|--------|--------|--------|
A|--------|--------|--------|--------|--------|--------|--------|--------|--------|
E|--------|--------|--------|--------|--------|--------|--------|--------|--------|


G|--------|--------|--------|--------|--------|--------|--------|--------|--------|
D|--------|--------|--------|--------|--------|--------|--------|--------|--------|
A|--------|--------|--------|--------|--------|--------|--------|--------|--------|
E|--------|--------|--------|--------|--------|--------|--------|--------|--------|


G|--------|--------|--------|--------|--------|--------|--------|--------|--------|
D|--------|--------|--------|--------|--------|--------|--------|--------|--------|
A|--------|--------|--------|--------|--------|--------|--------|--------|--------|
E|--------|--------|--------|--------|--------|--------|--------|--------|--------|


G|--------|--------|--------|--------|--------|--------|--------|--------|--------|
D|--------|--------|--------|--------|--------|--------|--------|--------|--------|
A|--------|--------|--------|--------|--------|--------|--------|--------|--------|
E|--------|--------|--------|--------|--------|--------|--------|--------|--------|


G|--------|--------|--------|--------|--------|--------|--------|--------|--------|
D|--------|--------|--------|--------|--------|--------|--------|--------|--------|
A|--------|--------|--------|--------|--------|--------|--------|--------|--------|
E|--------|--------|--------|--------|--------|--------|--------|--------|--------|


G|--------|--------|--------|--------|--------|--------|--------|--------|--------|
D|--------|--------|--------|--------|--------|--------|--------|--------|--------|
A|--------|--------|--------|--------|--------|--------|--------|--------|--------|
E|--------|--------|--------|--------|--------|--------|--------|--------|--------|


G|--------|--------|--------|--------|--------|--------|--------|--------|--------|
D|--------|--------|--------|--------|--------|--------|--------|--------|--------|
A|--------|--------|--------|--------|--------|--------|--------|--------|--------|
E|--------|--------|--------|--------|--------|--------|--------|--------|--------|


G|--------|--------|--------|--------|--------|--------|--------|--------|--------|
D|--------|--------|--------|--------|--------|--------|--------|--------|--------|
A|--------|--------|--------|--------|--------|--------|--------|--------|--------|
E|--------|--------|--------|--------|--------|--------|--------|--------|--------|


G|--------|--------|--------|--------|--------|--------|--------|--------|--------|
D|--------|--------|--------|--------|--------|--------|--------|--------|--------|
A|--------|--------|--------|--------|--------|--------|--------|--------|--------|
E|--------|--------|--------|--------|--------|--------|--------|--------|--------|


G|--------|--------|--------|--------|--------|--------|--------|--------|--------|
D|--------|--------|--------|--------|--------|--------|--------|--------|--------|
A|--------|--------|--------|--------|--------|--------|--------|--------|--------|
E|--------|--------|--------|--------|--------|--------|--------|--------|--------|


G|--------|--------|--------|--------|--------|--------|--------|--------|--------|
D|--------|--------|--------|--------|--------|--------|--------|--------|--------|
A|--------|--------|--------|--------|--------|--------|--------|--------|--------|
E|--------|--------|--------|--------|--------|--------|--------|--------|--------|


G|--------|--------|--------|--------|--------|--------|--------|--------|--------|
D|--------|--------|--------|--------|--------|--------|--------|--------|--------|
A|--------|--------|--------|--------|--------|--------|--------|--------|--------|
E|--------|--------|--------|--------|--------|--------|--------|--------|--------|


G|--------|--------|--------|--------|--------|--------|--------|--------|--------|
D|--------|--------|--------|--------|--------|--------|--------|--------|--------|
A|--------|--------|--------|--------|--------|--------|--------|--------|--------|
E|--------|--------|--------|--------|--------|--------|--------|--------|--------|


G|--------|--------|--------|--------|--------|--------|--------|--------|--------|
D|--------|--------|--------|--------|--------|--------|--------|--------|--------|
A|--------|--------|--------|--------|--------|--------|--------|--------|--------|
E|--------|--------|--------|--------|--------|--------|--------|--------|--------|


G|--------|--------|--------|--------|--------|--------|--------|--------|--------|
D|--------|--------|--------|--------|--------|--------|--------|--------|--------|
A|--------|--------|--------|--------|--------|--------|--------|--------|--------|
E|--------|--------|--------|--------|--------|--------|--------|--------|--------|


G|--------|--------|--------|--------|--------|--------|--------|--------|--------|
D|--------|--------|--------|--------|--------|--------|--------|--------|--------|
A|--------|--------|--------|--------|--------|--------|--------|--------|--------|
E|--------|--------|--------|--------|--------|--------|--------|--------|--------|


G|--------|--------|--------|--------|--------|--------|--------|--------|--------|
D|--------|--------|--------|--------|--------|--------|--------|--------|--------|
A|--------|--------|--------|--------|--------|--------|--------|--------|--------|
E|--------|--------|--------|--------|--------|--------|--------|--------|--------|


G|--------|--------|--------|--------|--------|--------|--------|--------|--------|
D|--------|--------|--------|--------|--------|--------|--------|--------|--------|
A|--------|--------|--------|--------|--------|--------|--------|--------|--------|
E|--------|--------|--------|--------|--------|--------|--------|--------|--------|


G|--------|--------|--------|--------|--------|--------|--------|--------|--------|
D|--------|--------|--------|--------|--------|--------|--------|--------|--------|
A|--------|--------|--------|--------|--------|--------|--------|--------|--------|
E|--------|--------|--------|--------|--------|--------|--------|--------|--------|


G|--------|--------|--------|--------|--------|--------|--------|--------|--------|
D|--------|--------|--------|--------|--------|--------|--------|--------|--------|
A|--------|--------|--------|--------|--------|--------|--------|--------|--------|
E|--------|--------|--------|--------|--------|--------|--------|--------|--------|


G|--------|--------|--------|--------|--------|--------|--------|--------|--------|
D|--------|--------|--------|--------|--------|--------|--------|--------|--------|
A|--------|--------|--------|--------|--------|--------|--------|--------|--------|
E|--------|--------|--------|--------|--------|--------|--------|--------|--------|


G|--------|--------|--------|--------|--------|--------|--------|--------|--------|
D|--------|--------|--------|--------|--------|--------|--------|--------|--------|
A|--------|--------|--------|--------|--------|--------|--------|--------|--------|
E|--------|--------|--------|--------|--------|--------|--------|--------|--------|


G|--------|--------|--------|--------|--------|--------|--------|--------|--------|
D|--------|--------|--------|--------|--------|--------|--------|--------|--------|
A|--------|--------|--------|--------|--------|--------|--------|--------|--------|
E|--------|--------|--------|--------|--------|--------|--------|--------|--------|


G|--------|--------|--------|--------|--------|--------|--------|--------|--------|
D|--------|--------|--------|--------|--------|--------|--------|--------|--------|
A|--------|--------|--------|--------|--------|--------|--------|--------|--------|
E|--------|--------|--------|--------|--------|--------|--------|--------|--------|


G|--------|--------|--------|--------|--------|
D|--------|--------|--------|--------|--------|
A|--------|--------|--------|--------|--------|
E|--------|--------|--------|--------|--------|