Site menu:

    

Browse: 0-9 A B C D E F G H I J K L N O P Q R S T U V W X Y Z

the doors - five to one:



Title: Five To One
Artist: 
Album: Waiting For The Sun
Author: The Doors


Track 1: elec. gtr (clean)

E|--------|--------|--------|--------------------|------------------------|------------------------|
B|--------|--------|--------|--------------------|------------------------|------------------------|
G|--------|--------|--------|--------------------|------------------------|------------------------|
D|--------|--------|--------|--------------------|------------------------|------------------------|
A|--------|--------|--------|--------------------|-0----0----0----0-------|-0----0----0----0-------|
E|--------|--------|--------|----------------3---|--------------------3---|--------------------3---|


E|------------------------|------------------------|------------------------|------------------------|
B|------------------------|------------------------|------------------------|------------------------|
G|------------------------|------------------------|------------------------|------------------------|
D|------------------------|------------------------|------------------------|------------------------|
A|-0----0----0----0-------|-0----0----0----0-------|-0----0----0----0-------|-0----0----0----0-------|
E|--------------------3---|--------------------3---|--------------------3---|--------------------3---|


E|------------------------|------------------------|---------------------------------|
B|------------------------|------------------------|---------------------------------|
G|------------------------|------------------------|---------------------------------|
D|------------------------|------------------------|-2---2---2---2---2---2---2---2---|
A|-0----0----0----0-------|-0----0----0----0-------|---------------------------------|
E|--------------------3---|--------------------3---|---------------------------------|


E|---------------------------------|-------------------------|-------------------------|
B|---------------------------------|-------------------------|-------------------------|
G|---------------------------------|-7---7---5--7--5---5-----|-7---7---5--7--5---5-----|
D|-------------------------2-------|-------------------------|-------------------------|
A|-3---3---3---3---5---5-----------|-------------------------|-------------------------|
E|---------------------------------|-------------------------|-------------------------|


E|---------------------------|-------------------------|-----------------------------|
B|---------------------------|-------------------------|-----------------------------|
G|-7--7--5---5--7--5---5-----|-7---7---5--7--5---5-----|-7---5---5--7--5---5----5----|
D|---------------------------|-------------------------|-----------------------------|
A|---------------------------|-------------------------|-----------------------------|
E|---------------------------|-------------------------|-----------------------------|


E|-------------------------|-----------------------------|--------------------------------|
B|-------------------------|-----------------------------|--------------------------------|
G|-7---7---5--7--5---5-----|-7---7---7---5--7--5---------|-----7---5--7--5---5----7----7--|
D|-------------------------|------------------------7----|--------------------------------|
A|-------------------------|-----------------------------|--------------------------------|
E|-------------------------|-----------------------------|--------------------------------|


E|--------|--------|--------|--------|--------|--------|--------|--------|--------|
B|--------|--------|--------|--------|--------|--------|--------|--------|--------|
G|--------|--------|--------|--------|--------|--------|--------|--------|--------|
D|--------|--------|--------|--------|--------|--------|--------|--------|--------|
A|--------|--------|--------|--------|--------|--------|--------|--------|--------|
E|--------|--------|--------|--------|--------|--------|--------|--------|--------|


E|--------|--------|--------|--------|--------|--------|--------|--------|--------|
B|--------|--------|--------|--------|--------|--------|--------|--------|--------|
G|--------|--------|--------|--------|--------|--------|--------|--------|--------|
D|--------|--------|--------|--------|--------|--------|--------|--------|--------|
A|--------|--------|--------|--------|--------|--------|--------|--------|--------|
E|--------|--------|--------|--------|--------|--------|--------|--------|--------|


E|--------|--------|--------|--------|--------|--------|--------|--------|--------|
B|--------|--------|--------|--------|--------|--------|--------|--------|--------|
G|--------|--------|--------|--------|--------|--------|--------|--------|--------|
D|--------|--------|--------|--------|--------|--------|--------|--------|--------|
A|--------|--------|--------|--------|--------|--------|--------|--------|--------|
E|--------|--------|--------|--------|--------|--------|--------|--------|--------|


E|--------|--------|--------|--------|--------|--------|--------|--------|--------|
B|--------|--------|--------|--------|--------|--------|--------|--------|--------|
G|--------|--------|--------|--------|--------|--------|--------|--------|--------|
D|--------|--------|--------|--------|--------|--------|--------|--------|--------|
A|--------|--------|--------|--------|--------|--------|--------|--------|--------|
E|--------|--------|--------|--------|--------|--------|--------|--------|--------|


E|--------|--------|--------|--------|--------|--------|--------|--------|--------|
B|--------|--------|--------|--------|--------|--------|--------|--------|--------|
G|--------|--------|--------|--------|--------|--------|--------|--------|--------|
D|--------|--------|--------|--------|--------|--------|--------|--------|--------|
A|--------|--------|--------|--------|--------|--------|--------|--------|--------|
E|--------|--------|--------|--------|--------|--------|--------|--------|--------|


E|--------|--------|--------|--------|--------|--------|--------|--------|--------|
B|--------|--------|--------|--------|--------|--------|--------|--------|--------|
G|--------|--------|--------|--------|--------|--------|--------|--------|--------|
D|--------|--------|--------|--------|--------|--------|--------|--------|--------|
A|--------|--------|--------|--------|--------|--------|--------|--------|--------|
E|--------|--------|--------|--------|--------|--------|--------|--------|--------|


E|--------|--------|--------|--------|--------|--------|--------|--------|--------|
B|--------|--------|--------|--------|--------|--------|--------|--------|--------|
G|--------|--------|--------|--------|--------|--------|--------|--------|--------|
D|--------|--------|--------|--------|--------|--------|--------|--------|--------|
A|--------|--------|--------|--------|--------|--------|--------|--------|--------|
E|--------|--------|--------|--------|--------|--------|--------|--------|--------|


E|--------|--------|--------|--------|--------|--------|--------|--------|--------|
B|--------|--------|--------|--------|--------|--------|--------|--------|--------|
G|--------|--------|--------|--------|--------|--------|--------|--------|--------|
D|--------|--------|--------|--------|--------|--------|--------|--------|--------|
A|--------|--------|--------|--------|--------|--------|--------|--------|--------|
E|--------|--------|--------|--------|--------|--------|--------|--------|--------|


E|--------|
B|--------|
G|--------|
D|--------|
A|--------|
E|--------|





Track 2: fuzz pedal

E|--------|--------|--------|--------|--------|--------|--------|--------|--------|
B|--------|--------|--------|--------|--------|--------|--------|--------|--------|
G|--------|--------|--------|--------|--------|--------|--------|--------|--------|
D|--------|--------|--------|--------|--------|--------|--------|--------|--------|
A|--------|--------|--------|--------|--------|--------|--------|--------|--------|
E|--------|--------|--------|--------|--------|--------|--------|--------|--------|


E|--------|--------|--------|--------|--------|--------|--------|--------|--------|
B|--------|--------|--------|--------|--------|--------|--------|--------|--------|
G|--------|--------|--------|--------|--------|--------|--------|--------|--------|
D|--------|--------|--------|--------|--------|--------|--------|--------|--------|
A|--------|--------|--------|--------|--------|--------|--------|--------|--------|
E|--------|--------|--------|--------|--------|--------|--------|--------|--------|


E|--------|--------|--------|--------|--------|--------|--------|--------|-19-19-17-----------------------------------------|
B|--------|--------|--------|--------|--------|--------|--------|--------|----------19-19-17--------------------------------|
G|--------|--------|--------|--------|--------|--------|--------|--------|-------------------19-19-17----------17-19-1917---|
D|--------|--------|--------|--------|--------|--------|--------|--------|----------------------------19-17-19-----------19-|
A|--------|--------|--------|--------|--------|--------|--------|--------|--------------------------------------------------|
E|--------|--------|--------|--------|--------|--------|--------|--------|--------------------------------------------------|


E|--------------------------------|---------------------------------------------|----------------------------------|
B|--------------------------------|-5-------5--------5--------------------------|------------------------------17--|
G|-19--19--19--17-19-17---19------|-----7------7--7-----7--7--5-----------------|-5---7---7--7--5--7--5------------|
D|--------------------------------|------------------------------7--5-----5--7--|----------------------------------|
A|--------------------------------|------------------------------------7--------|----------------------------------|
E|--------------------------------|---------------------------------------------|----------------------------------|


E|------------------------------------------------|-------------------------------|
B|-----20--20-17-20-17-20-20-17-20-20-17----------|-------------------------------|
G|---------------------------------------19-19-17-|----17-19--19--17-19-17--------|
D|------------------------------------------------|-19-----------------------19---|
A|------------------------------------------------|-------------------------------|
E|------------------------------------------------|-------------------------------|


E|-7---7---5--------------------------------|--------------------------------|--------|
B|------------7--5--------------------------|--------------------------------|--------|
G|------------------7-7-5----5--7---7---7---|-7---7---7---5--7--5----5--5----|--------|
D|------------------------7-----------------|--------------------------------|--------|
A|------------------------------------------|--------------------------------|--------|
E|------------------------------------------|--------------------------------|--------|


E|--------|--------|--------|--------|--------|--------|--------|--------|--------|
B|--------|--------|--------|--------|--------|--------|--------|--------|--------|
G|--------|--------|--------|--------|--------|--------|--------|--------|--------|
D|--------|--------|--------|--------|--------|--------|--------|--------|--------|
A|--------|--------|--------|--------|--------|--------|--------|--------|--------|
E|--------|--------|--------|--------|--------|--------|--------|--------|--------|


E|--------|--------|--------|--------|--------|--------|--------|--------|--------|
B|--------|--------|--------|--------|--------|--------|--------|--------|--------|
G|--------|--------|--------|--------|--------|--------|--------|--------|--------|
D|--------|--------|--------|--------|--------|--------|--------|--------|--------|
A|--------|--------|--------|--------|--------|--------|--------|--------|--------|
E|--------|--------|--------|--------|--------|--------|--------|--------|--------|


E|--------|--------|--------|--------|--------|--------|----------------19--|-19-19-19--19--19--19-19--17----17-19--|
B|--------|--------|--------|--------|--------|--------|--------------------|-----------------------------20--------|
G|--------|--------|--------|--------|--------|--------|--------------------|---------------------------------------|
D|--------|--------|--------|--------|--------|--------|--------------------|---------------------------------------|
A|--------|--------|--------|--------|--------|--------|--------------------|---------------------------------------|
E|--------|--------|--------|--------|--------|--------|--------------------|---------------------------------------|


E|-19--19--19-17-----17----17-----------------|-------------------------------------------|
B|---------------19-----19----19-17-----------|-------17-20-20-17-----20-20-17--20-20--17-|
G|----------------------------------19-1917---|-17-19-------------------------------------|
D|-----------------------------------------19-|-------------------------------------------|
A|--------------------------------------------|-------------------------------------------|
E|--------------------------------------------|-------------------------------------------|


E|-----------------------------------------|---------------------------------------|
B|----17-----------------------------------|------------------------------------17-|
G|-19----19--19--19--17-19-17--17----17-19-|-17--19--19--19--17-19-17--17----17----|
D|--------------------------------19-------|------------------------------19-------|
A|-----------------------------------------|---------------------------------------|
E|-----------------------------------------|---------------------------------------|


E|---------------------------------------|-------------------------------------------------|
B|-----------------------------------20--|-20-17-20-20-20-17-20-20-17-20-20-17-------------|
G|-19--19--17-19-17--17----17-19-21------|-------------------------------------19-19-17----|
D|----------------------19---------------|----------------------------------------------19-|
A|---------------------------------------|-------------------------------------------------|
E|---------------------------------------|-------------------------------------------------|


E|----------------------19--19--19-17----17----17----|-19--19--19-19-17----19--17-------17-19--|
B|-------17-20-20-17------------------19----19----19-|------------------19--------19-19--------|
G|-17----------------18------------------------------|-----------------------------------------|
D|----19---------------------------------------------|-----------------------------------------|
A|---------------------------------------------------|-----------------------------------------|
E|---------------------------------------------------|-----------------------------------------|


E|-19-19-17-------------------------------------|-----------------------------------------------|
B|----------19-19-17----------------------------|-------17-20-20-17----17----17-----------------|
G|--------------------19-191917---17-19-17------|-17-19-------------19----19----19--19-19-19-19-|
D|-----------------------------19------------19-|-----------------------------------------------|
A|----------------------------------------------|-----------------------------------------------|
E|----------------------------------------------|-----------------------------------------------|


E|---------------------------------------|-------------------------------------------|
B|---------------------------------------|-------------------------------------------|
G|-19-19-17--------------------------17--|-19--19-19-17-19-17--17----17----------17--|
D|-----------19-17-19--17-19-17--19------|------------------------19----19-17-19-----|
A|---------------------------------------|-------------------------------------------|
E|---------------------------------------|-------------------------------------------|


E|-------------------------------------|---------------------------------------|--------------------------------------|
B|-------------------------------------|---------------------------------------|--------------------------------------|
G|-19--19--17-19-17--17------17----17--|-19--19--17-19-17--17----17----17--19--|-19--19--17----17---------------17-19-|
D|-----------------------19-----19-----|----------------------19----19---------|------------19----19-17---17-19-------|
A|-------------------------------------|---------------------------------------|--------------------------------------|
E|-------------------------------------|---------------------------------------|--------------------------------------|


E|------------------------------------------------|-------------------------------------------------19-|
B|----------------17-20---20-20-17-21-21-20-17-20-|-20--20--17----17-------------------172020-20-17----|
G|-19-17----17-19---------------------------------|------------19----19-19-17----17-19-----------------|
D|-------19---------------------------------------|---------------------------19-----------------------|
A|------------------------------------------------|----------------------------------------------------|
E|------------------------------------------------|----------------------------------------------------|


E|-19--19--17-19-17--19--17----17-19---|-19-19-17-------------------------------0---|
B|--------------------------19---------|----------19-17-------------------------0---|
G|-------------------------------------|----------------19-1917---17-19-18----------|
D|-------------------------------------|-----------------------19-----------19------|
A|-------------------------------------|--------------------------------------------|
E|-------------------------------------|--------------------------------------------|


E|-------------------------------------------------|-----------5--7--5---7---7---5-------|
B|-5-------5---------5--8--8--5-----5--------------|-------5-------------------------7---|
G|-----7-------7--7--------------7-----7--7--5-----|-5--7--------------------------------|
D|----------------------------------------------7--|-------------------------------------|
A|-------------------------------------------------|-------------------------------------|
E|-------------------------------------------------|-------------------------------------|


E|------------------------------|----------------------------------------------|----------------------------------------------------|
B|-14---15--15--17--17----------|----------------------------------------------|-------17-20-20-20-20-20-20-20-17----17-------------|
G|----------------------19--19--|-17-19-17----------------------17-19-19-17----|-17-19----------------------------19----19-19-17----|
D|------------------------------|-----------19-17-19--19--17-19-------------19-|-------------------------------------------------19-|
A|------------------------------|----------------------------------------------|----------------------------------------------------|
E|------------------------------|----------------------------------------------|----------------------------------------------------|


E|-------------------------------19--19--|----19--19-19-19-----19--19--19-19-17----17-|
B|-------17-20-20--20--20-20-------------|--------------------------------------19----|
G|-17-19---------------------------------|--------------------------------------------|
D|---------------------------------------|--------------------------------------------|
A|---------------------------------------|--------------------------------------------|
E|---------------------------------------|--------------------------------------------|


E|-----19--19-19-17----17-----------|-------------------------------------------|---------------------------|
B|------------------20----------20--|-20--19-17----17---------------------------|---------------------------|
G|----------------------------------|-----------19----19--19--17-19-17----17----|-17-19-19--19-17-----------|
D|----------------------------------|----------------------------------19----19-|-----------------19--------|
A|----------------------------------|-------------------------------------------|---------------------------|
E|----------------------------------|-------------------------------------------|---------------------------|


E|----------------------------------|----------------------------------|-----------------------------------------------|
B|----------------------------------|----------------------------------|-----------------------------------------------|
G|-----7---7---5--7--5-------5------|-7---7---5--7--5--------------5---|-7--7--5-----7--7--5-----7--7--5-----5--7---7--|
D|------------------------7---------|-------------------7----5--7------|----------7-----------7-----------7------------|
A|----------------------------------|----------------------------------|-----------------------------------------------|
E|----------------------------------|----------------------------------|-----------------------------------------------|


E|-----------------------------|---------------------------------------------|
B|-----------------------------|---------------------------------------------|
G|-7--7------7--7--5-----------|-7--7--5--7--7--7--7----------7--7--5--7--7--|
D|--------------------7--7-----|----------------------7--5-------------------|
A|-----------------------------|---------------------------------------------|
E|-----------------------------|---------------------------------------------|





Track 3: elec. bass

G|--------|--------------------|------------------------|------------------------|
D|--------|--------------------|------------------------|------------------------|
A|--------|--------------------|------------------------|------------------------|
E|--------|----------------3---|-5----5----5----5---3---|-5----5----5----5---3---|


G|------------------------|------------------------|------------------------|------------------------|
D|------------------------|------------------------|------------------------|------------------------|
A|------------------------|------------------------|------------------------|------------------------|
E|-5----5----5----5---3---|-5----5----5----5---3---|-5----5----5----5---3---|-5----5----5----5---3---|


G|------------------------|------------------------|------------------------|------------------------|
D|------------------------|------------------------|------------------------|------------------------|
A|------------------------|------------------------|------------------------|------------------------|
E|-5----5----5----5---3---|-5----5----5----5---3---|-5----5----5----5---3---|-5----5----5----5---3---|


G|------------------------|------------------------|------------------------|------------------------|
D|------------------------|------------------------|------------------------|------------------------|
A|------------------------|------------------------|------------------------|------------------------|
E|-5----5----5----5---3---|-5----5----5----5---3---|-5----5----5----5---3---|-5----5----5----5---3---|


G|------------------------|------------------------|------------------------|------------------------|
D|------------------------|------------------------|------------------------|------------------------|
A|------------------------|------------------------|------------------------|------------------------|
E|-5----5----5----5---3---|-5----5----5----5---3---|-5----5----5----5---3---|-5----5----5----5---3---|


G|------------------------|------------------------|--------------------|--------|
D|------------------------|------------------------|--------------------|--------|
A|------------------------|------------------------|--------------------|--------|
E|-5----5----5----5---3---|-5----5----5----5---3---|-5------------------|--------|


G|---------------------------------|------------------------------|------------------------|
D|---------------------------------|-14--14--14--14--14--14-------|------------------------|
A|-0---0---0---0---0---0---0---0---|------------------------------|------------------------|
E|---------------------------------|-------------------------12---|-5----5----5----5---3---|


G|------------------------|------------------------|------------------------|------------------------|
D|------------------------|------------------------|------------------------|------------------------|
A|------------------------|------------------------|------------------------|------------------------|
E|-5----5----5----5---3---|-5----5----5----5---3---|-5----5----5----5---3---|-5----5----5----5---3---|


G|------------------------|------------------------|------------------------|---------------------|
D|------------------------|------------------------|------------------------|---------------------|
A|------------------------|------------------------|------------------------|---------------------|
E|-5----5----5----5---3---|-5----5----5----5---3---|-5----5----5----5---3---|-5---------------3---|


G|------------------------|--------------------|------------------------|--------------------|
D|------------------------|--------------------|------------------------|--------------------|
A|------------------------|--------------------|------------------------|--------------------|
E|-5--------------10--3---|-5-----5--------3---|-5--------------10--3---|-5-----5--------3---|


G|------------------------|--------------------|------------------------|--------------------|
D|------------------------|--------------------|------------------------|--------------------|
A|------------------------|--------------------|------------------------|--------------------|
E|-5--------------10--3---|-5-----5--------3---|-5--------------10--3---|-5-----5--------3---|


G|------------------------|--------------------|------------------------|--------------------|
D|------------------------|--------------------|------------------------|--------------------|
A|------------------------|--------------------|------------------------|--------------------|
E|-5--------------10--3---|-5-----5--------3---|-5--------------10--3---|-5-----5--------3---|


G|------------------------|--------------------|------------------------|-----------------|
D|------------------------|--------------------|------------------------|-----------------|
A|------------------------|--------------------|------------------------|-----------------|
E|-5--------------10--3---|-5-----5--------3---|-5--------------10--3---|-5---------------|


G|-----------------|-----------------|-----------------|-----------------|-----------------|
D|-----------------|-----------------|-----------------|-----------------|-----------------|
A|-----------------|-----------------|-----------------|-----------------|-----------------|
E|-------------3---|-5---------------|-------------3---|-5---------------|-------------3---|


G|---------------------|------------------------------|-------------------------14---|
D|---------------------|------------------------------|-----14--14--14--14--14-------|
A|---------------------|-0---0---0---0---0---0---0----|-19---------------------------|
E|-5---------------3---|------------------------------|------------------------------|


G|------------------------|------------------------|------------------------|------------------------|
D|------------------------|------------------------|------------------------|------------------------|
A|------------------------|------------------------|------------------------|------------------------|
E|-5----5----5----5---3---|-5----5----5----5---3---|-5----5----5----5---3---|-5----5----5----5---3---|


G|------------------------|------------------------|------------------------|------------------------|
D|------------------------|------------------------|------------------------|------------------------|
A|------------------------|------------------------|------------------------|------------------------|
E|-5----5----5----5---3---|-5----5----5----5---3---|-5----5----5----5---3---|-5----5----5----5---3---|


G|------------------------|------------------------|------------------------|------------------------|
D|------------------------|------------------------|------------------------|------------------------|
A|------------------------|------------------------|------------------------|------------------------|
E|-5----5----5----5---3---|-5----5----5----5---3---|-5----5----5----5---3---|-5----5----5----5---3---|


G|------------------------|------------------------|-----------------|--------|--------|
D|------------------------|------------------------|-----------------|--------|--------|
A|------------------------|------------------------|-----------------|--------|--------|
E|-5----5----5----5---3---|-5----5----5----5---3---|-5---------------|--------|--------|


G|--------|--------|--------|--------|--------|-----------------|------------------------|
D|--------|--------|--------|--------|--------|-----------------|------------------------|
A|--------|--------|--------|--------|--------|-----------------|------------------------|
E|--------|--------|--------|--------|--------|-------------3---|-5----5----5----5---3---|


G|------------------------|------------------------|------------------------|------------------------|
D|------------------------|------------------------|------------------------|------------------------|
A|------------------------|------------------------|------------------------|------------------------|
E|-5----5----5----5---3---|-5----5----5----5---3---|-5----5----5----5---3---|-5----5----5----5---3---|


G|------------------------|------------------------|------------------------|------------------------|
D|------------------------|------------------------|------------------------|------------------------|
A|------------------------|------------------------|------------------------|------------------------|
E|-5----5----5----5---3---|-5----5----5----5---3---|-5----5----5----5---3---|-5----5----5----5---3---|


G|------------------------|------------------------|------------------------|------------------------|
D|------------------------|------------------------|------------------------|------------------------|
A|------------------------|------------------------|------------------------|------------------------|
E|-5----5----5----5---3---|-5----5----5----5---3---|-5----5----5----5---3---|-5----5----5----5---3---|